  0
SECTION
  2
HEADER
  9
$ACADVER
  1
AC1015
  9
$ACADMAINTVER
 70
     6
  9
$DWGCODEPAGE
  3
DOS850
  9
$INSBASE
 10
0.0
 20
0.0
 30
0.0
  9
$EXTMIN
 10
-93.0382
 20
13.0295
 30
1.000000E+20
  9
$EXTMAX
 10
47.1382
 20
90.3882
 30
-1.000000E+20
  9
$LIMMIN
 10
0.0
 20
0.0
  9
$LIMMAX
 10
0.0
 20
0.0
  9
$ORTHOMODE
 70
     0
  9
$REGENMODE
 70
     1
  9
$FILLMODE
 70
     1
  9
$QTEXTMODE
 70
     0
  9
$MIRRTEXT
 70
     1
  9
$LTSCALE
 40
1.0
  9
$ATTMODE
 70
     1
  9
$TEXTSIZE
 40
0.2
  9
$TRACEWID
 40
0.05
  9
$TEXTSTYLE
  7
Standard
  9
$CLAYER
  8
0
  9
$CELTYPE
  6
Continuous
  9
$CECOLOR
 62
   256
  9
$CELTSCALE
 40
1.0
  9
$DISPSILH
 70
     0
  9
$DIMSCALE
 40
1.0
  9
$DIMASZ
 40
0.18
  9
$DIMEXO
 40
0.0625
  9
$DIMDLI
 40
0.38
  9
$DIMRND
 40
0.0
  9
$DIMDLE
 40
0.0
  9
$DIMEXE
 40
0.18
  9
$DIMTP
 40
0.0
  9
$DIMTM
 40
0.0
  9
$DIMTXT
 40
0.18
  9
$DIMCEN
 40
0.09
  9
$DIMTSZ
 40
0.0
  9
$DIMTOL
 70
     0
  9
$DIMLIM
 70
     0
  9
$DIMTIH
 70
     1
  9
$DIMTOH
 70
     1
  9
$DIMSE1
 70
     0
  9
$DIMSE2
 70
     0
  9
$DIMTAD
 70
     0
  9
$DIMZIN
 70
     0
  9
$DIMBLK
  1

  9
$DIMASO
 70
     1
  9
$DIMSHO
 70
     1
  9
$DIMPOST
  1

  9
$DIMAPOST
  1

  9
$DIMALT
 70
     0
  9
$DIMALTD
 70
     2
  9
$DIMALTF
 40
25.4
  9
$DIMLFAC
 40
1.0
  9
$DIMTOFL
 70
     0
  9
$DIMTVP
 40
0.0
  9
$DIMTIX
 70
     0
  9
$DIMSOXD
 70
     0
  9
$DIMSAH
 70
     0
  9
$DIMBLK1
  1

  9
$DIMBLK2
  1

  9
$DIMSTYLE
  2
Standard
  9
$DIMCLRD
 70
     0
  9
$DIMCLRE
 70
     0
  9
$DIMCLRT
 70
     0
  9
$DIMTFAC
 40
1.0
  9
$DIMGAP
 40
0.09
  9
$DIMJUST
 70
     0
  9
$DIMSD1
 70
     0
  9
$DIMSD2
 70
     0
  9
$DIMTOLJ
 70
     1
  9
$DIMTZIN
 70
     0
  9
$DIMALTZ
 70
     0
  9
$DIMALTTZ
 70
     0
  9
$DIMUPT
 70
     0
  9
$DIMDEC
 70
     4
  9
$DIMTDEC
 70
     4
  9
$DIMALTU
 70
     2
  9
$DIMALTTD
 70
     2
  9
$DIMTXSTY
  7
Standard
  9
$DIMAUNIT
 70
     0
  9
$DIMADEC
 70
     0
  9
$DIMALTRND
 40
0.0
  9
$DIMAZIN
 70
     0
  9
$DIMDSEP
 70
     0
  9
$DIMATFIT
 70
     3
  9
$DIMFRAC
 70
     0
  9
$DIMLDRBLK
  1

  9
$DIMLUNIT
 70
     2
  9
$DIMLWD
 70
     0
  9
$DIMLWE
 70
     0
  9
$DIMTMOVE
 70
     0
  9
$LUNITS
 70
     2
  9
$LUPREC
 70
     4
  9
$SKETCHINC
 40
0.1
  9
$FILLETRAD
 40
0.0
  9
$AUNITS
 70
     0
  9
$AUPREC
 70
     0
  9
$MENU
  1
acad
  9
$ELEVATION
 40
0.0
  9
$PELEVATION
 40
0.0
  9
$THICKNESS
 40
0.0
  9
$LIMCHECK
 70
     0
  9
$CHAMFERA
 40
0.0
  9
$CHAMFERB
 40
0.0
  9
$CHAMFERC
 40
0.0
  9
$CHAMFERD
 40
0.0
  9
$SKPOLY
 70
     0
  9
$TDCREATE
 40
0.000000000
  9
$TDUCREATE
 40
0.000000000
  9
$TDUPDATE
 40
0.000000000
  9
$TDUUPDATE
 40
0.000000000
  9
$TDINDWG
 40
0.0000000000
  9
$TDUSRTIMER
 40
0.0000000000
  9
$USRTIMER
 70
     1
  9
$ANGBASE
 50
0.0
  9
$ANGDIR
 70
     0
  9
$PDMODE
 70
     0
  9
$PDSIZE
 40
0.0
  9
$PLINEWID
 40
0.0
  9
$SPLFRAME
 70
     0
  9
$SPLINETYPE
 70
     6
  9
$SPLINESEGS
 70
     8
  9
$HANDSEED
  5
32
  9
$SURFTAB1
 70
     6
  9
$SURFTAB2
 70
     6
  9
$SURFTYPE
 70
     6
  9
$SURFU
 70
     6
  9
$SURFV
 70
     6
  9
$UCSBASE
  2

  9
$UCSNAME
  2

  9
$UCSORG
 10
0.0
 20
0.0
 30
0.0
  9
$UCSXDIR
 10
1.0
 20
0.0
 30
0.0
  9
$UCSYDIR
 10
0.0
 20
1.0
 30
0.0
  9
$UCSORTHOREF
  2

  9
$UCSORTHOVIEW
 70
     0
  9
$UCSORGTOP
 10
0.0
 20
0.0
 30
0.0
  9
$UCSORGBOTTOM
 10
0.0
 20
0.0
 30
0.0
  9
$UCSORGLEFT
 10
0.0
 20
0.0
 30
0.0
  9
$UCSORGRIGHT
 10
0.0
 20
0.0
 30
0.0
  9
$UCSORGFRONT
 10
0.0
 20
0.0
 30
0.0
  9
$UCSORGBACK
 10
0.0
 20
0.0
 30
0.0
  9
$PUCSBASE
  2

  9
$PUCSNAME
  2

  9
$PUCSORG
 10
0.0
 20
0.0
 30
0.0
  9
$PUCSXDIR
 10
1.0
 20
0.0
 30
0.0
  9
$PUCSYDIR
 10
0.0
 20
1.0
 30
0.0
  9
$PUCSORTHOREF
  2

  9
$PUCSORTHOVIEW
 70
     0
  9
$PUCSORGTOP
 10
0.0
 20
0.0
 30
0.0
  9
$PUCSORGBOTTOM
 10
0.0
 20
0.0
 30
0.0
  9
$PUCSORGLEFT
 10
0.0
 20
0.0
 30
0.0
  9
$PUCSORGRIGHT
 10
0.0
 20
0.0
 30
0.0
  9
$PUCSORGFRONT
 10
0.0
 20
0.0
 30
0.0
  9
$PUCSORGBACK
 10
0.0
 20
0.0
 30
0.0
  9
$USERI1
 70
     0
  9
$USERI2
 70
     0
  9
$USERI3
 70
     0
  9
$USERI4
 70
     0
  9
$USERI5
 70
     0
  9
$USERR1
 40
0.0
  9
$USERR2
 40
0.0
  9
$USERR3
 40
0.0
  9
$USERR4
 40
0.0
  9
$USERR5
 40
0.0
  9
$WORLDVIEW
 70
     1
  9
$SHADEDGE
 70
     3
  9
$SHADEDIF
 70
    70
  9
$TILEMODE
 70
     1
  9
$MAXACTVP
 70
    16
  9
$PINSBASE
 10
0.0
 20
0.0
 30
0.0
  9
$PLIMCHECK
 70
     0
  9
$PEXTMIN
 10
1.000000E+20
 20
1.000000E+20
 30
1.000000E+20
  9
$PEXTMAX
 10
-1.000000E+20
 20
-1.000000E+20
 30
-1.000000E+20
  9
$PLIMMIN
 10
0.0
 20
0.0
  9
$PLIMMAX
 10
12.0
 20
9.0
  9
$UNITMODE
 70
     0
  9
$VISRETAIN
 70
     0
  9
$PLINEGEN
 70
     1
  9
$PSLTSCALE
 70
     0
  9
$TREEDEPTH
 70
  3020
  9
$CMLSTYLE
  2
Standard
  9
$CMLJUST
 70
     0
  9
$CMLSCALE
 40
1.0
  9
$PROXYGRAPHICS
 70
     0
  9
$MEASUREMENT
 70
     0
  9
$CELWEIGHT
370
     0
  9
$ENDCAPS
280
     0
  9
$JOINSTYLE
280
     0
  9
$LWDISPLAY
290
     0
  9
$INSUNITS
 70
     4
  9
$HYPERLINKBASE
  1

  9
$XEDIT
290
     1
  9
$CEPSNTYPE
380
     0
  9
$PSTYLEMODE
290
     1
  9
$FINGERPRINTGUID
  2

  9
$VERSIONGUID
  2

  9
$EXTNAMES
290
     1
  9
$PSVPSCALE
 40
0.0
  0
ENDSEC
  0
SECTION
  2
CLASSES
  0
CLASS
  1
LWPOLYLINE
  2
AcDbPolyline
  3
AutoCAD 2000
 90
    32768
280
     0
281
     1
  0
CLASS
  1
IMAGE
  2
AcDbRasterImage
  3
ISM
 90
    32895
280
     0
281
     1
  0
CLASS
  1
OLE2FRAME
  2
AcDbOle2Frame
  3
AutoCAD 2000
 90
    32768
280
     0
281
     1
  0
CLASS
  1
HATCH
  2
AcDbHatch
  3
AutoCAD 2000
 90
    32768
280
     0
281
     1
  0
CLASS
  1
DICTIONARYVAR
  2
AcDbDictionaryVar
  3
AutoCAD 2000
 90
    32768
280
     0
281
     0
  0
CLASS
  1
RASTERVARIABLES
  2
AcDbRasterVariables
  3
ISM
 90
    32768
280
     0
281
     0
  0
CLASS
  1
IMAGEDEF
  2
AcDbRasterImageDef
  3
ISM
 90
    32768
280
     0
281
     0
  0
CLASS
  1
IMAGEDEF_REACTOR
  2
AcDbRasterImageDefReactor
  3
ISM
 90
    32769
280
     0
281
     0
  0
CLASS
  1
IDBUFFER
  2
AcDbIdBuffer
  3
AutoCAD 2000
 90
    32768
280
     0
281
     0
  0
CLASS
  1
SPATIAL_FILTER
  2
AcDbSpatialFilter
  3
AutoCAD 2000
 90
    32768
280
     0
281
     0
  0
CLASS
  1
XRECORD
  2
AcDbXrecord
  3
AutoCAD 2000
 90
    32768
280
     0
281
     0
  0
CLASS
  1
SORTENTSTABLE
  2
AcDbSortentsTable
  3
AutoCAD 2000
 90
    32768
280
     0
281
     0
  0
CLASS
  1
LAYER_INDEX
  2
AcDbLayerIndex
  3
AutoCAD 2000
 90
    32768
280
     0
281
     0
  0
CLASS
  1
SPATIAL_INDEX
  2
AcDbSpatialIndex
  3
AutoCAD 2000
 90
    32768
280
     0
281
     0
  0
CLASS
  1
OBJECT_PTR
  2
CAseDLPNTableRecord
  3
"ASE-LPNTableRecord"
 90
    32769
280
     0
281
     0
  0
CLASS
  1
LAYOUT
  2
AcDbLayout
  3
AutoCAD 2000
 90
        0
280
     0
281
     0
  0
CLASS
  1
PLOTSETTINGS
  2
AcDbPlotSettings
  3
AutoCAD 2000
 90
    32768
280
     0
281
     0
  0
CLASS
  1
ACDBDICTIONARYWDFLT
  2
AcDbDictionaryWithDefault
  3
AutoCAD 2000
 90
        0
280
     0
281
     0
  0
CLASS
  1
ACDBPLACEHOLDER
  2
AcDbPlaceHolder
  3
AutoCAD 2000
 90
        0
280
     0
281
     0
  0
CLASS
  1
VBA_PROJECT
  2
AcDbVbaProject
  3
acadvba
 90
    32768
280
     0
281
     0
  0
CLASS
  1
WIPEOUT
  2
AcDbWipeout
  3
WipeOut|AutoCAD Express Tool|expresstools@autodesk.com
 90
    32895
280
     0
281
     1
  0
CLASS
  1
WIPEOUTVARIABLES
  2
AcDbWipeoutVariables
  3
WipeOut|AutoCAD Express Tool|expresstools@autodesk.com
 90
        0
280
     0
281
     0
  0
CLASS
  1
RTEXT
  2
RText
  3
RText|AutoCAD Express Tool|expresstools@autodesk.com
 90
    32768
280
     0
281
     1
  0
CLASS
  1
ARCALIGNEDTEXT
  2
AcDbArcAlignedText
  3
ATEXT|AutoCAD Express Tool|expresstools@autodesk.com
 90
    32768
280
     0
281
     1
  0
ENDSEC
  0
SECTION
  2
TABLES
  0
TABLE
  2
VPORT
  5
7
100
AcDbSymbolTable
 70
     1
  0
VPORT
  5
15
100
AcDbSymbolTableRecord
100
AcDbViewportTableRecord
  2
*ACTIVE
 70
     0
 10
0.0
 20
0.0
 11
1.0
 21
1.0
 12
6.591288
 22
4.579184
 13
0.0
 23
0.0
 14
1.0
 24
1.0
 15
0.0
 25
0.0
 16
0.0
 26
0.0
 36
1.0
 17
0.0
 27
0.0
 37
0.0
 40
9.158369
 41
0.688564
 42
50.0
 43
0.0
 44
0.0
 50
0.0
 51
0.0
 71
     0
 72
   100
 73
     1
 74
     1
 75
     0
 76
     0
 77
     0
 78
     0
281
     0
 65
     0
110
0.0
120
0.0
130
0.0
111
1.0
121
0.0
131
0.0
112
0.0
122
1.0
132
0.0
345
0
346
0
 79
     0
146
0.0
  0
ENDTAB
  0
TABLE
  2
LTYPE
  5
4
100
AcDbSymbolTable
 70
     3
  0
LTYPE
  5
11
100
AcDbSymbolTableRecord
100
AcDbLinetypeTableRecord
  2
ByBlock
 70
    64
  3

 72
    65
 73
     0
 40
0.0
  0
LTYPE
  5
12
100
AcDbSymbolTableRecord
100
AcDbLinetypeTableRecord
  2
ByLayer
 70
    64
  3

 72
    65
 73
     0
 40
0.0
  0
LTYPE
  5
13
100
AcDbSymbolTableRecord
100
AcDbLinetypeTableRecord
  2
Continuous
 70
    64
  3
Solid line
 72
    65
 73
     0
 40
0.0
  0
ENDTAB
  0
TABLE
  2
LAYER
  5
2
100
AcDbSymbolTable
 70
     2
  0
LAYER
  5
14
100
AcDbSymbolTableRecord
100
AcDbLayerTableRecord
  2
0
 70
     0
 62
     7
  6
Continuous
290
     1
370
    -3
390
1D
  0
LAYER
  5
24
100
AcDbSymbolTableRecord
100
AcDbLayerTableRecord
  2
RÚteg 1
 70
     0
 62
     7
  6
Continuous
290
     1
370
    -3
390
1F
  0
ENDTAB
  0
TABLE
  2
STYLE
  5
3
100
AcDbSymbolTable
 70
     1
  0
STYLE
  5
17
100
AcDbSymbolTableRecord
100
AcDbTextStyleTableRecord
  2
Standard
 70
     0
 40
0.0
 41
1.0
 50
0.0
 71
     0
 42
0.0
  3
txt
  4

  0
ENDTAB
  0
TABLE
  2
VIEW
  5
5
100
AcDbSymbolTable
 70
     0
  0
ENDTAB
  0
TABLE
  2
UCS
  5
6
100
AcDbSymbolTable
 70
     0
  0
ENDTAB
  0
TABLE
  2
APPID
  5
8
100
AcDbSymbolTable
 70
     1
  0
APPID
  5
16
100
AcDbSymbolTableRecord
100
AcDbRegAppTableRecord
  2
ACAD
 70
     0
  0
ENDTAB
  0
TABLE
  2
DIMSTYLE
  5
9
100
AcDbSymbolTable
 70
     1
100
AcDbDimStyleTable
 71
     0
  0
DIMSTYLE
105
18
100
AcDbSymbolTableRecord
100
AcDbDimStyleTableRecord
  2
Standard
 70
     0
  3

  4

 40
1.0
 41
0.18
 42
0.0625
 43
0.38
 44
0.18
 45
0.0
 46
0.0
 47
0.0
 48
0.0
 71
     0
 72
     0
 73
     1
 74
     1
 75
     0
 76
     0
 77
     0
 78
     0
 79
     0
140
0.18
141
0.09
142
0.0
143
25.4
144
1.0
145
0.0
146
1.0
147
0.09
148
0.0
170
     0
171
     2
172
     0
173
     0
174
     0
175
     0
176
     0
177
     0
178
     0
179
     0
271
     4
272
     4
273
     2
274
     2
275
     0
276
     0
277
     2
278
    46
279
     0
280
     0
281
     0
282
     0
283
     1
284
     0
285
     0
286
     0
288
     0
340
17
341
0
342
0
343
0
344
0
371
    -2
372
    -2
  0
ENDTAB
  0
TABLE
  2
BLOCK_RECORD
  5
1
100
AcDbSymbolTable
 70
     0
  0
BLOCK_RECORD
  5
A
100
AcDbSymbolTableRecord
100
AcDbBlockTableRecord
  2
*MODEL_SPACE
340
20
  0
BLOCK_RECORD
  5
B
100
AcDbSymbolTableRecord
100
AcDbBlockTableRecord
  2
*PAPER_SPACE
340
21
  0
ENDTAB
  0
ENDSEC
  0
SECTION
  2
BLOCKS
  0
BLOCK
  5
D
100
AcDbEntity
  8
0
100
AcDbBlockBegin
  2
*MODEL_SPACE
 70
     0
 10
0.0
 20
0.0
 30
0.0
  3
*MODEL_SPACE
  1

  0
ENDBLK
  5
E
100
AcDbEntity
  8
0
100
AcDbBlockEnd
  0
BLOCK
  5
F
100
AcDbEntity
 67
     1
  8
0
100
AcDbBlockBegin
  2
*PAPER_SPACE
 70
     0
 10
0.0
 20
0.0
 30
0.0
  3
*PAPER_SPACE
  1

  0
ENDBLK
  5
10
100
AcDbEntity
 67
     1
  8
0
100
AcDbBlockEnd
  0
ENDSEC
  0
SECTION
  2
ENTITIES
  0
SPLINE
  5
25
100
AcDbEntity
  8
RÚteg 1
 62
     7
100
AcDbSpline
210
0.0
220
0.0
230
1.0
 70
     1
 71
     3
 72
   144
 73
   140
 74
     0
 42
0.0000000001
 43
0.0000000001
 40
0.0
 40
0.0
 40
0.0
 40
0.0
 40
0.0285714285714286
 40
0.0285714285714286
 40
0.0285714285714286
 40
0.0285714285714286
 40
0.0571428571428571
 40
0.0571428571428571
 40
0.0571428571428571
 40
0.0571428571428571
 40
0.0857142857142857
 40
0.0857142857142857
 40
0.0857142857142857
 40
0.0857142857142857
 40
0.1142857142857143
 40
0.1142857142857143
 40
0.1142857142857143
 40
0.1142857142857143
 40
0.1428571428571429
 40
0.1428571428571429
 40
0.1428571428571429
 40
0.1428571428571429
 40
0.1714285714285714
 40
0.1714285714285714
 40
0.1714285714285714
 40
0.1714285714285714
 40
0.2
 40
0.2
 40
0.2
 40
0.2
 40
0.2285714285714286
 40
0.2285714285714286
 40
0.2285714285714286
 40
0.2285714285714286
 40
0.2571428571428572
 40
0.2571428571428572
 40
0.2571428571428572
 40
0.2571428571428572
 40
0.2857142857142858
 40
0.2857142857142858
 40
0.2857142857142858
 40
0.2857142857142858
 40
0.3142857142857143
 40
0.3142857142857143
 40
0.3142857142857143
 40
0.3142857142857143
 40
0.3428571428571429
 40
0.3428571428571429
 40
0.3428571428571429
 40
0.3428571428571429
 40
0.3714285714285715
 40
0.3714285714285715
 40
0.3714285714285715
 40
0.3714285714285715
 40
0.4000000000000001
 40
0.4000000000000001
 40
0.4000000000000001
 40
0.4000000000000001
 40
0.4285714285714287
 40
0.4285714285714287
 40
0.4285714285714287
 40
0.4285714285714287
 40
0.4571428571428572
 40
0.4571428571428572
 40
0.4571428571428572
 40
0.4571428571428572
 40
0.4857142857142858
 40
0.4857142857142858
 40
0.4857142857142858
 40
0.4857142857142858
 40
0.5142857142857144
 40
0.5142857142857144
 40
0.5142857142857144
 40
0.5142857142857144
 40
0.5428571428571429
 40
0.5428571428571429
 40
0.5428571428571429
 40
0.5428571428571429
 40
0.5714285714285715
 40
0.5714285714285715
 40
0.5714285714285715
 40
0.5714285714285715
 40
0.6000000000000001
 40
0.6000000000000001
 40
0.6000000000000001
 40
0.6000000000000001
 40
0.6285714285714287
 40
0.6285714285714287
 40
0.6285714285714287
 40
0.6285714285714287
 40
0.6571428571428573
 40
0.6571428571428573
 40
0.6571428571428573
 40
0.6571428571428573
 40
0.6857142857142858
 40
0.6857142857142858
 40
0.6857142857142858
 40
0.6857142857142858
 40
0.7142857142857144
 40
0.7142857142857144
 40
0.7142857142857144
 40
0.7142857142857144
 40
0.742857142857143
 40
0.742857142857143
 40
0.742857142857143
 40
0.742857142857143
 40
0.7714285714285716
 40
0.7714285714285716
 40
0.7714285714285716
 40
0.7714285714285716
 40
0.8000000000000002
 40
0.8000000000000002
 40
0.8000000000000002
 40
0.8000000000000002
 40
0.8285714285714287
 40
0.8285714285714287
 40
0.8285714285714287
 40
0.8285714285714287
 40
0.8571428571428573
 40
0.8571428571428573
 40
0.8571428571428573
 40
0.8571428571428573
 40
0.8857142857142859
 40
0.8857142857142859
 40
0.8857142857142859
 40
0.8857142857142859
 40
0.9142857142857145
 40
0.9142857142857145
 40
0.9142857142857145
 40
0.9142857142857145
 40
0.9428571428571431
 40
0.9428571428571431
 40
0.9428571428571431
 40
0.9428571428571431
 40
0.9714285714285716
 40
0.9714285714285716
 40
0.9714285714285716
 40
0.9714285714285716
 40
1.0
 40
1.0
 40
1.0
 40
1.0
 10
-55.4771
 20
80.923500000000004
 30
0.0
 10
-49.656100000000002
 20
80.127099999999999
 30
0.0
 10
-44.3187
 20
77.810199999999995
 30
0.0
 10
-39.8782
 20
74.386799999999994
 30
0.0
 10
-39.8782
 20
74.386799999999994
 30
0.0
 10
-39.8782
 20
74.386799999999994
 30
0.0
 10
-39.339500000000001
 20
74.576400000000007
 30
0.0
 10
-39.339500000000001
 20
74.576400000000007
 30
0.0
 10
-39.339500000000001
 20
74.576400000000007
 30
0.0
 10
-38.545000000000002
 20
74.855800000000002
 30
0.0
 10
-34.390599999999999
 20
77.754499999999993
 30
0.0
 10
-33.898099999999999
 20
78.247799999999998
 30
0.0
 10
-33.898099999999999
 20
78.247799999999998
 30
0.0
 10
-32.000700000000002
 20
79.456299999999999
 30
0.0
 10
-30.368600000000001
 20
80.953400000000002
 30
0.0
 10
-27.843699999999998
 20
81.841899999999995
 30
0.0
 10
-27.843699999999998
 20
81.841899999999995
 30
0.0
 10
-25.8078
 20
82.558199999999999
 30
0.0
 10
-22.520900000000001
 20
82.846000000000004
 30
0.0
 10
-21.548300000000001
 20
81.422300000000007
 30
0.0
 10
-21.548300000000001
 20
81.422300000000007
 30
0.0
 10
-21.548300000000001
 20
81.422300000000007
 30
0.0
 10
-23.3718
 20
80.780699999999996
 30
0.0
 10
-23.3718
 20
80.780699999999996
 30
0.0
 10
-23.3718
 20
80.780699999999996
 30
0.0
 10
-24.6145
 20
80.343500000000006
 30
0.0
 10
-25.6539
 20
79.478099999999998
 30
0.0
 10
-26.1312
 20
78.638599999999997
 30
0.0
 10
-26.1312
 20
78.638599999999997
 30
0.0
 10
-27.494599999999998
 20
77.769999999999996
 30
0.0
 10
-29.776800000000001
 20
74.023499999999999
 30
0.0
 10
-29.3535
 20
72.820599999999999
 30
0.0
 10
-29.3535
 20
72.820599999999999
 30
0.0
 10
-29.102599999999999
 20
72.107399999999998
 30
0.0
 10
-28.5336
 20
72.154200000000003
 30
0.0
 10
-28.282499999999999
 20
71.441100000000006
 30
0.0
 10
-28.282499999999999
 20
71.441100000000006
 30
0.0
 10
-28.041399999999999
 20
70.756
 30
0.0
 10
-29.918600000000001
 20
70.726200000000006
 30
0.0
 10
-31.18
 20
70.015100000000004
 30
0.0
 10
-31.18
 20
70.015100000000004
 30
0.0
 10
-32.216099999999997
 20
69.430800000000005
 30
0.0
 10
-32.869900000000001
 20
68.980500000000006
 30
0.0
 10
-34.003500000000003
 20
68.552800000000005
 30
0.0
 10
-34.003500000000003
 20
68.552800000000005
 30
0.0
 10
-29.6281
 20
62.958599999999997
 30
0.0
 10
-27.018599999999999
 20
55.916899999999998
 30
0.0
 10
-27.018599999999999
 20
48.265900000000002
 30
0.0
 10
-27.018599999999999
 20
48.265900000000002
 30
0.0
 10
-27.018599999999999
 20
43.629600000000003
 30
0.0
 10
-27.977499999999999
 20
39.217199999999998
 30
0.0
 10
-29.706099999999999
 20
35.214700000000001
 30
0.0
 10
-29.706099999999999
 20
35.214700000000001
 30
0.0
 10
-29.311599999999999
 20
35.055199999999999
 30
0.0
 10
-28.947900000000001
 20
34.8688
 30
0.0
 10
-28.600899999999999
 20
34.685200000000002
 30
0.0
 10
-28.600899999999999
 20
34.685200000000002
 30
0.0
 10
-28.600899999999999
 20
34.685200000000002
 30
0.0
 10
-27.398599999999998
 20
33.362400000000001
 30
0.0
 10
-27.398599999999998
 20
33.362400000000001
 30
0.0
 10
-27.398599999999998
 20
33.362400000000001
 30
0.0
 10
-27.398599999999998
 20
33.362400000000001
 30
0.0
 10
-27.048500000000001
 20
32.277099999999997
 30
0.0
 10
-27.048500000000001
 20
32.277099999999997
 30
0.0
 10
-27.048500000000001
 20
32.277099999999997
 30
0.0
 10
-27.66
 20
32.332099999999997
 30
0.0
 10
-28.069299999999998
 20
32.761299999999999
 30
0.0
 10
-28.600899999999999
 20
32.761299999999999
 30
0.0
 10
-28.600899999999999
 20
32.761299999999999
 30
0.0
 10
-29.0137
 20
32.761299999999999
 30
0.0
 10
-29.229500000000002
 20
32.507800000000003
 30
0.0
 10
-29.322399999999998
 20
32.1601
 30
0.0
 10
-29.322399999999998
 20
32.1601
 30
0.0
 10
-29.322399999999998
 20
32.1601
 30
0.0
 10
-29.683
 20
32.1601
 30
0.0
 10
-29.683
 20
32.1601
 30
0.0
 10
-29.683
 20
32.1601
 30
0.0
 10
-29.765999999999998
 20
32.516199999999998
 30
0.0
 10
-29.9939
 20
33.001899999999999
 30
0.0
 10
-30.404599999999999
 20
33.001899999999999
 30
0.0
 10
-30.404599999999999
 20
33.001899999999999
 30
0.0
 10
-30.548100000000002
 20
33.001899999999999
 30
0.0
 10
-30.677700000000002
 20
32.974899999999998
 30
0.0
 10
-30.799299999999999
 20
32.930300000000003
 30
0.0
 10
-30.799299999999999
 20
32.930300000000003
 30
0.0
 10
-36.319499999999998
 20
22.449200000000001
 30
0.0
 10
-47.317700000000002
 20
15.300000000000001
 30
0.0
 10
-59.984200000000001
 20
15.300000000000001
 30
0.0
 10
-59.984200000000001
 20
15.300000000000001
 30
0.0
 10
-66.975200000000001
 20
15.300000000000001
 30
0.0
 10
-73.457499999999996
 20
17.479199999999999
 30
0.0
 10
-78.791899999999998
 20
21.192599999999999
 30
0.0
 10
-78.791899999999998
 20
21.192599999999999
 30
0.0
 10
-79.573999999999998
 20
20.714400000000001
 30
0.0
 10
-80.263599999999997
 20
20.324400000000001
 30
0.0
 10
-80.458399999999997
 20
20.8782
 30
0.0
 10
-80.458399999999997
 20
20.8782
 30
0.0
 10
-80.652199999999993
 20
21.429099999999998
 30
0.0
 10
-80.486099999999993
 20
21.254200000000001
 30
0.0
 10
-80.564599999999999
 20
22.011900000000001
 30
0.0
 10
-80.564599999999999
 20
22.011900000000001
 30
0.0
 10
-80.564599999999999
 20
22.011900000000001
 30
0.0
 10
-84.137900000000002
 20
23.168700000000001
 30
0.0
 10
-84.137900000000002
 20
23.168700000000001
 30
0.0
 10
-84.137900000000002
 20
23.168700000000001
 30
0.0
 10
-84.137900000000002
 20
23.168700000000001
 30
0.0
 10
-84.944900000000004
 20
22.8124
 30
0.0
 10
-84.944900000000004
 20
22.8124
 30
0.0
 10
-84.944900000000004
 20
22.8124
 30
0.0
 10
-84.944900000000004
 20
22.8124
 30
0.0
 10
-89.236599999999996
 20
21.703499999999998
 30
0.0
 10
-89.236599999999996
 20
21.703499999999998
 30
0.0
 10
-89.236599999999996
 20
21.703499999999998
 30
0.0
 10
-89.760400000000004
 20
23.730399999999999
 30
0.0
 10
-87.059899999999999
 20
25.1616
 30
0.0
 10
-84.4542
 20
26.179600000000001
 30
0.0
 10
-84.4542
 20
26.179600000000001
 30
0.0
 10
-89.733900000000006
 20
32.025199999999998
 30
0.0
 10
-92.950000000000003
 20
39.770400000000002
 30
0.0
 10
-92.950000000000003
 20
48.265900000000002
 30
0.0
 10
-92.950000000000003
 20
48.265900000000002
 30
0.0
 10
-92.950000000000003
 20
64.940100000000001
 30
0.0
 10
-80.563000000000002
 20
78.724800000000002
 30
0.0
 10
-64.491500000000002
 20
80.923500000000004
 30
0.0
 10
-64.491500000000002
 20
80.923500000000004
 30
0.0
 10
-65.282700000000006
 20
81.911299999999997
 30
0.0
 10
-65.756100000000004
 20
83.164299999999997
 30
0.0
 10
-65.756100000000004
 20
84.528199999999998
 30
0.0
 10
-65.756100000000004
 20
84.528199999999998
 30
0.0
 10
-65.756100000000004
 20
87.715299999999999
 30
0.0
 10
-63.171300000000002
 20
90.299999999999997
 30
0.0
 10
-59.984200000000001
 20
90.299999999999997
 30
0.0
 10
-59.984200000000001
 20
90.299999999999997
 30
0.0
 10
-56.796999999999997
 20
90.299999999999997
 30
0.0
 10
-54.212299999999999
 20
87.715299999999999
 30
0.0
 10
-54.212299999999999
 20
84.528199999999998
 30
0.0
 10
-54.212299999999999
 20
84.528199999999998
 30
0.0
 10
-54.212299999999999
 20
83.164299999999997
 30
0.0
 10
-54.685899999999997
 20
81.911299999999997
 30
0.0
 10
-55.4771
 20
80.923500000000004
 30
0.0
  0
SPLINE
  5
26
100
AcDbEntity
  8
RÚteg 1
 62
     7
100
AcDbSpline
210
0.0
220
0.0
230
1.0
 70
     1
 71
     3
 72
   272
 73
   268
 74
     0
 42
0.0000000001
 43
0.0000000001
 40
0.0
 40
0.0
 40
0.0
 40
0.0
 40
0.0149253731343284
 40
0.0149253731343284
 40
0.0149253731343284
 40
0.0149253731343284
 40
0.0298507462686567
 40
0.0298507462686567
 40
0.0298507462686567
 40
0.0298507462686567
 40
0.0447761194029851
 40
0.0447761194029851
 40
0.0447761194029851
 40
0.0447761194029851
 40
0.0597014925373134
 40
0.0597014925373134
 40
0.0597014925373134
 40
0.0597014925373134
 40
0.0746268656716418
 40
0.0746268656716418
 40
0.0746268656716418
 40
0.0746268656716418
 40
0.0895522388059701
 40
0.0895522388059701
 40
0.0895522388059701
 40
0.0895522388059701
 40
0.1044776119402985
 40
0.1044776119402985
 40
0.1044776119402985
 40
0.1044776119402985
 40
0.1194029850746269
 40
0.1194029850746269
 40
0.1194029850746269
 40
0.1194029850746269
 40
0.1343283582089552
 40
0.1343283582089552
 40
0.1343283582089552
 40
0.1343283582089552
 40
0.1492537313432836
 40
0.1492537313432836
 40
0.1492537313432836
 40
0.1492537313432836
 40
0.1641791044776119
 40
0.1641791044776119
 40
0.1641791044776119
 40
0.1641791044776119
 40
0.1791044776119403
 40
0.1791044776119403
 40
0.1791044776119403
 40
0.1791044776119403
 40
0.1940298507462686
 40
0.1940298507462686
 40
0.1940298507462686
 40
0.1940298507462686
 40
0.208955223880597
 40
0.208955223880597
 40
0.208955223880597
 40
0.208955223880597
 40
0.2238805970149253
 40
0.2238805970149253
 40
0.2238805970149253
 40
0.2238805970149253
 40
0.2388059701492536
 40
0.2388059701492536
 40
0.2388059701492536
 40
0.2388059701492536
 40
0.253731343283582
 40
0.253731343283582
 40
0.253731343283582
 40
0.253731343283582
 40
0.2686567164179103
 40
0.2686567164179103
 40
0.2686567164179103
 40
0.2686567164179103
 40
0.2835820895522387
 40
0.2835820895522387
 40
0.2835820895522387
 40
0.2835820895522387
 40
0.298507462686567
 40
0.298507462686567
 40
0.298507462686567
 40
0.298507462686567
 40
0.3134328358208954
 40
0.3134328358208954
 40
0.3134328358208954
 40
0.3134328358208954
 40
0.3283582089552237
 40
0.3283582089552237
 40
0.3283582089552237
 40
0.3283582089552237
 40
0.3432835820895521
 40
0.3432835820895521
 40
0.3432835820895521
 40
0.3432835820895521
 40
0.3582089552238804
 40
0.3582089552238804
 40
0.3582089552238804
 40
0.3582089552238804
 40
0.3731343283582088
 40
0.3731343283582088
 40
0.3731343283582088
 40
0.3731343283582088
 40
0.3880597014925371
 40
0.3880597014925371
 40
0.3880597014925371
 40
0.3880597014925371
 40
0.4029850746268655
 40
0.4029850746268655
 40
0.4029850746268655
 40
0.4029850746268655
 40
0.4179104477611938
 40
0.4179104477611938
 40
0.4179104477611938
 40
0.4179104477611938
 40
0.4328358208955221
 40
0.4328358208955221
 40
0.4328358208955221
 40
0.4328358208955221
 40
0.4477611940298505
 40
0.4477611940298505
 40
0.4477611940298505
 40
0.4477611940298505
 40
0.4626865671641788
 40
0.4626865671641788
 40
0.4626865671641788
 40
0.4626865671641788
 40
0.4776119402985072
 40
0.4776119402985072
 40
0.4776119402985072
 40
0.4776119402985072
 40
0.4925373134328355
 40
0.4925373134328355
 40
0.4925373134328355
 40
0.4925373134328355
 40
0.5074626865671639
 40
0.5074626865671639
 40
0.5074626865671639
 40
0.5074626865671639
 40
0.5223880597014923
 40
0.5223880597014923
 40
0.5223880597014923
 40
0.5223880597014923
 40
0.5373134328358207
 40
0.5373134328358207
 40
0.5373134328358207
 40
0.5373134328358207
 40
0.5522388059701491
 40
0.5522388059701491
 40
0.5522388059701491
 40
0.5522388059701491
 40
0.5671641791044775
 40
0.5671641791044775
 40
0.5671641791044775
 40
0.5671641791044775
 40
0.5820895522388059
 40
0.5820895522388059
 40
0.5820895522388059
 40
0.5820895522388059
 40
0.5970149253731343
 40
0.5970149253731343
 40
0.5970149253731343
 40
0.5970149253731343
 40
0.6119402985074627
 40
0.6119402985074627
 40
0.6119402985074627
 40
0.6119402985074627
 40
0.6268656716417911
 40
0.6268656716417911
 40
0.6268656716417911
 40
0.6268656716417911
 40
0.6417910447761195
 40
0.6417910447761195
 40
0.6417910447761195
 40
0.6417910447761195
 40
0.6567164179104479
 40
0.6567164179104479
 40
0.6567164179104479
 40
0.6567164179104479
 40
0.6716417910447763
 40
0.6716417910447763
 40
0.6716417910447763
 40
0.6716417910447763
 40
0.6865671641791047
 40
0.6865671641791047
 40
0.6865671641791047
 40
0.6865671641791047
 40
0.7014925373134331
 40
0.7014925373134331
 40
0.7014925373134331
 40
0.7014925373134331
 40
0.7164179104477615
 40
0.7164179104477615
 40
0.7164179104477615
 40
0.7164179104477615
 40
0.7313432835820899
 40
0.7313432835820899
 40
0.7313432835820899
 40
0.7313432835820899
 40
0.7462686567164183
 40
0.7462686567164183
 40
0.7462686567164183
 40
0.7462686567164183
 40
0.7611940298507467
 40
0.7611940298507467
 40
0.7611940298507467
 40
0.7611940298507467
 40
0.7761194029850751
 40
0.7761194029850751
 40
0.7761194029850751
 40
0.7761194029850751
 40
0.7910447761194035
 40
0.7910447761194035
 40
0.7910447761194035
 40
0.7910447761194035
 40
0.8059701492537319
 40
0.8059701492537319
 40
0.8059701492537319
 40
0.8059701492537319
 40
0.8208955223880603
 40
0.8208955223880603
 40
0.8208955223880603
 40
0.8208955223880603
 40
0.8358208955223887
 40
0.8358208955223887
 40
0.8358208955223887
 40
0.8358208955223887
 40
0.8507462686567171
 40
0.8507462686567171
 40
0.8507462686567171
 40
0.8507462686567171
 40
0.8656716417910455
 40
0.8656716417910455
 40
0.8656716417910455
 40
0.8656716417910455
 40
0.8805970149253739
 40
0.8805970149253739
 40
0.8805970149253739
 40
0.8805970149253739
 40
0.8955223880597023
 40
0.8955223880597023
 40
0.8955223880597023
 40
0.8955223880597023
 40
0.9104477611940307
 40
0.9104477611940307
 40
0.9104477611940307
 40
0.9104477611940307
 40
0.9253731343283591
 40
0.9253731343283591
 40
0.9253731343283591
 40
0.9253731343283591
 40
0.9402985074626875
 40
0.9402985074626875
 40
0.9402985074626875
 40
0.9402985074626875
 40
0.9552238805970159
 40
0.9552238805970159
 40
0.9552238805970159
 40
0.9552238805970159
 40
0.9701492537313443
 40
0.9701492537313443
 40
0.9701492537313443
 40
0.9701492537313443
 40
0.9850746268656727
 40
0.9850746268656727
 40
0.9850746268656727
 40
0.9850746268656727
 40
1.0
 40
1.0
 40
1.0
 40
1.0
 10
-37.6188
 20
32.280299999999997
 30
0.0
 10
-37.6188
 20
32.280299999999997
 30
0.0
 10
-37.498600000000003
 20
32.400700000000001
 30
0.0
 10
-37.498600000000003
 20
32.400700000000001
 30
0.0
 10
-37.498600000000003
 20
32.400700000000001
 30
0.0
 10
-37.126899999999999
 20
32.6496
 30
0.0
 10
-36.654699999999998
 20
33.122
 30
0.0
 10
-36.055799999999998
 20
33.122
 30
0.0
 10
-36.055799999999998
 20
33.122
 30
0.0
 10
-36.055799999999998
 20
33.122
 30
0.0
 10
-35.935499999999998
 20
33.122
 30
0.0
 10
-35.935499999999998
 20
33.122
 30
0.0
 10
-35.935499999999998
 20
33.122
 30
0.0
 10
-35.759099999999997
 20
33.122
 30
0.0
 10
-35.609900000000003
 20
33.0931
 30
0.0
 10
-35.485500000000002
 20
33.0381
 30
0.0
 10
-35.485500000000002
 20
33.0381
 30
0.0
 10
-40.578200000000002
 20
24.863600000000002
 30
0.0
 10
-49.6462
 20
19.4208
 30
0.0
 10
-59.984200000000001
 20
19.4208
 30
0.0
 10
-59.984200000000001
 20
19.4208
 30
0.0
 10
-63.9587
 20
19.4208
 30
0.0
 10
-67.746099999999998
 20
20.225200000000001
 30
0.0
 10
-71.191400000000002
 20
21.68
 30
0.0
 10
-71.191400000000002
 20
21.68
 30
0.0
 10
-71.191400000000002
 20
21.68
 30
0.0
 10
-70.868200000000002
 20
21.910900000000002
 30
0.0
 10
-70.868200000000002
 20
21.910900000000002
 30
0.0
 10
-70.868200000000002
 20
21.910900000000002
 30
0.0
 10
-66.848500000000001
 20
23.325299999999999
 30
0.0
 10
-65.681399999999996
 20
21.686699999999998
 30
0.0
 10
-65.277100000000004
 20
21.828900000000001
 30
0.0
 10
-65.277100000000004
 20
21.828900000000001
 30
0.0
 10
-64.401799999999994
 20
22.136800000000001
 30
0.0
 10
-64.445099999999996
 20
23.878
 30
0.0
 10
-62.180199999999999
 20
24.6751
 30
0.0
 10
-62.180199999999999
 20
24.6751
 30
0.0
 10
-61.198099999999997
 20
25.020800000000001
 30
0.0
 10
-60.193600000000004
 20
23.584
 30
0.0
 10
-59.540700000000001
 20
23.002800000000001
 30
0.0
 10
-59.540700000000001
 20
23.002800000000001
 30
0.0
 10
-59.540700000000001
 20
23.002800000000001
 30
0.0
 10
-57.355899999999998
 20
23.4452
 30
0.0
 10
-57.355899999999998
 20
23.4452
 30
0.0
 10
-57.355899999999998
 20
23.4452
 30
0.0
 10
-57.355899999999998
 20
23.4452
 30
0.0
 10
-55.676699999999997
 20
23.464700000000001
 30
0.0
 10
-55.676699999999997
 20
23.464700000000001
 30
0.0
 10
-55.676699999999997
 20
23.464700000000001
 30
0.0
 10
-55.676699999999997
 20
23.464700000000001
 30
0.0
 10
-55.899000000000001
 20
25.129000000000001
 30
0.0
 10
-55.899000000000001
 20
25.129000000000001
 30
0.0
 10
-55.899000000000001
 20
25.129000000000001
 30
0.0
 10
-55.899000000000001
 20
25.129000000000001
 30
0.0
 10
-57.201799999999999
 20
24.6706
 30
0.0
 10
-57.201799999999999
 20
24.6706
 30
0.0
 10
-57.201799999999999
 20
24.6706
 30
0.0
 10
-57.476999999999997
 20
25.512
 30
0.0
 10
-57.744700000000002
 20
25.943300000000001
 30
0.0
 10
-56.878500000000003
 20
26.248000000000001
 30
0.0
 10
-56.878500000000003
 20
26.248000000000001
 30
0.0
 10
-56.878500000000003
 20
26.248000000000001
 30
0.0
 10
-56.096899999999998
 20
26.523099999999999
 30
0.0
 10
-56.096899999999998
 20
26.523099999999999
 30
0.0
 10
-56.096899999999998
 20
26.523099999999999
 30
0.0
 10
-55.400399999999998
 20
26.7681
 30
0.0
 10
-55.194099999999999
 20
26.418099999999999
 30
0.0
 10
-54.791800000000002
 20
26.169
 30
0.0
 10
-54.791800000000002
 20
26.169
 30
0.0
 10
-54.791800000000002
 20
26.169
 30
0.0
 10
-53.125300000000003
 20
26.397500000000001
 30
0.0
 10
-53.125300000000003
 20
26.397500000000001
 30
0.0
 10
-53.125300000000003
 20
26.397500000000001
 30
0.0
 10
-54.454000000000001
 20
29.9209
 30
0.0
 10
-56.9831
 20
28.042999999999999
 30
0.0
 10
-58.07
 20
29.634599999999999
 30
0.0
 10
-58.07
 20
29.634599999999999
 30
0.0
 10
-57.430300000000003
 20
30.047599999999999
 30
0.0
 10
-57.670699999999997
 20
30.067799999999998
 30
0.0
 10
-57.119700000000002
 20
30.261800000000001
 30
0.0
 10
-57.119700000000002
 20
30.261800000000001
 30
0.0
 10
-56.156599999999997
 20
30.6007
 30
0.0
 10
-55.721499999999999
 20
30.270800000000001
 30
0.0
 10
-54.591999999999999
 20
30.5657
 30
0.0
 10
-54.591999999999999
 20
30.5657
 30
0.0
 10
-54.591999999999999
 20
30.5657
 30
0.0
 10
-55.050400000000003
 20
31.867899999999999
 30
0.0
 10
-55.050400000000003
 20
31.867899999999999
 30
0.0
 10
-55.050400000000003
 20
31.867899999999999
 30
0.0
 10
-55.381700000000002
 20
32.809899999999999
 30
0.0
 10
-53.407499999999999
 20
35.0809
 30
0.0
 10
-51.9679
 20
35.587499999999999
 30
0.0
 10
-51.9679
 20
35.587499999999999
 30
0.0
 10
-51.9679
 20
35.587499999999999
 30
0.0
 10
-50.925800000000002
 20
35.9542
 30
0.0
 10
-50.925800000000002
 20
35.9542
 30
0.0
 10
-50.925800000000002
 20
35.9542
 30
0.0
 10
-50.925800000000002
 20
35.9542
 30
0.0
 10
-51.2926
 20
36.996200000000002
 30
0.0
 10
-51.2926
 20
36.996200000000002
 30
0.0
 10
-51.2926
 20
36.996200000000002
 30
0.0
 10
-52.054699999999997
 20
39.162399999999998
 30
0.0
 10
-50.0593
 20
42.500700000000002
 30
0.0
 10
-47.993099999999998
 20
43.426900000000003
 30
0.0
 10
-47.993099999999998
 20
43.426900000000003
 30
0.0
 10
-49.036200000000001
 20
45.064399999999999
 30
0.0
 10
-48.296900000000001
 20
47.526400000000002
 30
0.0
 10
-46.854799999999997
 20
48.511600000000001
 30
0.0
 10
-46.854799999999997
 20
48.511600000000001
 30
0.0
 10
-46.854799999999997
 20
48.511600000000001
 30
0.0
 10
-44.5246
 20
50.209699999999998
 30
0.0
 10
-44.5246
 20
50.209699999999998
 30
0.0
 10
-44.5246
 20
50.209699999999998
 30
0.0
 10
-44.5246
 20
50.209699999999998
 30
0.0
 10
-44.740400000000001
 20
50.902500000000003
 30
0.0
 10
-44.740400000000001
 20
50.902500000000003
 30
0.0
 10
-44.740400000000001
 20
50.902500000000003
 30
0.0
 10
-44.740400000000001
 20
50.902500000000003
 30
0.0
 10
-50.192900000000002
 20
49.678800000000003
 30
0.0
 10
-50.192900000000002
 20
49.678800000000003
 30
0.0
 10
-50.192900000000002
 20
49.678800000000003
 30
0.0
 10
-49.155000000000001
 20
51.5047
 30
0.0
 10
-46.709299999999999
 20
50.594799999999999
 30
0.0
 10
-48.181399999999996
 20
54.777999999999999
 30
0.0
 10
-48.181399999999996
 20
54.777999999999999
 30
0.0
 10
-47.750100000000003
 20
55.354399999999998
 30
0.0
 10
-47.589300000000001
 20
55.864699999999999
 30
0.0
 10
-46.633000000000003
 20
56.201099999999997
 30
0.0
 10
-46.633000000000003
 20
56.201099999999997
 30
0.0
 10
-46.633000000000003
 20
56.201099999999997
 30
0.0
 10
-45.330500000000001
 20
56.659500000000001
 30
0.0
 10
-45.330500000000001
 20
56.659500000000001
 30
0.0
 10
-45.330500000000001
 20
56.659500000000001
 30
0.0
 10
-44.065600000000003
 20
57.104700000000001
 30
0.0
 10
-42.997
 20
56.3095
 30
0.0
 10
-42.098199999999999
 20
56.625700000000002
 30
0.0
 10
-42.098199999999999
 20
56.625700000000002
 30
0.0
 10
-41.364699999999999
 20
56.883899999999997
 30
0.0
 10
-41.6556
 20
56.908099999999997
 30
0.0
 10
-41.5002
 20
57.421900000000001
 30
0.0
 10
-41.5002
 20
57.421900000000001
 30
0.0
 10
-41.277900000000002
 20
59.450800000000001
 30
0.0
 10
-39.387099999999997
 20
62.499299999999998
 30
0.0
 10
-36.447899999999997
 20
63.055500000000002
 30
0.0
 10
-36.447899999999997
 20
63.055500000000002
 30
0.0
 10
-36.447899999999997
 20
63.055500000000002
 30
0.0
 10
-35.346200000000003
 20
63.270200000000003
 30
0.0
 10
-35.346200000000003
 20
63.270200000000003
 30
0.0
 10
-35.346200000000003
 20
63.270200000000003
 30
0.0
 10
-32.677399999999999
 20
58.898400000000002
 30
0.0
 10
-31.139299999999999
 20
53.761499999999998
 30
0.0
 10
-31.139299999999999
 20
48.265900000000002
 30
0.0
 10
-31.139299999999999
 20
48.265900000000002
 30
0.0
 10
-31.139299999999999
 20
43.421100000000003
 30
0.0
 10
-32.335799999999999
 20
38.855899999999998
 30
0.0
 10
-34.447299999999998
 20
34.847499999999997
 30
0.0
 10
-34.447299999999998
 20
34.847499999999997
 30
0.0
 10
-34.918799999999997
 20
34.485599999999998
 30
0.0
 10
-35.433700000000002
 20
34.2042
 30
0.0
 10
-36.055799999999998
 20
34.2042
 30
0.0
 10
-36.055799999999998
 20
34.2042
 30
0.0
 10
-35.889800000000001
 20
34.451900000000002
 30
0.0
 10
-35.695
 20
34.516399999999997
 30
0.0
 10
-35.695
 20
34.805500000000002
 30
0.0
 10
-35.695
 20
34.805500000000002
 30
0.0
 10
-35.695
 20
35.037399999999998
 30
0.0
 10
-35.732900000000001
 20
35.019500000000001
 30
0.0
 10
-35.815399999999997
 20
35.1663
 30
0.0
 10
-35.815399999999997
 20
35.1663
 30
0.0
 10
-35.815399999999997
 20
35.1663
 30
0.0
 10
-36.619
 20
34.635199999999998
 30
0.0
 10
-36.619
 20
34.635199999999998
 30
0.0
 10
-36.619
 20
34.635199999999998
 30
0.0
 10
-36.691499999999998
 20
35.098100000000002
 30
0.0
 10
-36.831400000000002
 20
35.526899999999998
 30
0.0
 10
-37.258200000000002
 20
35.526899999999998
 30
0.0
 10
-37.258200000000002
 20
35.526899999999998
 30
0.0
 10
-37.655000000000001
 20
35.526899999999998
 30
0.0
 10
-37.386800000000001
 20
34.941699999999997
 30
0.0
 10
-37.378399999999999
 20
34.564799999999998
 30
0.0
 10
-37.378399999999999
 20
34.564799999999998
 30
0.0
 10
-37.378399999999999
 20
34.564799999999998
 30
0.0
 10
-37.6188
 20
34.564799999999998
 30
0.0
 10
-37.6188
 20
34.564799999999998
 30
0.0
 10
-37.6188
 20
34.564799999999998
 30
0.0
 10
-37.647300000000001
 20
34.905500000000004
 30
0.0
 10
-38.131500000000003
 20
37.658099999999997
 30
0.0
 10
-38.266100000000002
 20
38.246400000000001
 30
0.0
 10
-38.266100000000002
 20
38.246400000000001
 30
0.0
 10
-38.461399999999998
 20
39.101199999999999
 30
0.0
 10
-39.232700000000001
 20
40.5565
 30
0.0
 10
-40.143900000000002
 20
40.576799999999999
 30
0.0
 10
-40.143900000000002
 20
40.576799999999999
 30
0.0
 10
-40.072499999999998
 20
40.270400000000002
 30
0.0
 10
-39.896500000000003
 20
39.9758
 30
0.0
 10
-40.384399999999999
 20
39.9758
 30
0.0
 10
-40.384399999999999
 20
39.9758
 30
0.0
 10
-40.445599999999999
 20
39.9758
 30
0.0
 10
-42.258000000000003
 20
40.601500000000001
 30
0.0
 10
-42.668999999999997
 20
40.697200000000002
 30
0.0
 10
-42.668999999999997
 20
40.697200000000002
 30
0.0
 10
-42.668999999999997
 20
40.697200000000002
 30
0.0
 10
-42.789299999999997
 20
40.817399999999999
 30
0.0
 10
-42.789299999999997
 20
40.817399999999999
 30
0.0
 10
-42.789299999999997
 20
40.817399999999999
 30
0.0
 10
-44.146700000000003
 20
40.817399999999999
 30
0.0
 10
-46.247100000000003
 20
40.865099999999998
 30
0.0
 10
-46.5167
 20
39.855499999999999
 30
0.0
 10
-46.5167
 20
39.855499999999999
 30
0.0
 10
-45.173400000000001
 20
39.855499999999999
 30
0.0
 10
-44.104300000000002
 20
39.427700000000002
 30
0.0
 10
-43.656599999999997
 20
38.563299999999998
 30
0.0
 10
-43.656599999999997
 20
38.563299999999998
 30
0.0
 10
-43.656599999999997
 20
38.563299999999998
 30
0.0
 10
-43.991599999999998
 20
38.1721
 30
0.0
 10
-43.991599999999998
 20
38.1721
 30
0.0
 10
-43.991599999999998
 20
38.1721
 30
0.0
 10
-43.991599999999998
 20
38.1721
 30
0.0
 10
-43.630800000000001
 20
38.1721
 30
0.0
 10
-43.630800000000001
 20
38.1721
 30
0.0
 10
-43.630800000000001
 20
38.1721
 30
0.0
 10
-43.1006
 20
38.1721
 30
0.0
 10
-42.824399999999997
 20
38.372199999999999
 30
0.0
 10
-42.278100000000002
 20
37.9617
 30
0.0
 10
-42.278100000000002
 20
37.9617
 30
0.0
 10
-42.101199999999999
 20
37.828800000000001
 30
0.0
 10
-41.5869
 20
37.062899999999999
 30
0.0
 10
-41.5869
 20
36.849499999999999
 30
0.0
 10
-41.5869
 20
36.849499999999999
 30
0.0
 10
-41.5869
 20
36.849499999999999
 30
0.0
 10
-41.5869
 20
36.2483
 30
0.0
 10
-41.5869
 20
36.2483
 30
0.0
 10
-41.5869
 20
36.2483
 30
0.0
 10
-40.741700000000002
 20
36.2483
 30
0.0
 10
-40.023600000000002
 20
35.590699999999998
 30
0.0
 10
-40.023600000000002
 20
34.925600000000003
 30
0.0
 10
-40.023600000000002
 20
34.925600000000003
 30
0.0
 10
-40.023600000000002
 20
34.853900000000003
 30
0.0
 10
-40.189599999999999
 20
34.676200000000001
 30
0.0
 10
-40.264200000000002
 20
34.564799999999998
 30
0.0
 10
-40.264200000000002
 20
34.564799999999998
 30
0.0
 10
-39.750300000000003
 20
34.564799999999998
 30
0.0
 10
-39.182000000000002
 20
34.587200000000003
 30
0.0
 10
-39.182000000000002
 20
34.084000000000003
 30
0.0
 10
-39.182000000000002
 20
34.084000000000003
 30
0.0
 10
-39.182000000000002
 20
33.324100000000001
 30
0.0
 10
-39.974299999999999
 20
32.754199999999997
 30
0.0
 10
-40.023600000000002
 20
32.1601
 30
0.0
 10
-40.023600000000002
 20
32.1601
 30
0.0
 10
-39.749699999999997
 20
32.305100000000003
 30
0.0
 10
-38.972299999999997
 20
32.641100000000002
 30
0.0
 10
-38.5807
 20
32.641100000000002
 30
0.0
 10
-38.5807
 20
32.641100000000002
 30
0.0
 10
-38.309699999999999
 20
32.641100000000002
 30
0.0
 10
-38.636600000000001
 20
32.687399999999997
 30
0.0
 10
-38.304299999999998
 20
32.474299999999999
 30
0.0
 10
-38.304299999999998
 20
32.474299999999999
 30
0.0
 10
-38.304299999999998
 20
32.474299999999999
 30
0.0
 10
-38.802799999999998
 20
32.168900000000001
 30
0.0
 10
-38.802799999999998
 20
32.168900000000001
 30
0.0
 10
-38.802799999999998
 20
32.168900000000001
 30
0.0
 10
-38.802799999999998
 20
32.168900000000001
 30
0.0
 10
-38.5944
 20
31.575800000000001
 30
0.0
 10
-38.5944
 20
31.575800000000001
 30
0.0
 10
-38.5944
 20
31.575800000000001
 30
0.0
 10
-38.5944
 20
31.575800000000001
 30
0.0
 10
-37.6188
 20
32.280299999999997
 30
0.0
 10
-37.6188
 20
32.280299999999997
 30
0.0
  0
SPLINE
  5
27
100
AcDbEntity
  8
RÚteg 1
 62
     7
100
AcDbSpline
210
0.0
220
0.0
230
1.0
 70
     1
 71
     3
 72
   324
 73
   320
 74
     0
 42
0.0000000001
 43
0.0000000001
 40
0.0
 40
0.0
 40
0.0
 40
0.0
 40
0.0125
 40
0.0125
 40
0.0125
 40
0.0125
 40
0.025
 40
0.025
 40
0.025
 40
0.025
 40
0.0375
 40
0.0375
 40
0.0375
 40
0.0375
 40
0.05
 40
0.05
 40
0.05
 40
0.05
 40
0.0625
 40
0.0625
 40
0.0625
 40
0.0625
 40
0.075
 40
0.075
 40
0.075
 40
0.075
 40
0.0875
 40
0.0875
 40
0.0875
 40
0.0875
 40
0.1
 40
0.1
 40
0.1
 40
0.1
 40
0.1125
 40
0.1125
 40
0.1125
 40
0.1125
 40
0.125
 40
0.125
 40
0.125
 40
0.125
 40
0.1375
 40
0.1375
 40
0.1375
 40
0.1375
 40
0.15
 40
0.15
 40
0.15
 40
0.15
 40
0.1625
 40
0.1625
 40
0.1625
 40
0.1625
 40
0.175
 40
0.175
 40
0.175
 40
0.175
 40
0.1875
 40
0.1875
 40
0.1875
 40
0.1875
 40
0.2
 40
0.2
 40
0.2
 40
0.2
 40
0.2125000000000001
 40
0.2125000000000001
 40
0.2125000000000001
 40
0.2125000000000001
 40
0.2250000000000001
 40
0.2250000000000001
 40
0.2250000000000001
 40
0.2250000000000001
 40
0.2375000000000001
 40
0.2375000000000001
 40
0.2375000000000001
 40
0.2375000000000001
 40
0.2500000000000001
 40
0.2500000000000001
 40
0.2500000000000001
 40
0.2500000000000001
 40
0.2625000000000001
 40
0.2625000000000001
 40
0.2625000000000001
 40
0.2625000000000001
 40
0.2750000000000001
 40
0.2750000000000001
 40
0.2750000000000001
 40
0.2750000000000001
 40
0.2875000000000001
 40
0.2875000000000001
 40
0.2875000000000001
 40
0.2875000000000001
 40
0.3000000000000001
 40
0.3000000000000001
 40
0.3000000000000001
 40
0.3000000000000001
 40
0.3125000000000001
 40
0.3125000000000001
 40
0.3125000000000001
 40
0.3125000000000001
 40
0.3250000000000001
 40
0.3250000000000001
 40
0.3250000000000001
 40
0.3250000000000001
 40
0.3375000000000001
 40
0.3375000000000001
 40
0.3375000000000001
 40
0.3375000000000001
 40
0.3500000000000001
 40
0.3500000000000001
 40
0.3500000000000001
 40
0.3500000000000001
 40
0.3625000000000002
 40
0.3625000000000002
 40
0.3625000000000002
 40
0.3625000000000002
 40
0.3750000000000002
 40
0.3750000000000002
 40
0.3750000000000002
 40
0.3750000000000002
 40
0.3875000000000002
 40
0.3875000000000002
 40
0.3875000000000002
 40
0.3875000000000002
 40
0.4000000000000002
 40
0.4000000000000002
 40
0.4000000000000002
 40
0.4000000000000002
 40
0.4125000000000002
 40
0.4125000000000002
 40
0.4125000000000002
 40
0.4125000000000002
 40
0.4250000000000002
 40
0.4250000000000002
 40
0.4250000000000002
 40
0.4250000000000002
 40
0.4375000000000002
 40
0.4375000000000002
 40
0.4375000000000002
 40
0.4375000000000002
 40
0.4500000000000002
 40
0.4500000000000002
 40
0.4500000000000002
 40
0.4500000000000002
 40
0.4625000000000002
 40
0.4625000000000002
 40
0.4625000000000002
 40
0.4625000000000002
 40
0.4750000000000003
 40
0.4750000000000003
 40
0.4750000000000003
 40
0.4750000000000003
 40
0.4875000000000003
 40
0.4875000000000003
 40
0.4875000000000003
 40
0.4875000000000003
 40
0.5000000000000002
 40
0.5000000000000002
 40
0.5000000000000002
 40
0.5000000000000002
 40
0.5125000000000002
 40
0.5125000000000002
 40
0.5125000000000002
 40
0.5125000000000002
 40
0.5250000000000001
 40
0.5250000000000001
 40
0.5250000000000001
 40
0.5250000000000001
 40
0.5375000000000001
 40
0.5375000000000001
 40
0.5375000000000001
 40
0.5375000000000001
 40
0.55
 40
0.55
 40
0.55
 40
0.55
 40
0.5625
 40
0.5625
 40
0.5625
 40
0.5625
 40
0.575
 40
0.575
 40
0.575
 40
0.575
 40
0.5874999999999999
 40
0.5874999999999999
 40
0.5874999999999999
 40
0.5874999999999999
 40
0.5999999999999999
 40
0.5999999999999999
 40
0.5999999999999999
 40
0.5999999999999999
 40
0.6124999999999998
 40
0.6124999999999998
 40
0.6124999999999998
 40
0.6124999999999998
 40
0.6249999999999998
 40
0.6249999999999998
 40
0.6249999999999998
 40
0.6249999999999998
 40
0.6374999999999997
 40
0.6374999999999997
 40
0.6374999999999997
 40
0.6374999999999997
 40
0.6499999999999997
 40
0.6499999999999997
 40
0.6499999999999997
 40
0.6499999999999997
 40
0.6624999999999996
 40
0.6624999999999996
 40
0.6624999999999996
 40
0.6624999999999996
 40
0.6749999999999996
 40
0.6749999999999996
 40
0.6749999999999996
 40
0.6749999999999996
 40
0.6874999999999996
 40
0.6874999999999996
 40
0.6874999999999996
 40
0.6874999999999996
 40
0.6999999999999995
 40
0.6999999999999995
 40
0.6999999999999995
 40
0.6999999999999995
 40
0.7124999999999995
 40
0.7124999999999995
 40
0.7124999999999995
 40
0.7124999999999995
 40
0.7249999999999994
 40
0.7249999999999994
 40
0.7249999999999994
 40
0.7249999999999994
 40
0.7374999999999994
 40
0.7374999999999994
 40
0.7374999999999994
 40
0.7374999999999994
 40
0.7499999999999993
 40
0.7499999999999993
 40
0.7499999999999993
 40
0.7499999999999993
 40
0.7624999999999993
 40
0.7624999999999993
 40
0.7624999999999993
 40
0.7624999999999993
 40
0.7749999999999993
 40
0.7749999999999993
 40
0.7749999999999993
 40
0.7749999999999993
 40
0.7874999999999992
 40
0.7874999999999992
 40
0.7874999999999992
 40
0.7874999999999992
 40
0.7999999999999992
 40
0.7999999999999992
 40
0.7999999999999992
 40
0.7999999999999992
 40
0.8124999999999991
 40
0.8124999999999991
 40
0.8124999999999991
 40
0.8124999999999991
 40
0.8249999999999991
 40
0.8249999999999991
 40
0.8249999999999991
 40
0.8249999999999991
 40
0.837499999999999
 40
0.837499999999999
 40
0.837499999999999
 40
0.837499999999999
 40
0.849999999999999
 40
0.849999999999999
 40
0.849999999999999
 40
0.849999999999999
 40
0.8624999999999989
 40
0.8624999999999989
 40
0.8624999999999989
 40
0.8624999999999989
 40
0.8749999999999989
 40
0.8749999999999989
 40
0.8749999999999989
 40
0.8749999999999989
 40
0.8874999999999989
 40
0.8874999999999989
 40
0.8874999999999989
 40
0.8874999999999989
 40
0.8999999999999988
 40
0.8999999999999988
 40
0.8999999999999988
 40
0.8999999999999988
 40
0.9124999999999988
 40
0.9124999999999988
 40
0.9124999999999988
 40
0.9124999999999988
 40
0.9249999999999987
 40
0.9249999999999987
 40
0.9249999999999987
 40
0.9249999999999987
 40
0.9374999999999987
 40
0.9374999999999987
 40
0.9374999999999987
 40
0.9374999999999987
 40
0.9499999999999986
 40
0.9499999999999986
 40
0.9499999999999986
 40
0.9499999999999986
 40
0.9624999999999986
 40
0.9624999999999986
 40
0.9624999999999986
 40
0.9624999999999986
 40
0.9749999999999985
 40
0.9749999999999985
 40
0.9749999999999985
 40
0.9749999999999985
 40
0.9874999999999985
 40
0.9874999999999985
 40
0.9874999999999985
 40
0.9874999999999985
 40
1.0
 40
1.0
 40
1.0
 40
1.0
 10
-72.971599999999995
 20
48.424599999999998
 30
0.0
 10
-74.5381
 20
47.062800000000003
 30
0.0
 10
-74.291600000000003
 20
47.773800000000001
 30
0.0
 10
-75.355599999999995
 20
45.642899999999997
 30
0.0
 10
-75.355599999999995
 20
45.642899999999997
 30
0.0
 10
-75.918400000000005
 20
44.515599999999999
 30
0.0
 10
-76.322199999999995
 20
43.147199999999998
 30
0.0
 10
-77.342399999999998
 20
42.464100000000002
 30
0.0
 10
-77.342399999999998
 20
42.464100000000002
 30
0.0
 10
-77.238500000000002
 20
42.909700000000001
 30
0.0
 10
-77.143699999999995
 20
42.920900000000003
 30
0.0
 10
-77.143699999999995
 20
43.4574
 30
0.0
 10
-77.143699999999995
 20
43.4574
 30
0.0
 10
-77.143699999999995
 20
43.484200000000001
 30
0.0
 10
-77.339100000000002
 20
43.851100000000002
 30
0.0
 10
-77.342399999999998
 20
43.854799999999997
 30
0.0
 10
-77.342399999999998
 20
43.854799999999997
 30
0.0
 10
-77.342399999999998
 20
43.854799999999997
 30
0.0
 10
-78.509500000000003
 20
42.838700000000003
 30
0.0
 10
-78.509500000000003
 20
42.838700000000003
 30
0.0
 10
-78.509500000000003
 20
42.838700000000003
 30
0.0
 10
-78.509500000000003
 20
42.838700000000003
 30
0.0
 10
-79.130399999999995
 20
43.854799999999997
 30
0.0
 10
-79.130399999999995
 20
43.854799999999997
 30
0.0
 10
-79.130399999999995
 20
43.854799999999997
 30
0.0
 10
-79.130399999999995
 20
43.854799999999997
 30
0.0
 10
-79.517300000000006
 20
43.639200000000002
 30
0.0
 10
-79.517300000000006
 20
43.639200000000002
 30
0.0
 10
-79.517300000000006
 20
43.639200000000002
 30
0.0
 10
-79.517300000000006
 20
43.639200000000002
 30
0.0
 10
-79.382400000000004
 20
42.652700000000003
 30
0.0
 10
-79.382400000000004
 20
42.652700000000003
 30
0.0
 10
-79.382400000000004
 20
42.652700000000003
 30
0.0
 10
-80.512900000000002
 20
42.761299999999999
 30
0.0
 10
-81.7363
 20
45.646099999999997
 30
0.0
 10
-83.104100000000003
 20
46.835099999999997
 30
0.0
 10
-83.104100000000003
 20
46.835099999999997
 30
0.0
 10
-83.104100000000003
 20
46.835099999999997
 30
0.0
 10
-83.676000000000002
 20
46.408900000000003
 30
0.0
 10
-83.676000000000002
 20
46.408900000000003
 30
0.0
 10
-83.676000000000002
 20
46.408900000000003
 30
0.0
 10
-83.676000000000002
 20
46.408900000000003
 30
0.0
 10
-85.680199999999999
 20
46.686599999999999
 30
0.0
 10
-85.680199999999999
 20
46.686599999999999
 30
0.0
 10
-85.680199999999999
 20
46.686599999999999
 30
0.0
 10
-85.680199999999999
 20
46.686599999999999
 30
0.0
 10
-87.474900000000005
 20
46.636299999999999
 30
0.0
 10
-87.474900000000005
 20
46.636299999999999
 30
0.0
 10
-87.474900000000005
 20
46.636299999999999
 30
0.0
 10
-87.879199999999997
 20
46.636299999999999
 30
0.0
 10
-88.346500000000006
 20
46.529499999999999
 30
0.0
 10
-88.769300000000001
 20
46.393000000000001
 30
0.0
 10
-88.769300000000001
 20
46.393000000000001
 30
0.0
 10
-88.809100000000001
 20
47.012300000000003
 30
0.0
 10
-88.829300000000003
 20
47.636699999999998
 30
0.0
 10
-88.829300000000003
 20
48.265900000000002
 30
0.0
 10
-88.829300000000003
 20
48.265900000000002
 30
0.0
 10
-88.829300000000003
 20
52.086100000000002
 30
0.0
 10
-88.084999999999994
 20
55.732700000000001
 30
0.0
 10
-86.734800000000007
 20
59.069499999999998
 30
0.0
 10
-86.734800000000007
 20
59.069499999999998
 30
0.0
 10
-86.734800000000007
 20
59.069499999999998
 30
0.0
 10
-85.553899999999999
 20
59.485300000000002
 30
0.0
 10
-85.553899999999999
 20
59.485300000000002
 30
0.0
 10
-85.553899999999999
 20
59.485300000000002
 30
0.0
 10
-84.167000000000002
 20
59.973300000000002
 30
0.0
 10
-82.221000000000004
 20
59.796999999999997
 30
0.0
 10
-81.356800000000007
 20
59.205599999999997
 30
0.0
 10
-81.356800000000007
 20
59.205599999999997
 30
0.0
 10
-81.356800000000007
 20
59.205599999999997
 30
0.0
 10
-78.138599999999997
 20
57.667999999999999
 30
0.0
 10
-78.138599999999997
 20
57.667999999999999
 30
0.0
 10
-78.138599999999997
 20
57.667999999999999
 30
0.0
 10
-78.138599999999997
 20
57.667999999999999
 30
0.0
 10
-78.434399999999997
 20
56.726100000000002
 30
0.0
 10
-78.434399999999997
 20
56.726100000000002
 30
0.0
 10
-78.434399999999997
 20
56.726100000000002
 30
0.0
 10
-78.434399999999997
 20
56.726100000000002
 30
0.0
 10
-74.251099999999994
 20
57.314500000000002
 30
0.0
 10
-74.251099999999994
 20
57.314500000000002
 30
0.0
 10
-74.251099999999994
 20
57.314500000000002
 30
0.0
 10
-72.592799999999997
 20
57.066800000000001
 30
0.0
 10
-69.132099999999994
 20
56.079099999999997
 30
0.0
 10
-68.432900000000004
 20
54.092399999999998
 30
0.0
 10
-68.432900000000004
 20
54.092399999999998
 30
0.0
 10
-68.432900000000004
 20
54.092399999999998
 30
0.0
 10
-68.157899999999998
 20
53.3108
 30
0.0
 10
-68.157899999999998
 20
53.3108
 30
0.0
 10
-68.157899999999998
 20
53.3108
 30
0.0
 10
-66.915599999999998
 20
53.867699999999999
 30
0.0
 10
-67.386899999999997
 20
54.1678
 30
0.0
 10
-66.257300000000001
 20
54.565199999999997
 30
0.0
 10
-66.257300000000001
 20
54.565199999999997
 30
0.0
 10
-66.257300000000001
 20
54.565199999999997
 30
0.0
 10
-65.736199999999997
 20
54.748699999999999
 30
0.0
 10
-65.736199999999997
 20
54.748699999999999
 30
0.0
 10
-65.736199999999997
 20
54.748699999999999
 30
0.0
 10
-64.496300000000005
 20
55.185000000000002
 30
0.0
 10
-63.457299999999996
 20
55.316600000000001
 30
0.0
 10
-62.5959
 20
54.975299999999997
 30
0.0
 10
-62.5959
 20
54.975299999999997
 30
0.0
 10
-61.027500000000003
 20
55.1477
 30
0.0
 10
-60.205599999999997
 20
54.409799999999997
 30
0.0
 10
-59.503599999999999
 20
52.843000000000004
 30
0.0
 10
-59.503599999999999
 20
52.843000000000004
 30
0.0
 10
-58.361899999999999
 20
53.6233
 30
0.0
 10
-58.470399999999998
 20
54.670499999999997
 30
0.0
 10
-57.096299999999999
 20
55.154000000000003
 30
0.0
 10
-57.096299999999999
 20
55.154000000000003
 30
0.0
 10
-57.096299999999999
 20
55.154000000000003
 30
0.0
 10
-56.054400000000001
 20
55.520699999999998
 30
0.0
 10
-56.054400000000001
 20
55.520699999999998
 30
0.0
 10
-56.054400000000001
 20
55.520699999999998
 30
0.0
 10
-55.058399999999999
 20
55.871200000000002
 30
0.0
 10
-55.9876
 20
55.634
 30
0.0
 10
-55.181100000000001
 20
55.535299999999999
 30
0.0
 10
-55.181100000000001
 20
55.535299999999999
 30
0.0
 10
-56.121200000000002
 20
52.43
 30
0.0
 10
-58.174999999999997
 20
52.835700000000003
 30
0.0
 10
-56.888599999999997
 20
47.908200000000001
 30
0.0
 10
-56.888599999999997
 20
47.908200000000001
 30
0.0
 10
-54.531399999999998
 20
48.9649
 30
0.0
 10
-55.080300000000001
 20
50.886699999999998
 30
0.0
 10
-52.933100000000003
 20
51.642299999999999
 30
0.0
 10
-52.933100000000003
 20
51.642299999999999
 30
0.0
 10
-52.005299999999998
 20
51.968600000000002
 30
0.0
 10
-51.694899999999997
 20
51.383800000000001
 30
0.0
 10
-51.340899999999998
 20
50.445799999999998
 30
0.0
 10
-51.340899999999998
 20
50.445799999999998
 30
0.0
 10
-51.340899999999998
 20
50.445799999999998
 30
0.0
 10
-52.934800000000003
 20
49.866799999999998
 30
0.0
 10
-52.934800000000003
 20
49.866799999999998
 30
0.0
 10
-52.934800000000003
 20
49.866799999999998
 30
0.0
 10
-52.934800000000003
 20
49.866799999999998
 30
0.0
 10
-51.832900000000002
 20
48.516300000000001
 30
0.0
 10
-51.832900000000002
 20
48.516300000000001
 30
0.0
 10
-51.832900000000002
 20
48.516300000000001
 30
0.0
 10
-56.667999999999999
 20
46.814900000000002
 30
0.0
 10
-57.597000000000001
 20
42.010899999999999
 30
0.0
 10
-59.744300000000003
 20
41.048200000000001
 30
0.0
 10
-59.744300000000003
 20
41.048200000000001
 30
0.0
 10
-59.744300000000003
 20
41.048200000000001
 30
0.0
 10
-60.202800000000003
 20
42.3508
 30
0.0
 10
-60.202800000000003
 20
42.3508
 30
0.0
 10
-60.202800000000003
 20
42.3508
 30
0.0
 10
-62.034500000000001
 20
39.902500000000003
 30
0.0
 10
-59.859900000000003
 20
39.064799999999998
 30
0.0
 10
-59.515099999999997
 20
35.957700000000003
 30
0.0
 10
-59.515099999999997
 20
35.957700000000003
 30
0.0
 10
-59.354300000000002
 20
34.5077
 30
0.0
 10
-59.933100000000003
 20
31.1615
 30
0.0
 10
-61.378999999999998
 20
30.526499999999999
 30
0.0
 10
-61.378999999999998
 20
30.526499999999999
 30
0.0
 10
-61.378999999999998
 20
30.526499999999999
 30
0.0
 10
-62.247900000000001
 20
34.019500000000001
 30
0.0
 10
-62.247900000000001
 20
34.019500000000001
 30
0.0
 10
-62.247900000000001
 20
34.019500000000001
 30
0.0
 10
-63.510800000000003
 20
33.156999999999996
 30
0.0
 10
-63.172899999999998
 20
30.473600000000001
 30
0.0
 10
-63.844499999999996
 20
30.237200000000001
 30
0.0
 10
-63.844499999999996
 20
30.237200000000001
 30
0.0
 10
-65.161699999999996
 20
29.773900000000001
 30
0.0
 10
-65.592699999999994
 20
31.671500000000002
 30
0.0
 10
-66.830600000000004
 20
31.235900000000001
 30
0.0
 10
-66.830600000000004
 20
31.235900000000001
 30
0.0
 10
-66.830600000000004
 20
31.235900000000001
 30
0.0
 10
-67.612300000000005
 20
30.960799999999999
 30
0.0
 10
-67.612300000000005
 20
30.960799999999999
 30
0.0
 10
-67.612300000000005
 20
30.960799999999999
 30
0.0
 10
-67.612300000000005
 20
30.960799999999999
 30
0.0
 10
-67.825199999999995
 20
30.737300000000001
 30
0.0
 10
-67.825199999999995
 20
30.737300000000001
 30
0.0
 10
-67.825199999999995
 20
30.737300000000001
 30
0.0
 10
-67.825199999999995
 20
30.737300000000001
 30
0.0
 10
-63.805700000000002
 20
26.906400000000001
 30
0.0
 10
-63.805700000000002
 20
26.906400000000001
 30
0.0
 10
-63.805700000000002
 20
26.906400000000001
 30
0.0
 10
-63.805700000000002
 20
26.906400000000001
 30
0.0
 10
-64.046999999999997
 20
26.653099999999998
 30
0.0
 10
-64.046999999999997
 20
26.653099999999998
 30
0.0
 10
-64.046999999999997
 20
26.653099999999998
 30
0.0
 10
-66.311800000000005
 20
26.061900000000001
 30
0.0
 10
-68.015699999999995
 20
27.5624
 30
0.0
 10
-69.383600000000001
 20
29.072299999999998
 30
0.0
 10
-69.383600000000001
 20
29.072299999999998
 30
0.0
 10
-72.200299999999999
 20
32.181699999999999
 30
0.0
 10
-71.682500000000005
 20
30.889299999999999
 30
0.0
 10
-74.872399999999999
 20
31.626300000000001
 30
0.0
 10
-74.872399999999999
 20
31.626300000000001
 30
0.0
 10
-74.872399999999999
 20
31.626300000000001
 30
0.0
 10
-74.705299999999994
 20
30.220300000000002
 30
0.0
 10
-74.705299999999994
 20
30.220300000000002
 30
0.0
 10
-74.705299999999994
 20
30.220300000000002
 30
0.0
 10
-74.705299999999994
 20
30.220300000000002
 30
0.0
 10
-74.569999999999993
 20
29.971599999999999
 30
0.0
 10
-74.569999999999993
 20
29.971599999999999
 30
0.0
 10
-74.569999999999993
 20
29.971599999999999
 30
0.0
 10
-74.569999999999993
 20
29.971599999999999
 30
0.0
 10
-80.272999999999996
 20
27.765999999999998
 30
0.0
 10
-80.272999999999996
 20
27.765999999999998
 30
0.0
 10
-80.272999999999996
 20
27.765999999999998
 30
0.0
 10
-84.348299999999995
 20
31.799700000000001
 30
0.0
 10
-87.227599999999995
 20
37.038699999999999
 30
0.0
 10
-88.3309
 20
42.9039
 30
0.0
 10
-88.3309
 20
42.9039
 30
0.0
 10
-87.650400000000005
 20
43.1447
 30
0.0
 10
-87.576700000000002
 20
43.656199999999998
 30
0.0
 10
-87.276200000000003
 20
43.656199999999998
 30
0.0
 10
-87.276200000000003
 20
43.656199999999998
 30
0.0
 10
-85.971599999999995
 20
43.656199999999998
 30
0.0
 10
-85.973200000000006
 20
42.156799999999997
 30
0.0
 10
-84.892200000000003
 20
41.868099999999998
 30
0.0
 10
-84.892200000000003
 20
41.868099999999998
 30
0.0
 10
-84.892200000000003
 20
41.868099999999998
 30
0.0
 10
-84.892200000000003
 20
42.2654
 30
0.0
 10
-84.892200000000003
 20
42.2654
 30
0.0
 10
-84.892200000000003
 20
42.2654
 30
0.0
 10
-84.892200000000003
 20
42.2654
 30
0.0
 10
-83.6999
 20
42.2654
 30
0.0
 10
-83.6999
 20
42.2654
 30
0.0
 10
-83.6999
 20
42.2654
 30
0.0
 10
-83.6999
 20
42.2654
 30
0.0
 10
-81.713200000000001
 20
40.676000000000002
 30
0.0
 10
-81.713200000000001
 20
40.676000000000002
 30
0.0
 10
-81.713200000000001
 20
40.676000000000002
 30
0.0
 10
-81.304000000000002
 20
40.950200000000002
 30
0.0
 10
-81.197699999999998
 20
41.271999999999998
 30
0.0
 10
-80.719800000000006
 20
41.271999999999998
 30
0.0
 10
-80.719800000000006
 20
41.271999999999998
 30
0.0
 10
-80.719800000000006
 20
41.271999999999998
 30
0.0
 10
-80.322500000000005
 20
41.271999999999998
 30
0.0
 10
-80.322500000000005
 20
41.271999999999998
 30
0.0
 10
-80.322500000000005
 20
41.271999999999998
 30
0.0
 10
-78.471699999999998
 20
41.271999999999998
 30
0.0
 10
-78.191800000000001
 20
38.7149
 30
0.0
 10
-77.143699999999995
 20
38.291899999999998
 30
0.0
 10
-77.143699999999995
 20
38.291899999999998
 30
0.0
 10
-77.143699999999995
 20
38.291899999999998
 30
0.0
 10
-77.143699999999995
 20
38.689300000000003
 30
0.0
 10
-77.143699999999995
 20
38.689300000000003
 30
0.0
 10
-77.143699999999995
 20
38.689300000000003
 30
0.0
 10
-77.143699999999995
 20
38.689300000000003
 30
0.0
 10
-76.743899999999996
 20
38.690800000000003
 30
0.0
 10
-76.743899999999996
 20
38.690800000000003
 30
0.0
 10
-76.743899999999996
 20
38.690800000000003
 30
0.0
 10
-76.743899999999996
 20
38.690800000000003
 30
0.0
 10
-77.212400000000002
 20
39.441000000000003
 30
0.0
 10
-77.212400000000002
 20
39.441000000000003
 30
0.0
 10
-77.212400000000002
 20
39.441000000000003
 30
0.0
 10
-77.212400000000002
 20
39.441000000000003
 30
0.0
 10
-77.039500000000004
 20
39.631999999999998
 30
0.0
 10
-77.039500000000004
 20
39.631999999999998
 30
0.0
 10
-77.039500000000004
 20
39.631999999999998
 30
0.0
 10
-77.039500000000004
 20
39.631999999999998
 30
0.0
 10
-75.156899999999993
 20
38.291899999999998
 30
0.0
 10
-75.156899999999993
 20
38.291899999999998
 30
0.0
 10
-75.156899999999993
 20
38.291899999999998
 30
0.0
 10
-75.236999999999995
 20
39.255099999999999
 30
0.0
 10
-75.554100000000005
 20
39.537399999999998
 30
0.0
 10
-75.554100000000005
 20
40.676000000000002
 30
0.0
 10
-75.554100000000005
 20
40.676000000000002
 30
0.0
 10
-75.554100000000005
 20
40.676000000000002
 30
0.0
 10
-75.554100000000005
 20
41.271999999999998
 30
0.0
 10
-75.554100000000005
 20
41.271999999999998
 30
0.0
 10
-75.554100000000005
 20
41.271999999999998
 30
0.0
 10
-75.554100000000005
 20
41.271999999999998
 30
0.0
 10
-74.5608
 20
41.271999999999998
 30
0.0
 10
-74.5608
 20
41.271999999999998
 30
0.0
 10
-74.5608
 20
41.271999999999998
 30
0.0
 10
-73.801299999999998
 20
41.271999999999998
 30
0.0
 10
-74.488500000000002
 20
41.333100000000002
 30
0.0
 10
-73.964699999999993
 20
41.0732
 30
0.0
 10
-73.964699999999993
 20
41.0732
 30
0.0
 10
-73.9392
 20
42.220100000000002
 30
0.0
 10
-72.856099999999998
 20
43.3459
 30
0.0
 10
-71.779300000000006
 20
42.6629
 30
0.0
 10
-71.779300000000006
 20
42.6629
 30
0.0
 10
-70.977800000000002
 20
42.986199999999997
 30
0.0
 10
-71.274199999999993
 20
44.450899999999997
 30
0.0
 10
-69.593999999999994
 20
44.450899999999997
 30
0.0
 10
-69.593999999999994
 20
44.450899999999997
 30
0.0
 10
-69.593999999999994
 20
44.450899999999997
 30
0.0
 10
-68.997699999999995
 20
44.450899999999997
 30
0.0
 10
-68.997699999999995
 20
44.450899999999997
 30
0.0
 10
-68.997699999999995
 20
44.450899999999997
 30
0.0
 10
-68.514399999999995
 20
44.450899999999997
 30
0.0
 10
-68.270399999999995
 20
44.085999999999999
 30
0.0
 10
-67.993899999999996
 20
43.837899999999998
 30
0.0
 10
-67.993899999999996
 20
43.837899999999998
 30
0.0
 10
-67.993899999999996
 20
43.837899999999998
 30
0.0
 10
-67.606999999999999
 20
44.053600000000003
 30
0.0
 10
-67.606999999999999
 20
44.053600000000003
 30
0.0
 10
-67.606999999999999
 20
44.053600000000003
 30
0.0
 10
-67.606999999999999
 20
44.053600000000003
 30
0.0
 10
-68.004499999999993
 20
44.649799999999999
 30
0.0
 10
-68.004499999999993
 20
44.649799999999999
 30
0.0
 10
-68.004499999999993
 20
44.649799999999999
 30
0.0
 10
-67.564899999999994
 20
44.882199999999997
 30
0.0
 10
-67.0351
 20
45.245699999999999
 30
0.0
 10
-66.415099999999995
 20
45.245699999999999
 30
0.0
 10
-66.415099999999995
 20
45.245699999999999
 30
0.0
 10
-66.415099999999995
 20
45.245699999999999
 30
0.0
 10
-66.012
 20
45.290599999999998
 30
0.0
 10
-66.012
 20
45.290599999999998
 30
0.0
 10
-66.012
 20
45.290599999999998
 30
0.0
 10
-66.012
 20
45.290599999999998
 30
0.0
 10
-63.832099999999997
 20
45.046900000000001
 30
0.0
 10
-63.832099999999997
 20
45.046900000000001
 30
0.0
 10
-63.832099999999997
 20
45.046900000000001
 30
0.0
 10
-64.161100000000005
 20
46.2791
 30
0.0
 10
-66.073599999999999
 20
47.0777
 30
0.0
 10
-67.338999999999999
 20
47.500700000000002
 30
0.0
 10
-67.338999999999999
 20
47.500700000000002
 30
0.0
 10
-69.263099999999994
 20
48.143700000000003
 30
0.0
 10
-71.994900000000001
 20
47.043799999999997
 30
0.0
 10
-71.6083
 20
48.910299999999999
 30
0.0
 10
-71.6083
 20
48.910299999999999
 30
0.0
 10
-71.6083
 20
48.910299999999999
 30
0.0
 10
-72.971599999999995
 20
48.424599999999998
 30
0.0
 10
-72.971599999999995
 20
48.424599999999998
 30
0.0
  0
SPLINE
  5
28
100
AcDbEntity
  8
RÚteg 1
 62
     7
100
AcDbSpline
210
0.0
220
0.0
230
1.0
 70
     1
 71
     3
 72
    84
 73
    80
 74
     0
 42
0.0000000001
 43
0.0000000001
 40
0.0
 40
0.0
 40
0.0
 40
0.0
 40
0.05
 40
0.05
 40
0.05
 40
0.05
 40
0.1
 40
0.1
 40
0.1
 40
0.1
 40
0.15
 40
0.15
 40
0.15
 40
0.15
 40
0.2
 40
0.2
 40
0.2
 40
0.2
 40
0.25
 40
0.25
 40
0.25
 40
0.25
 40
0.3
 40
0.3
 40
0.3
 40
0.3
 40
0.35
 40
0.35
 40
0.35
 40
0.35
 40
0.4
 40
0.4
 40
0.4
 40
0.4
 40
0.45
 40
0.45
 40
0.45
 40
0.45
 40
0.4999999999999999
 40
0.4999999999999999
 40
0.4999999999999999
 40
0.4999999999999999
 40
0.5499999999999999
 40
0.5499999999999999
 40
0.5499999999999999
 40
0.5499999999999999
 40
0.6
 40
0.6
 40
0.6
 40
0.6
 40
0.65
 40
0.65
 40
0.65
 40
0.65
 40
0.7000000000000001
 40
0.7000000000000001
 40
0.7000000000000001
 40
0.7000000000000001
 40
0.7500000000000001
 40
0.7500000000000001
 40
0.7500000000000001
 40
0.7500000000000001
 40
0.8000000000000002
 40
0.8000000000000002
 40
0.8000000000000002
 40
0.8000000000000002
 40
0.8500000000000002
 40
0.8500000000000002
 40
0.8500000000000002
 40
0.8500000000000002
 40
0.9000000000000002
 40
0.9000000000000002
 40
0.9000000000000002
 40
0.9000000000000002
 40
0.9500000000000003
 40
0.9500000000000003
 40
0.9500000000000003
 40
0.9500000000000003
 40
1.0
 40
1.0
 40
1.0
 40
1.0
 10
-45.256599999999999
 20
73.069299999999998
 30
0.0
 10
-46.2849
 20
69.072100000000006
 30
0.0
 10
-46.108600000000003
 20
70.163700000000006
 30
0.0
 10
-45.762
 20
65.528400000000005
 30
0.0
 10
-45.762
 20
65.528400000000005
 30
0.0
 10
-45.628100000000003
 20
63.739899999999999
 30
0.0
 10
-45.4589
 20
63.256900000000002
 30
0.0
 10
-46.025300000000001
 20
61.756700000000002
 30
0.0
 10
-46.025300000000001
 20
61.756700000000002
 30
0.0
 10
-46.2502
 20
61.160499999999999
 30
0.0
 10
-47.745800000000003
 20
58.531700000000001
 30
0.0
 10
-48.359999999999999
 20
60.2776
 30
0.0
 10
-48.359999999999999
 20
60.2776
 30
0.0
 10
-48.359999999999999
 20
60.2776
 30
0.0
 10
-48.543300000000002
 20
60.798400000000001
 30
0.0
 10
-48.543300000000002
 20
60.798400000000001
 30
0.0
 10
-48.543300000000002
 20
60.798400000000001
 30
0.0
 10
-49.048999999999999
 20
62.235300000000002
 30
0.0
 10
-47.986400000000003
 20
63.375500000000002
 30
0.0
 10
-48.7074
 20
65.424700000000001
 30
0.0
 10
-48.7074
 20
65.424700000000001
 30
0.0
 10
-48.7074
 20
65.424700000000001
 30
0.0
 10
-49.165700000000001
 20
66.727199999999996
 30
0.0
 10
-49.165700000000001
 20
66.727199999999996
 30
0.0
 10
-49.165700000000001
 20
66.727199999999996
 30
0.0
 10
-49.165700000000001
 20
66.727199999999996
 30
0.0
 10
-49.947400000000002
 20
66.452200000000005
 30
0.0
 10
-49.947400000000002
 20
66.452200000000005
 30
0.0
 10
-49.947400000000002
 20
66.452200000000005
 30
0.0
 10
-51.624099999999999
 20
65.862200000000001
 30
0.0
 10
-50.016599999999997
 20
62.9148
 30
0.0
 10
-51.452399999999997
 20
62.409700000000001
 30
0.0
 10
-51.452399999999997
 20
62.409700000000001
 30
0.0
 10
-51.452399999999997
 20
62.409700000000001
 30
0.0
 10
-51.712899999999998
 20
62.317900000000002
 30
0.0
 10
-51.712899999999998
 20
62.317900000000002
 30
0.0
 10
-51.712899999999998
 20
62.317900000000002
 30
0.0
 10
-52.679000000000002
 20
61.978000000000002
 30
0.0
 10
-55.239800000000002
 20
63.9163
 30
0.0
 10
-56.628799999999998
 20
63.808399999999999
 30
0.0
 10
-56.628799999999998
 20
63.808399999999999
 30
0.0
 10
-56.628799999999998
 20
63.808399999999999
 30
0.0
 10
-53.878399999999999
 20
59.526200000000003
 30
0.0
 10
-53.878399999999999
 20
59.526200000000003
 30
0.0
 10
-53.878399999999999
 20
59.526200000000003
 30
0.0
 10
-57.6267
 20
58.5229
 30
0.0
 10
-62.518000000000001
 20
63.359900000000003
 30
0.0
 10
-64.024100000000004
 20
67.353899999999996
 30
0.0
 10
-64.024100000000004
 20
67.353899999999996
 30
0.0
 10
-64.024100000000004
 20
67.353899999999996
 30
0.0
 10
-67.023200000000003
 20
68.787099999999995
 30
0.0
 10
-67.023200000000003
 20
68.787099999999995
 30
0.0
 10
-67.023200000000003
 20
68.787099999999995
 30
0.0
 10
-66.756799999999998
 20
67.632300000000001
 30
0.0
 10
-65.861000000000004
 20
66.707700000000003
 30
0.0
 10
-66.629099999999994
 20
66.437299999999993
 30
0.0
 10
-66.629099999999994
 20
66.437299999999993
 30
0.0
 10
-67.381900000000002
 20
66.172499999999999
 30
0.0
 10
-72.893799999999999
 20
66.756600000000006
 30
0.0
 10
-73.537300000000002
 20
66.934200000000004
 30
0.0
 10
-73.537300000000002
 20
66.934200000000004
 30
0.0
 10
-73.537300000000002
 20
66.934200000000004
 30
0.0
 10
-78.578500000000005
 20
65.452600000000004
 30
0.0
 10
-78.578500000000005
 20
65.452600000000004
 30
0.0
 10
-78.578500000000005
 20
65.452600000000004
 30
0.0
 10
-78.578500000000005
 20
65.452600000000004
 30
0.0
 10
-80.662400000000005
 20
64.719499999999996
 30
0.0
 10
-80.662400000000005
 20
64.719499999999996
 30
0.0
 10
-80.662400000000005
 20
64.719499999999996
 30
0.0
 10
-81.9893
 20
64.252600000000001
 30
0.0
 10
-83.696200000000005
 20
63.384300000000003
 30
0.0
 10
-85.146699999999996
 20
62.372799999999998
 30
0.0
 10
-85.146699999999996
 20
62.372799999999998
 30
0.0
 10
-80.204700000000003
 20
71.166899999999998
 30
0.0
 10
-70.787999999999997
 20
77.110900000000001
 30
0.0
 10
-59.984200000000001
 20
77.110900000000001
 30
0.0
 10
-59.984200000000001
 20
77.110900000000001
 30
0.0
 10
-54.6038
 20
77.110900000000001
 30
0.0
 10
-49.568100000000001
 20
75.635300000000001
 30
0.0
 10
-45.256599999999999
 20
73.069299999999998
 30
0.0
  0
SPLINE
  5
29
100
AcDbEntity
  8
RÚteg 1
 62
     7
100
AcDbSpline
210
0.0
220
0.0
230
1.0
 70
     1
 71
     3
 72
    20
 73
    16
 74
     0
 42
0.0000000001
 43
0.0000000001
 40
0.0
 40
0.0
 40
0.0
 40
0.0
 40
0.25
 40
0.25
 40
0.25
 40
0.25
 40
0.5
 40
0.5
 40
0.5
 40
0.5
 40
0.75
 40
0.75
 40
0.75
 40
0.75
 40
1.0
 40
1.0
 40
1.0
 40
1.0
 10
-59.984200000000001
 20
87.662800000000004
 30
0.0
 10
-58.253399999999999
 20
87.662800000000004
 30
0.0
 10
-56.849699999999999
 20
86.259100000000004
 30
0.0
 10
-56.849699999999999
 20
84.528199999999998
 30
0.0
 10
-56.849699999999999
 20
84.528199999999998
 30
0.0
 10
-56.849699999999999
 20
82.797300000000007
 30
0.0
 10
-58.253399999999999
 20
81.393600000000006
 30
0.0
 10
-59.984200000000001
 20
81.393600000000006
 30
0.0
 10
-59.984200000000001
 20
81.393600000000006
 30
0.0
 10
-61.7151
 20
81.393600000000006
 30
0.0
 10
-63.118899999999996
 20
82.797300000000007
 30
0.0
 10
-63.118899999999996
 20
84.528199999999998
 30
0.0
 10
-63.118899999999996
 20
84.528199999999998
 30
0.0
 10
-63.118899999999996
 20
86.259100000000004
 30
0.0
 10
-61.7151
 20
87.662800000000004
 30
0.0
 10
-59.984200000000001
 20
87.662800000000004
 30
0.0
  0
SPLINE
  5
2A
100
AcDbEntity
  8
RÚteg 1
 62
     7
100
AcDbSpline
210
0.0
220
0.0
230
1.0
 70
     1
 71
     3
 72
    44
 73
    40
 74
     0
 42
0.0000000001
 43
0.0000000001
 40
0.0
 40
0.0
 40
0.0
 40
0.0
 40
0.1
 40
0.1
 40
0.1
 40
0.1
 40
0.2
 40
0.2
 40
0.2
 40
0.2
 40
0.3
 40
0.3
 40
0.3
 40
0.3
 40
0.4
 40
0.4
 40
0.4
 40
0.4
 40
0.5
 40
0.5
 40
0.5
 40
0.5
 40
0.6
 40
0.6
 40
0.6
 40
0.6
 40
0.7
 40
0.7
 40
0.7
 40
0.7
 40
0.7999999999999999
 40
0.7999999999999999
 40
0.7999999999999999
 40
0.7999999999999999
 40
0.8999999999999999
 40
0.8999999999999999
 40
0.8999999999999999
 40
0.8999999999999999
 40
1.0
 40
1.0
 40
1.0
 40
1.0
 10
17.763300000000001
 20
80.650599999999997
 30
0.0
 10
34.302199999999999
 20
78.387900000000002
 30
0.0
 10
47.049999999999997
 20
64.202100000000002
 30
0.0
 10
47.049999999999997
 20
47.042700000000004
 30
0.0
 10
47.049999999999997
 20
47.042700000000004
 30
0.0
 10
47.049999999999997
 20
28.3094
 30
0.0
 10
31.8581
 20
13.117699999999999
 30
0.0
 10
13.1249
 20
13.117699999999999
 30
0.0
 10
13.1249
 20
13.117699999999999
 30
0.0
 10
-5.6082000000000001
 20
13.117699999999999
 30
0.0
 10
-20.8001
 20
28.3094
 30
0.0
 10
-20.8001
 20
47.042700000000004
 30
0.0
 10
-20.8001
 20
47.042700000000004
 30
0.0
 10
-20.8001
 20
56.185299999999998
 30
0.0
 10
-17.181000000000001
 20
64.483199999999997
 30
0.0
 10
-11.2979
 20
70.583799999999997
 30
0.0
 10
-11.2979
 20
70.583799999999997
 30
0.0
 10
-11.2979
 20
70.583799999999997
 30
0.0
 10
-10.6378
 20
71.248099999999994
 30
0.0
 10
-10.6378
 20
71.248099999999994
 30
0.0
 10
-10.6378
 20
71.248099999999994
 30
0.0
 10
-5.5575999999999999
 20
76.235299999999995
 30
0.0
 10
1.0841000000000001
 20
79.637799999999999
 30
0.0
 10
8.4868000000000006
 20
80.650599999999997
 30
0.0
 10
8.4868000000000006
 20
80.650599999999997
 30
0.0
 10
7.6722999999999999
 20
81.667199999999994
 30
0.0
 10
7.1851000000000003
 20
82.956699999999998
 30
0.0
 10
7.1851000000000003
 20
84.360100000000003
 30
0.0
 10
7.1851000000000003
 20
84.360100000000003
 30
0.0
 10
7.1851000000000003
 20
87.640100000000004
 30
0.0
 10
9.8451000000000004
 20
90.299999999999997
 30
0.0
 10
13.1249
 20
90.299999999999997
 30
0.0
 10
13.1249
 20
90.299999999999997
 30
0.0
 10
16.404800000000002
 20
90.299999999999997
 30
0.0
 10
19.064800000000002
 20
87.640100000000004
 30
0.0
 10
19.064800000000002
 20
84.360100000000003
 30
0.0
 10
19.064800000000002
 20
84.360100000000003
 30
0.0
 10
19.064800000000002
 20
82.956699999999998
 30
0.0
 10
18.577500000000001
 20
81.667199999999994
 30
0.0
 10
17.763300000000001
 20
80.650599999999997
 30
0.0
  0
SPLINE
  5
2B
100
AcDbEntity
  8
RÚteg 1
 62
     7
100
AcDbSpline
210
0.0
220
0.0
230
1.0
 70
     1
 71
     3
 72
    80
 73
    76
 74
     0
 42
0.0000000001
 43
0.0000000001
 40
0.0
 40
0.0
 40
0.0
 40
0.0
 40
0.0526315789473684
 40
0.0526315789473684
 40
0.0526315789473684
 40
0.0526315789473684
 40
0.1052631578947368
 40
0.1052631578947368
 40
0.1052631578947368
 40
0.1052631578947368
 40
0.1578947368421053
 40
0.1578947368421053
 40
0.1578947368421053
 40
0.1578947368421053
 40
0.2105263157894737
 40
0.2105263157894737
 40
0.2105263157894737
 40
0.2105263157894737
 40
0.2631578947368421
 40
0.2631578947368421
 40
0.2631578947368421
 40
0.2631578947368421
 40
0.3157894736842105
 40
0.3157894736842105
 40
0.3157894736842105
 40
0.3157894736842105
 40
0.3684210526315789
 40
0.3684210526315789
 40
0.3684210526315789
 40
0.3684210526315789
 40
0.4210526315789474
 40
0.4210526315789474
 40
0.4210526315789474
 40
0.4210526315789474
 40
0.4736842105263158
 40
0.4736842105263158
 40
0.4736842105263158
 40
0.4736842105263158
 40
0.5263157894736842
 40
0.5263157894736842
 40
0.5263157894736842
 40
0.5263157894736842
 40
0.5789473684210527
 40
0.5789473684210527
 40
0.5789473684210527
 40
0.5789473684210527
 40
0.631578947368421
 40
0.631578947368421
 40
0.631578947368421
 40
0.631578947368421
 40
0.6842105263157894
 40
0.6842105263157894
 40
0.6842105263157894
 40
0.6842105263157894
 40
0.7368421052631577
 40
0.7368421052631577
 40
0.7368421052631577
 40
0.7368421052631577
 40
0.7894736842105261
 40
0.7894736842105261
 40
0.7894736842105261
 40
0.7894736842105261
 40
0.8421052631578945
 40
0.8421052631578945
 40
0.8421052631578945
 40
0.8421052631578945
 40
0.8947368421052628
 40
0.8947368421052628
 40
0.8947368421052628
 40
0.8947368421052628
 40
0.9473684210526312
 40
0.9473684210526312
 40
0.9473684210526312
 40
0.9473684210526312
 40
1.0
 40
1.0
 40
1.0
 40
1.0
 10
-4.4638999999999998
 20
67.262
 30
0.0
 10
-5.0016999999999996
 20
67.559399999999997
 30
0.0
 10
-5.8975999999999997
 20
68.291200000000003
 30
0.0
 10
-6.7916999999999996
 20
69.051500000000004
 30
0.0
 10
-6.7916999999999996
 20
69.051500000000004
 30
0.0
 10
-1.5245
 20
73.821100000000001
 30
0.0
 10
5.4615
 20
76.727199999999996
 30
0.0
 10
13.1249
 20
76.727199999999996
 30
0.0
 10
13.1249
 20
76.727199999999996
 30
0.0
 10
19.502800000000001
 20
76.727199999999996
 30
0.0
 10
25.411000000000001
 20
74.714299999999994
 30
0.0
 10
30.2499
 20
71.289599999999993
 30
0.0
 10
30.2499
 20
71.289599999999993
 30
0.0
 10
25.881900000000002
 20
70.857299999999995
 30
0.0
 10
19.350899999999999
 20
57.507899999999999
 30
0.0
 10
17.378
 20
53.775700000000001
 30
0.0
 10
17.378
 20
53.775700000000001
 30
0.0
 10
17.045200000000001
 20
53.853200000000001
 30
0.0
 10
16.712599999999998
 20
53.930300000000003
 30
0.0
 10
16.379999999999999
 20
54.007899999999999
 30
0.0
 10
16.379999999999999
 20
54.007899999999999
 30
0.0
 10
16.659600000000001
 20
55.203899999999997
 30
0.0
 10
17.120200000000001
 20
55.958500000000001
 30
0.0
 10
17.120200000000001
 20
57.462299999999999
 30
0.0
 10
17.120200000000001
 20
57.462299999999999
 30
0.0
 10
17.120200000000001
 20
59.455500000000001
 30
0.0
 10
16.819800000000001
 20
62.848599999999998
 30
0.0
 10
15.6374
 20
63.6402
 30
0.0
 10
15.6374
 20
63.6402
 30
0.0
 10
15.4261
 20
61.165100000000002
 30
0.0
 10
15.214700000000001
 20
58.689799999999998
 30
0.0
 10
15.003399999999999
 20
56.214799999999997
 30
0.0
 10
15.003399999999999
 20
56.214799999999997
 30
0.0
 10
14.228899999999999
 20
56.118200000000002
 30
0.0
 10
13.454700000000001
 20
56.0214
 30
0.0
 10
12.680300000000001
 20
55.924799999999998
 30
0.0
 10
12.680300000000001
 20
55.924799999999998
 30
0.0
 10
12.5128
 20
55.943100000000001
 30
0.0
 10
12.3454
 20
55.961300000000001
 30
0.0
 10
12.177899999999999
 20
55.979900000000001
 30
0.0
 10
12.177899999999999
 20
55.979900000000001
 30
0.0
 10
10.7486
 20
55.979900000000001
 30
0.0
 10
9.7065999999999999
 20
61.594999999999999
 30
0.0
 10
9.7065999999999999
 20
63.6402
 30
0.0
 10
9.7065999999999999
 20
63.6402
 30
0.0
 10
8.7407000000000004
 20
63.382199999999997
 30
0.0
 10
8.4711999999999996
 20
62.350200000000001
 30
0.0
 10
8.4711999999999996
 20
61.1691
 30
0.0
 10
8.4711999999999996
 20
61.1691
 30
0.0
 10
8.4711999999999996
 20
60.674900000000001
 30
0.0
 10
8.4711999999999996
 20
60.180599999999998
 30
0.0
 10
8.4711999999999996
 20
59.686300000000003
 30
0.0
 10
8.4711999999999996
 20
59.686300000000003
 30
0.0
 10
8.4711999999999996
 20
57.912100000000002
 30
0.0
 10
9.3110999999999997
 20
54.882300000000001
 30
0.0
 10
10.7944
 20
54.328899999999997
 30
0.0
 10
10.7944
 20
54.328899999999997
 30
0.0
 10
10.5275
 20
54.142400000000002
 30
0.0
 10
10.2607
 20
53.955599999999997
 30
0.0
 10
9.9939999999999998
 20
53.768900000000002
 30
0.0
 10
9.9939999999999998
 20
53.768900000000002
 30
0.0
 10
9.9641999999999999
 20
53.734400000000001
 30
0.0
 10
9.9344000000000001
 20
53.6999
 30
0.0
 10
9.9046000000000003
 20
53.665500000000002
 30
0.0
 10
9.9046000000000003
 20
53.665500000000002
 30
0.0
 10
9.9216999999999995
 20
53.695900000000002
 30
0.0
 10
9.9382000000000001
 20
53.725999999999999
 30
0.0
 10
9.9537999999999993
 20
53.755600000000001
 30
0.0
 10
9.9537999999999993
 20
53.755600000000001
 30
0.0
 10
8.0229999999999997
 20
57.405099999999997
 30
0.0
 10
5.4250999999999996
 20
62.179099999999998
 30
0.0
 10
1.8802000000000001
 20
64.215699999999998
 30
0.0
 10
1.8802000000000001
 20
64.215699999999998
 30
0.0
 10
-0.3115
 20
65.474699999999999
 30
0.0
 10
-2.3262999999999998
 20
66.079999999999998
 30
0.0
 10
-4.4638999999999998
 20
67.262
 30
0.0
  0
SPLINE
  5
2C
100
AcDbEntity
  8
RÚteg 1
 62
     7
100
AcDbSpline
210
0.0
220
0.0
230
1.0
 70
     1
 71
     3
 72
    40
 73
    36
 74
     0
 42
0.0000000001
 43
0.0000000001
 40
0.0
 40
0.0
 40
0.0
 40
0.0
 40
0.1111111111111111
 40
0.1111111111111111
 40
0.1111111111111111
 40
0.1111111111111111
 40
0.2222222222222222
 40
0.2222222222222222
 40
0.2222222222222222
 40
0.2222222222222222
 40
0.3333333333333333
 40
0.3333333333333333
 40
0.3333333333333333
 40
0.3333333333333333
 40
0.4444444444444444
 40
0.4444444444444444
 40
0.4444444444444444
 40
0.4444444444444444
 40
0.5555555555555556
 40
0.5555555555555556
 40
0.5555555555555556
 40
0.5555555555555556
 40
0.6666666666666667
 40
0.6666666666666667
 40
0.6666666666666667
 40
0.6666666666666667
 40
0.7777777777777779
 40
0.7777777777777779
 40
0.7777777777777779
 40
0.7777777777777779
 40
0.8888888888888891
 40
0.8888888888888891
 40
0.8888888888888891
 40
0.8888888888888891
 40
1.0
 40
1.0
 40
1.0
 40
1.0
 10
-9.4830000000000005
 20
66.274900000000002
 30
0.0
 10
-8.9863999999999997
 20
65.751099999999994
 30
0.0
 10
-8.4430999999999994
 20
65.3245
 30
0.0
 10
-7.9279999999999999
 20
65.0334
 30
0.0
 10
-7.9279999999999999
 20
65.0334
 30
0.0
 10
-6.3856000000000002
 20
64.161199999999994
 30
0.0
 10
-6.0857000000000001
 20
64.640900000000002
 30
0.0
 10
-4.649
 20
64.111400000000003
 30
0.0
 10
-4.649
 20
64.111400000000003
 30
0.0
 10
-3.5981000000000001
 20
63.724299999999999
 30
0.0
 10
-2.8599000000000001
 20
63.141399999999997
 30
0.0
 10
-1.9076
 20
62.651699999999998
 30
0.0
 10
-1.9076
 20
62.651699999999998
 30
0.0
 10
0.2627
 20
61.535400000000003
 30
0.0
 10
6.7413999999999996
 20
57.013800000000003
 30
0.0
 10
6.7413999999999996
 20
54.249899999999997
 30
0.0
 10
6.7413999999999996
 20
54.249899999999997
 30
0.0
 10
6.7413999999999996
 20
53.920299999999997
 30
0.0
 10
6.7413999999999996
 20
53.591000000000001
 30
0.0
 10
6.7413999999999996
 20
53.261200000000002
 30
0.0
 10
6.7413999999999996
 20
53.261200000000002
 30
0.0
 10
6.7413999999999996
 20
52.692100000000003
 30
0.0
 10
6.5693999999999999
 20
52.520200000000003
 30
0.0
 10
6.0
 20
52.520200000000003
 30
0.0
 10
6.0
 20
52.520200000000003
 30
0.0
 10
5.4233000000000002
 20
52.520200000000003
 30
0.0
 10
4.8467000000000002
 20
52.520200000000003
 30
0.0
 10
4.2702
 20
52.520200000000003
 30
0.0
 10
4.2702
 20
52.520200000000003
 30
0.0
 10
-1.6677999999999999
 20
52.520200000000003
 30
0.0
 10
-7.9867999999999997
 20
57.928100000000001
 30
0.0
 10
-14.246
 20
58.547699999999999
 30
0.0
 10
-14.246
 20
58.547699999999999
 30
0.0
 10
-13.0563
 20
61.372599999999998
 30
0.0
 10
-11.4419
 20
63.974699999999999
 30
0.0
 10
-9.4830000000000005
 20
66.274900000000002
 30
0.0
  0
SPLINE
  5
2D
100
AcDbEntity
  8
RÚteg 1
 62
     7
100
AcDbSpline
210
0.0
220
0.0
230
1.0
 70
     1
 71
     3
 72
    32
 73
    28
 74
     0
 42
0.0000000001
 43
0.0000000001
 40
0.0
 40
0.0
 40
0.0
 40
0.0
 40
0.1428571428571429
 40
0.1428571428571429
 40
0.1428571428571429
 40
0.1428571428571429
 40
0.2857142857142857
 40
0.2857142857142857
 40
0.2857142857142857
 40
0.2857142857142857
 40
0.4285714285714286
 40
0.4285714285714286
 40
0.4285714285714286
 40
0.4285714285714286
 40
0.5714285714285714
 40
0.5714285714285714
 40
0.5714285714285714
 40
0.5714285714285714
 40
0.7142857142857142
 40
0.7142857142857142
 40
0.7142857142857142
 40
0.7142857142857142
 40
0.857142857142857
 40
0.857142857142857
 40
0.857142857142857
 40
0.857142857142857
 40
1.0
 40
1.0
 40
1.0
 40
1.0
 10
-15.148199999999999
 20
56.104700000000001
 30
0.0
 10
-10.865
 20
55.216299999999997
 30
0.0
 10
1.4348000000000001
 20
50.9405
 30
0.0
 10
3.7757999999999998
 20
50.295900000000003
 30
0.0
 10
3.7757999999999998
 20
50.295900000000003
 30
0.0
 10
4.8155000000000001
 20
49.600099999999998
 30
0.0
 10
5.7529000000000003
 20
50.0715
 30
0.0
 10
5.7529000000000003
 20
49.060400000000001
 30
0.0
 10
5.7529000000000003
 20
49.060400000000001
 30
0.0
 10
5.7529000000000003
 20
47.555700000000002
 30
0.0
 10
1.2364999999999999
 20
47.389400000000002
 30
0.0
 10
-0.2372
 20
47.142899999999997
 30
0.0
 10
-0.2372
 20
47.142899999999997
 30
0.0
 10
-2.4417
 20
46.774099999999997
 30
0.0
 10
-4.907
 20
46.3247
 30
0.0
 10
-6.6406000000000001
 20
45.638599999999997
 30
0.0
 10
-6.6406000000000001
 20
45.638599999999997
 30
0.0
 10
-9.0838000000000001
 20
44.671700000000001
 30
0.0
 10
-13.1934
 20
40.1601
 30
0.0
 10
-14.539
 20
36.261800000000001
 30
0.0
 10
-14.539
 20
36.261800000000001
 30
0.0
 10
-15.8428
 20
39.603999999999999
 30
0.0
 10
-16.5594
 20
43.239600000000003
 30
0.0
 10
-16.5594
 20
47.042700000000004
 30
0.0
 10
-16.5594
 20
47.042700000000004
 30
0.0
 10
-16.5594
 20
50.203099999999999
 30
0.0
 10
-16.063800000000001
 20
53.247799999999998
 30
0.0
 10
-15.148199999999999
 20
56.104700000000001
 30
0.0
  0
SPLINE
  5
2E
100
AcDbEntity
  8
RÚteg 1
 62
     7
100
AcDbSpline
210
0.0
220
0.0
230
1.0
 70
     1
 71
     3
 72
    32
 73
    28
 74
     0
 42
0.0000000001
 43
0.0000000001
 40
0.0
 40
0.0
 40
0.0
 40
0.0
 40
0.1428571428571429
 40
0.1428571428571429
 40
0.1428571428571429
 40
0.1428571428571429
 40
0.2857142857142857
 40
0.2857142857142857
 40
0.2857142857142857
 40
0.2857142857142857
 40
0.4285714285714286
 40
0.4285714285714286
 40
0.4285714285714286
 40
0.4285714285714286
 40
0.5714285714285714
 40
0.5714285714285714
 40
0.5714285714285714
 40
0.5714285714285714
 40
0.7142857142857142
 40
0.7142857142857142
 40
0.7142857142857142
 40
0.7142857142857142
 40
0.857142857142857
 40
0.857142857142857
 40
0.857142857142857
 40
0.857142857142857
 40
1.0
 40
1.0
 40
1.0
 40
1.0
 10
-13.6823
 20
34.282499999999999
 30
0.0
 10
-10.926299999999999
 20
35.7425
 30
0.0
 10
-8.9921000000000006
 20
41.443899999999999
 30
0.0
 10
-5.516
 20
42.784199999999998
 30
0.0
 10
-5.516
 20
42.784199999999998
 30
0.0
 10
-4.1932999999999998
 20
43.2943
 30
0.0
 10
4.5007000000000001
 20
45.600700000000003
 30
0.0
 10
5.7529000000000003
 20
45.600700000000003
 30
0.0
 10
5.7529000000000003
 20
45.600700000000003
 30
0.0
 10
4.9569999999999999
 20
44.908900000000003
 30
0.0
 10
2.2692999999999999
 20
43.525599999999997
 30
0.0
 10
1.0556000000000001
 20
42.637500000000003
 30
0.0
 10
1.0556000000000001
 20
42.637500000000003
 30
0.0
 10
-0.3388
 20
41.616799999999998
 30
0.0
 10
-1.5887
 20
40.042400000000001
 30
0.0
 10
-2.4056000000000002
 20
38.438299999999998
 30
0.0
 10
-2.4056000000000002
 20
38.438299999999998
 30
0.0
 10
-3.5548000000000002
 20
36.181100000000001
 30
0.0
 10
-4.8731999999999998
 20
29.162099999999999
 30
0.0
 10
-4.8731999999999998
 20
25.831700000000001
 30
0.0
 10
-4.8731999999999998
 20
25.831700000000001
 30
0.0
 10
-5.1116999999999999
 20
25.475300000000001
 30
0.0
 10
-5.5392000000000001
 20
24.9068
 30
0.0
 10
-5.9358000000000004
 20
24.2896
 30
0.0
 10
-5.9358000000000004
 20
24.2896
 30
0.0
 10
-9.1823999999999995
 20
27.012599999999999
 30
0.0
 10
-11.8383
 20
30.416599999999999
 30
0.0
 10
-13.6823
 20
34.282499999999999
 30
0.0
  0
SPLINE
  5
2F
100
AcDbEntity
  8
RÚteg 1
 62
     7
100
AcDbSpline
210
0.0
220
0.0
230
1.0
 70
     1
 71
     3
 72
    72
 73
    68
 74
     0
 42
0.0000000001
 43
0.0000000001
 40
0.0
 40
0.0
 40
0.0
 40
0.0
 40
0.0588235294117647
 40
0.0588235294117647
 40
0.0588235294117647
 40
0.0588235294117647
 40
0.1176470588235294
 40
0.1176470588235294
 40
0.1176470588235294
 40
0.1176470588235294
 40
0.1764705882352941
 40
0.1764705882352941
 40
0.1764705882352941
 40
0.1764705882352941
 40
0.2352941176470588
 40
0.2352941176470588
 40
0.2352941176470588
 40
0.2352941176470588
 40
0.2941176470588235
 40
0.2941176470588235
 40
0.2941176470588235
 40
0.2941176470588235
 40
0.3529411764705883
 40
0.3529411764705883
 40
0.3529411764705883
 40
0.3529411764705883
 40
0.411764705882353
 40
0.411764705882353
 40
0.411764705882353
 40
0.411764705882353
 40
0.4705882352941177
 40
0.4705882352941177
 40
0.4705882352941177
 40
0.4705882352941177
 40
0.5294117647058824
 40
0.5294117647058824
 40
0.5294117647058824
 40
0.5294117647058824
 40
0.5882352941176471
 40
0.5882352941176471
 40
0.5882352941176471
 40
0.5882352941176471
 40
0.6470588235294118
 40
0.6470588235294118
 40
0.6470588235294118
 40
0.6470588235294118
 40
0.7058823529411765
 40
0.7058823529411765
 40
0.7058823529411765
 40
0.7058823529411765
 40
0.7647058823529412
 40
0.7647058823529412
 40
0.7647058823529412
 40
0.7647058823529412
 40
0.823529411764706
 40
0.823529411764706
 40
0.823529411764706
 40
0.823529411764706
 40
0.8823529411764707
 40
0.8823529411764707
 40
0.8823529411764707
 40
0.8823529411764707
 40
0.9411764705882354
 40
0.9411764705882354
 40
0.9411764705882354
 40
0.9411764705882354
 40
1.0
 40
1.0
 40
1.0
 40
1.0
 10
-3.4735999999999998
 20
22.430700000000002
 30
0.0
 10
-1.9688000000000001
 20
26.009499999999999
 30
0.0
 10
-1.8535999999999999
 20
33.286200000000001
 30
0.0
 10
-1.2209000000000001
 20
35.7712
 30
0.0
 10
-1.2209000000000001
 20
35.7712
 30
0.0
 10
0.2893
 20
41.704599999999999
 30
0.0
 10
7.1658999999999997
 20
42.380400000000002
 30
0.0
 10
9.1613000000000007
 20
43.633299999999998
 30
0.0
 10
9.1613000000000007
 20
43.633299999999998
 30
0.0
 10
9.1615000000000002
 20
43.632800000000003
 30
0.0
 10
9.1616999999999997
 20
43.631999999999998
 30
0.0
 10
9.1617999999999995
 20
43.6312
 30
0.0
 10
9.1617999999999995
 20
43.6312
 30
0.0
 10
9.8301999999999996
 20
43.979799999999997
 30
0.0
 10
10.498900000000001
 20
44.328200000000002
 30
0.0
 10
11.167400000000001
 20
44.6768
 30
0.0
 10
11.167400000000001
 20
44.6768
 30
0.0
 10
10.9033
 20
42.971499999999999
 30
0.0
 10
8.9654000000000007
 20
40.641300000000001
 30
0.0
 10
8.9654000000000007
 20
38.187399999999997
 30
0.0
 10
8.9654000000000007
 20
38.187399999999997
 30
0.0
 10
8.9654000000000007
 20
37.446100000000001
 30
0.0
 10
8.9654000000000007
 20
36.704799999999999
 30
0.0
 10
8.9654000000000007
 20
35.9634
 30
0.0
 10
8.9654000000000007
 20
35.9634
 30
0.0
 10
8.9654000000000007
 20
33.511000000000003
 30
0.0
 10
10.4056
 20
32.256700000000002
 30
0.0
 10
12.9193
 20
32.256700000000002
 30
0.0
 10
12.9193
 20
32.256700000000002
 30
0.0
 10
13.166499999999999
 20
32.256700000000002
 30
0.0
 10
13.413600000000001
 20
32.256700000000002
 30
0.0
 10
13.6607
 20
32.256700000000002
 30
0.0
 10
13.6607
 20
32.256700000000002
 30
0.0
 10
16.849
 20
32.256700000000002
 30
0.0
 10
18.355799999999999
 20
34.615200000000002
 30
0.0
 10
18.355799999999999
 20
37.693100000000001
 30
0.0
 10
18.355799999999999
 20
37.693100000000001
 30
0.0
 10
18.355799999999999
 20
38.187399999999997
 30
0.0
 10
18.355799999999999
 20
38.681600000000003
 30
0.0
 10
18.355799999999999
 20
39.175800000000002
 30
0.0
 10
18.355799999999999
 20
39.175800000000002
 30
0.0
 10
18.355799999999999
 20
41.232399999999998
 30
0.0
 10
15.931699999999999
 20
44.6721
 30
0.0
 10
15.8858
 20
45.0946
 30
0.0
 10
15.8858
 20
45.0946
 30
0.0
 10
16.518799999999999
 20
45.0199
 30
0.0
 10
17.151599999999998
 20
44.945099999999996
 30
0.0
 10
17.784500000000001
 20
44.870100000000001
 30
0.0
 10
17.784500000000001
 20
44.870100000000001
 30
0.0
 10
17.855799999999999
 20
44.686700000000002
 30
0.0
 10
22.3188
 20
41.185099999999998
 30
0.0
 10
22.869299999999999
 20
40.723999999999997
 30
0.0
 10
22.869299999999999
 20
40.723999999999997
 30
0.0
 10
24.519400000000001
 20
39.341799999999999
 30
0.0
 10
25.7303
 20
37.721600000000002
 30
0.0
 10
26.838699999999999
 20
35.7973
 30
0.0
 10
26.838699999999999
 20
35.7973
 30
0.0
 10
28.863499999999998
 20
32.283099999999997
 30
0.0
 10
30.466799999999999
 20
28.3522
 30
0.0
 10
30.6858
 20
23.111499999999999
 30
0.0
 10
30.6858
 20
23.111499999999999
 30
0.0
 10
25.767199999999999
 20
19.495899999999999
 30
0.0
 10
19.695599999999999
 20
17.3584
 30
0.0
 10
13.1249
 20
17.3584
 30
0.0
 10
13.1249
 20
17.3584
 30
0.0
 10
6.9767999999999999
 20
17.3584
 30
0.0
 10
1.2645
 20
19.228200000000001
 30
0.0
 10
-3.4735999999999998
 20
22.430700000000002
 30
0.0
  0
SPLINE
  5
30
100
AcDbEntity
  8
RÚteg 1
 62
     7
100
AcDbSpline
210
0.0
220
0.0
230
1.0
 70
     1
 71
     3
 72
    88
 73
    84
 74
     0
 42
0.0000000001
 43
0.0000000001
 40
0.0
 40
0.0
 40
0.0
 40
0.0
 40
0.0476190476190476
 40
0.0476190476190476
 40
0.0476190476190476
 40
0.0476190476190476
 40
0.0952380952380952
 40
0.0952380952380952
 40
0.0952380952380952
 40
0.0952380952380952
 40
0.1428571428571429
 40
0.1428571428571429
 40
0.1428571428571429
 40
0.1428571428571429
 40
0.1904761904761905
 40
0.1904761904761905
 40
0.1904761904761905
 40
0.1904761904761905
 40
0.2380952380952381
 40
0.2380952380952381
 40
0.2380952380952381
 40
0.2380952380952381
 40
0.2857142857142857
 40
0.2857142857142857
 40
0.2857142857142857
 40
0.2857142857142857
 40
0.3333333333333333
 40
0.3333333333333333
 40
0.3333333333333333
 40
0.3333333333333333
 40
0.3809523809523809
 40
0.3809523809523809
 40
0.3809523809523809
 40
0.3809523809523809
 40
0.4285714285714286
 40
0.4285714285714286
 40
0.4285714285714286
 40
0.4285714285714286
 40
0.4761904761904762
 40
0.4761904761904762
 40
0.4761904761904762
 40
0.4761904761904762
 40
0.5238095238095237
 40
0.5238095238095237
 40
0.5238095238095237
 40
0.5238095238095237
 40
0.5714285714285714
 40
0.5714285714285714
 40
0.5714285714285714
 40
0.5714285714285714
 40
0.6190476190476191
 40
0.6190476190476191
 40
0.6190476190476191
 40
0.6190476190476191
 40
0.6666666666666667
 40
0.6666666666666667
 40
0.6666666666666667
 40
0.6666666666666667
 40
0.7142857142857144
 40
0.7142857142857144
 40
0.7142857142857144
 40
0.7142857142857144
 40
0.7619047619047621
 40
0.7619047619047621
 40
0.7619047619047621
 40
0.7619047619047621
 40
0.8095238095238098
 40
0.8095238095238098
 40
0.8095238095238098
 40
0.8095238095238098
 40
0.8571428571428574
 40
0.8571428571428574
 40
0.8571428571428574
 40
0.8571428571428574
 40
0.9047619047619051
 40
0.9047619047619051
 40
0.9047619047619051
 40
0.9047619047619051
 40
0.9523809523809528
 40
0.9523809523809528
 40
0.9523809523809528
 40
0.9523809523809528
 40
1.0
 40
1.0
 40
1.0
 40
1.0
 10
33.711799999999997
 20
25.661200000000001
 30
0.0
 10
33.019799999999996
 20
29.683800000000002
 30
0.0
 10
30.775200000000002
 20
34.119
 30
0.0
 10
29.130400000000002
 20
36.359200000000001
 30
0.0
 10
29.130400000000002
 20
36.359200000000001
 30
0.0
 10
27.7685
 20
38.213999999999999
 30
0.0
 10
26.472999999999999
 20
39.550699999999999
 30
0.0
 10
25.176300000000001
 20
41.301400000000001
 30
0.0
 10
25.176300000000001
 20
41.301400000000001
 30
0.0
 10
24.0855
 20
42.774000000000001
 30
0.0
 10
21.074100000000001
 20
44.438699999999997
 30
0.0
 10
21.074100000000001
 20
46.095300000000002
 30
0.0
 10
21.074100000000001
 20
46.095300000000002
 30
0.0
 10
21.074100000000001
 20
46.560099999999998
 30
0.0
 10
21.985600000000002
 20
46.836399999999998
 30
0.0
 10
22.556699999999999
 20
46.836399999999998
 30
0.0
 10
22.556699999999999
 20
46.836399999999998
 30
0.0
 10
23.215699999999998
 20
46.836399999999998
 30
0.0
 10
23.874700000000001
 20
46.836399999999998
 30
0.0
 10
24.5337
 20
46.836399999999998
 30
0.0
 10
24.5337
 20
46.836399999999998
 30
0.0
 10
31.1629
 20
46.836399999999998
 30
0.0
 10
36.296799999999998
 20
37.198900000000002
 30
0.0
 10
40.101999999999997
 20
37.198900000000002
 30
0.0
 10
40.101999999999997
 20
37.198900000000002
 30
0.0
 10
40.2654
 20
37.900199999999998
 30
0.0
 10
40.348999999999997
 20
37.621400000000001
 30
0.0
 10
40.348999999999997
 20
38.187399999999997
 30
0.0
 10
40.348999999999997
 20
38.187399999999997
 30
0.0
 10
40.348999999999997
 20
40.800699999999999
 30
0.0
 10
31.195699999999999
 20
49.060400000000001
 30
0.0
 10
28.240400000000001
 20
49.060400000000001
 30
0.0
 10
28.240400000000001
 20
49.060400000000001
 30
0.0
 10
27.993200000000002
 20
49.060400000000001
 30
0.0
 10
27.746099999999998
 20
49.060400000000001
 30
0.0
 10
27.499099999999999
 20
49.060400000000001
 30
0.0
 10
27.499099999999999
 20
49.060400000000001
 30
0.0
 10
25.439699999999998
 20
49.038200000000003
 30
0.0
 10
23.380099999999999
 20
49.016199999999998
 30
0.0
 10
21.320900000000002
 20
48.9938
 30
0.0
 10
21.320900000000002
 20
48.9938
 30
0.0
 10
21.320900000000002
 20
49.098399999999998
 30
0.0
 10
21.320900000000002
 20
49.2029
 30
0.0
 10
21.321100000000001
 20
49.307600000000001
 30
0.0
 10
21.321100000000001
 20
49.307600000000001
 30
0.0
 10
21.367699999999999
 20
51.3994
 30
0.0
 10
24.924499999999998
 20
54.588799999999999
 30
0.0
 10
27.488499999999998
 20
54.588799999999999
 30
0.0
 10
27.488499999999998
 20
54.588799999999999
 30
0.0
 10
31.376999999999999
 20
55.5931
 30
0.0
 10
32.705100000000002
 20
51.563499999999998
 30
0.0
 10
34.418199999999999
 20
51.037399999999998
 30
0.0
 10
34.418199999999999
 20
51.037399999999998
 30
0.0
 10
34.500500000000002
 20
51.037399999999998
 30
0.0
 10
34.582999999999998
 20
51.037399999999998
 30
0.0
 10
34.665300000000002
 20
51.037399999999998
 30
0.0
 10
34.665300000000002
 20
51.037399999999998
 30
0.0
 10
35.2348
 20
51.037399999999998
 30
0.0
 10
36.6248
 20
50.884500000000003
 30
0.0
 10
36.6248
 20
51.454000000000001
 30
0.0
 10
36.6248
 20
51.454000000000001
 30
0.0
 10
36.6248
 20
53.0991
 30
0.0
 10
30.840299999999999
 20
57.956600000000002
 30
0.0
 10
29.228899999999999
 20
57.956600000000002
 30
0.0
 10
29.228899999999999
 20
57.956600000000002
 30
0.0
 10
28.8994
 20
57.956600000000002
 30
0.0
 10
28.569900000000001
 20
57.956600000000002
 30
0.0
 10
28.240400000000001
 20
57.956600000000002
 30
0.0
 10
28.240400000000001
 20
57.956600000000002
 30
0.0
 10
25.562100000000001
 20
57.956600000000002
 30
0.0
 10
21.871600000000001
 20
53.387
 30
0.0
 10
19.838200000000001
 20
52.025799999999997
 30
0.0
 10
19.838200000000001
 20
52.025799999999997
 30
0.0
 10
21.8644
 20
60.8429
 30
0.0
 10
29.4878
 20
67.3673
 30
0.0
 10
32.280200000000001
 20
69.715699999999998
 30
0.0
 10
32.280200000000001
 20
69.715699999999998
 30
0.0
 10
38.718899999999998
 20
64.269999999999996
 30
0.0
 10
42.809399999999997
 20
56.133699999999997
 30
0.0
 10
42.809399999999997
 20
47.042700000000004
 30
0.0
 10
42.809399999999997
 20
47.042700000000004
 30
0.0
 10
42.809399999999997
 20
38.6449
 30
0.0
 10
39.319400000000002
 20
31.0611
 30
0.0
 10
33.711799999999997
 20
25.661200000000001
 30
0.0
  0
SPLINE
  5
31
100
AcDbEntity
  8
RÚteg 1
 62
     7
100
AcDbSpline
210
0.0
220
0.0
230
1.0
 70
     1
 71
     3
 72
    20
 73
    16
 74
     0
 42
0.0000000001
 43
0.0000000001
 40
0.0
 40
0.0
 40
0.0
 40
0.0
 40
0.25
 40
0.25
 40
0.25
 40
0.25
 40
0.5
 40
0.5
 40
0.5
 40
0.5
 40
0.75
 40
0.75
 40
0.75
 40
0.75
 40
1.0
 40
1.0
 40
1.0
 40
1.0
 10
13.1249
 20
87.585899999999995
 30
0.0
 10
14.9062
 20
87.585899999999995
 30
0.0
 10
16.3506
 20
86.141400000000004
 30
0.0
 10
16.3506
 20
84.360100000000003
 30
0.0
 10
16.3506
 20
84.360100000000003
 30
0.0
 10
16.3506
 20
82.579099999999997
 30
0.0
 10
14.9062
 20
81.134399999999999
 30
0.0
 10
13.1249
 20
81.134399999999999
 30
0.0
 10
13.1249
 20
81.134399999999999
 30
0.0
 10
11.3436
 20
81.134399999999999
 30
0.0
 10
9.8991000000000007
 20
82.579099999999997
 30
0.0
 10
9.8991000000000007
 20
84.360100000000003
 30
0.0
 10
9.8991000000000007
 20
84.360100000000003
 30
0.0
 10
9.8991000000000007
 20
86.141400000000004
 30
0.0
 10
11.3436
 20
87.585899999999995
 30
0.0
 10
13.1249
 20
87.585899999999995
 30
0.0
  0
ENDSEC
  0
SECTION
  2
OBJECTS
  0
DICTIONARY
  5
19
100
AcDbDictionary
280
     0
281
     1
  3
ACAD_GROUP
350
1A
  3
ACAD_MLINESTYLE
350
1B
  3
ACAD_LAYOUT
350
1E
  3
ACAD_PLOTSETTINGS
350
22
  3
ACAD_PLOTSTYLENAME
350
1F
  3
ACAD_WIPEOUT_VARS
350
23
  0
DICTIONARY
  5
1A
102
{ACAD_REACTORS
330
19
102
}
100
AcDbDictionary
280
     0
281
     1
  0
DICTIONARY
  5
1B
102
{ACAD_REACTORS
330
19
102
}
100
AcDbDictionary
280
     0
281
     1
  3
Standard
350
1C
  0
MLINESTYLE
  5
1C
102
{ACAD_REACTORS
330
1B
102
}
100
AcDbMlineStyle
  2
Standard
 70
     0
  3

 62
     0
 51
90.0
 52
90.0
 71
     2
 49
0.5
 62
   256
  6
BYLAYER
 49
-0.5
 62
   256
  6
BYLAYER
  0
ACDBDICTIONARYWDFLT
  5
1F
102
{ACAD_REACTORS
330
19
102
}
100
AcDbDictionary
281
     1
  3
Normal
350
1D
100
AcDbDictionaryWithDefault
340
1D
  0
ACDBPLACEHOLDER
  5
1D
102
{ACAD_REACTORS
330
1F
102
}
  0
LAYOUT
  5
20
102
{ACAD_REACTORS
330
1E
102
}
100
AcDbPlotSettings
  1

  2

  4

  6

 40
0.0
 41
0.0
 42
0.0
 43
0.0
 44
0.0
 45
0.0
 46
0.0
 47
0.0
 48
0.0
 49
0.0
140
0.0
141
0.0
142
1.0
143
1.0
 70
  1024
 72
     0
 73
     0
 74
     0
  7

 75
     0
147
1.0
148
0.0
149
0.0
100
AcDbLayout
  1
Model
 70
     0
 71
     0
 10
0.0
 20
0.0
 11
0.0
 21
0.0
 12
0.0
 22
0.0
 32
0.0
 14
0.0
 24
0.0
 34
0.0
 15
0.0
 25
0.0
 35
0.0
146
0.0
 13
0.0
 23
0.0
 33
0.0
 16
0.0
 26
0.0
 36
0.0
 17
0.0
 27
0.0
 37
0.0
 76
     0
330
A
331
0
345
0
346
0
  0
LAYOUT
  5
21
102
{ACAD_REACTORS
330
1E
102
}
100
AcDbPlotSettings
  1

  2

  4

  6

 40
0.0
 41
0.0
 42
0.0
 43
0.0
 44
0.0
 45
0.0
 46
0.0
 47
0.0
 48
0.0
 49
0.0
140
0.0
141
0.0
142
1.0
143
1.0
 70
     0
 72
     0
 73
     0
 74
     0
  7

 75
     0
147
1.0
148
0.0
149
0.0
100
AcDbLayout
  1
Layout1
 70
     0
 71
     0
 10
0.0
 20
0.0
 11
0.0
 21
0.0
 12
0.0
 22
0.0
 32
0.0
 14
0.0
 24
0.0
 34
0.0
 15
0.0
 25
0.0
 35
0.0
146
0.0
 13
0.0
 23
0.0
 33
0.0
 16
0.0
 26
0.0
 36
0.0
 17
0.0
 27
0.0
 37
0.0
 76
     0
330
B
331
0
345
0
346
0
  0
DICTIONARY
  5
1E
102
{ACAD_REACTORS
330
19
102
}
100
AcDbDictionary
280
     0
281
     1
  3
Layout1
350
21
  3
Model
350
20
  0
DICTIONARY
  5
22
102
{ACAD_REACTORS
330
19
102
}
100
AcDbDictionary
280
     0
281
     1
  0
WIPEOUTVARIABLES
  5
23
100
AcDbWipeoutVariables
 70
     1
  0
ENDSEC
  0
EOF
