  0
SECTION
  2
HEADER
  9
$ACADVER
  1
AC1015
  9
$ACADMAINTVER
 70
     6
  9
$DWGCODEPAGE
  3
DOS850
  9
$INSBASE
 10
0.0
 20
0.0
 30
0.0
  9
$EXTMIN
 10
-95.8812
 20
5.3495
 30
1.000000E+20
  9
$EXTMAX
 10
49.9883
 20
85.3882
 30
-1.000000E+20
  9
$LIMMIN
 10
0.0
 20
0.0
  9
$LIMMAX
 10
0.0
 20
0.0
  9
$ORTHOMODE
 70
     0
  9
$REGENMODE
 70
     1
  9
$FILLMODE
 70
     1
  9
$QTEXTMODE
 70
     0
  9
$MIRRTEXT
 70
     1
  9
$LTSCALE
 40
1.0
  9
$ATTMODE
 70
     1
  9
$TEXTSIZE
 40
0.2
  9
$TRACEWID
 40
0.05
  9
$TEXTSTYLE
  7
Standard
  9
$CLAYER
  8
0
  9
$CELTYPE
  6
Continuous
  9
$CECOLOR
 62
   256
  9
$CELTSCALE
 40
1.0
  9
$DISPSILH
 70
     0
  9
$DIMSCALE
 40
1.0
  9
$DIMASZ
 40
0.18
  9
$DIMEXO
 40
0.0625
  9
$DIMDLI
 40
0.38
  9
$DIMRND
 40
0.0
  9
$DIMDLE
 40
0.0
  9
$DIMEXE
 40
0.18
  9
$DIMTP
 40
0.0
  9
$DIMTM
 40
0.0
  9
$DIMTXT
 40
0.18
  9
$DIMCEN
 40
0.09
  9
$DIMTSZ
 40
0.0
  9
$DIMTOL
 70
     0
  9
$DIMLIM
 70
     0
  9
$DIMTIH
 70
     1
  9
$DIMTOH
 70
     1
  9
$DIMSE1
 70
     0
  9
$DIMSE2
 70
     0
  9
$DIMTAD
 70
     0
  9
$DIMZIN
 70
     0
  9
$DIMBLK
  1

  9
$DIMASO
 70
     1
  9
$DIMSHO
 70
     1
  9
$DIMPOST
  1

  9
$DIMAPOST
  1

  9
$DIMALT
 70
     0
  9
$DIMALTD
 70
     2
  9
$DIMALTF
 40
25.4
  9
$DIMLFAC
 40
1.0
  9
$DIMTOFL
 70
     0
  9
$DIMTVP
 40
0.0
  9
$DIMTIX
 70
     0
  9
$DIMSOXD
 70
     0
  9
$DIMSAH
 70
     0
  9
$DIMBLK1
  1

  9
$DIMBLK2
  1

  9
$DIMSTYLE
  2
Standard
  9
$DIMCLRD
 70
     0
  9
$DIMCLRE
 70
     0
  9
$DIMCLRT
 70
     0
  9
$DIMTFAC
 40
1.0
  9
$DIMGAP
 40
0.09
  9
$DIMJUST
 70
     0
  9
$DIMSD1
 70
     0
  9
$DIMSD2
 70
     0
  9
$DIMTOLJ
 70
     1
  9
$DIMTZIN
 70
     0
  9
$DIMALTZ
 70
     0
  9
$DIMALTTZ
 70
     0
  9
$DIMUPT
 70
     0
  9
$DIMDEC
 70
     4
  9
$DIMTDEC
 70
     4
  9
$DIMALTU
 70
     2
  9
$DIMALTTD
 70
     2
  9
$DIMTXSTY
  7
Standard
  9
$DIMAUNIT
 70
     0
  9
$DIMADEC
 70
     0
  9
$DIMALTRND
 40
0.0
  9
$DIMAZIN
 70
     0
  9
$DIMDSEP
 70
     0
  9
$DIMATFIT
 70
     3
  9
$DIMFRAC
 70
     0
  9
$DIMLDRBLK
  1

  9
$DIMLUNIT
 70
     2
  9
$DIMLWD
 70
     0
  9
$DIMLWE
 70
     0
  9
$DIMTMOVE
 70
     0
  9
$LUNITS
 70
     2
  9
$LUPREC
 70
     4
  9
$SKETCHINC
 40
0.1
  9
$FILLETRAD
 40
0.0
  9
$AUNITS
 70
     0
  9
$AUPREC
 70
     0
  9
$MENU
  1
acad
  9
$ELEVATION
 40
0.0
  9
$PELEVATION
 40
0.0
  9
$THICKNESS
 40
0.0
  9
$LIMCHECK
 70
     0
  9
$CHAMFERA
 40
0.0
  9
$CHAMFERB
 40
0.0
  9
$CHAMFERC
 40
0.0
  9
$CHAMFERD
 40
0.0
  9
$SKPOLY
 70
     0
  9
$TDCREATE
 40
0.000000000
  9
$TDUCREATE
 40
0.000000000
  9
$TDUPDATE
 40
0.000000000
  9
$TDUUPDATE
 40
0.000000000
  9
$TDINDWG
 40
0.0000000000
  9
$TDUSRTIMER
 40
0.0000000000
  9
$USRTIMER
 70
     1
  9
$ANGBASE
 50
0.0
  9
$ANGDIR
 70
     0
  9
$PDMODE
 70
     0
  9
$PDSIZE
 40
0.0
  9
$PLINEWID
 40
0.0
  9
$SPLFRAME
 70
     0
  9
$SPLINETYPE
 70
     6
  9
$SPLINESEGS
 70
     8
  9
$HANDSEED
  5
36
  9
$SURFTAB1
 70
     6
  9
$SURFTAB2
 70
     6
  9
$SURFTYPE
 70
     6
  9
$SURFU
 70
     6
  9
$SURFV
 70
     6
  9
$UCSBASE
  2

  9
$UCSNAME
  2

  9
$UCSORG
 10
0.0
 20
0.0
 30
0.0
  9
$UCSXDIR
 10
1.0
 20
0.0
 30
0.0
  9
$UCSYDIR
 10
0.0
 20
1.0
 30
0.0
  9
$UCSORTHOREF
  2

  9
$UCSORTHOVIEW
 70
     0
  9
$UCSORGTOP
 10
0.0
 20
0.0
 30
0.0
  9
$UCSORGBOTTOM
 10
0.0
 20
0.0
 30
0.0
  9
$UCSORGLEFT
 10
0.0
 20
0.0
 30
0.0
  9
$UCSORGRIGHT
 10
0.0
 20
0.0
 30
0.0
  9
$UCSORGFRONT
 10
0.0
 20
0.0
 30
0.0
  9
$UCSORGBACK
 10
0.0
 20
0.0
 30
0.0
  9
$PUCSBASE
  2

  9
$PUCSNAME
  2

  9
$PUCSORG
 10
0.0
 20
0.0
 30
0.0
  9
$PUCSXDIR
 10
1.0
 20
0.0
 30
0.0
  9
$PUCSYDIR
 10
0.0
 20
1.0
 30
0.0
  9
$PUCSORTHOREF
  2

  9
$PUCSORTHOVIEW
 70
     0
  9
$PUCSORGTOP
 10
0.0
 20
0.0
 30
0.0
  9
$PUCSORGBOTTOM
 10
0.0
 20
0.0
 30
0.0
  9
$PUCSORGLEFT
 10
0.0
 20
0.0
 30
0.0
  9
$PUCSORGRIGHT
 10
0.0
 20
0.0
 30
0.0
  9
$PUCSORGFRONT
 10
0.0
 20
0.0
 30
0.0
  9
$PUCSORGBACK
 10
0.0
 20
0.0
 30
0.0
  9
$USERI1
 70
     0
  9
$USERI2
 70
     0
  9
$USERI3
 70
     0
  9
$USERI4
 70
     0
  9
$USERI5
 70
     0
  9
$USERR1
 40
0.0
  9
$USERR2
 40
0.0
  9
$USERR3
 40
0.0
  9
$USERR4
 40
0.0
  9
$USERR5
 40
0.0
  9
$WORLDVIEW
 70
     1
  9
$SHADEDGE
 70
     3
  9
$SHADEDIF
 70
    70
  9
$TILEMODE
 70
     1
  9
$MAXACTVP
 70
    16
  9
$PINSBASE
 10
0.0
 20
0.0
 30
0.0
  9
$PLIMCHECK
 70
     0
  9
$PEXTMIN
 10
1.000000E+20
 20
1.000000E+20
 30
1.000000E+20
  9
$PEXTMAX
 10
-1.000000E+20
 20
-1.000000E+20
 30
-1.000000E+20
  9
$PLIMMIN
 10
0.0
 20
0.0
  9
$PLIMMAX
 10
12.0
 20
9.0
  9
$UNITMODE
 70
     0
  9
$VISRETAIN
 70
     0
  9
$PLINEGEN
 70
     1
  9
$PSLTSCALE
 70
     0
  9
$TREEDEPTH
 70
  3020
  9
$CMLSTYLE
  2
Standard
  9
$CMLJUST
 70
     0
  9
$CMLSCALE
 40
1.0
  9
$PROXYGRAPHICS
 70
     0
  9
$MEASUREMENT
 70
     0
  9
$CELWEIGHT
370
     0
  9
$ENDCAPS
280
     0
  9
$JOINSTYLE
280
     0
  9
$LWDISPLAY
290
     0
  9
$INSUNITS
 70
     4
  9
$HYPERLINKBASE
  1

  9
$XEDIT
290
     1
  9
$CEPSNTYPE
380
     0
  9
$PSTYLEMODE
290
     1
  9
$FINGERPRINTGUID
  2

  9
$VERSIONGUID
  2

  9
$EXTNAMES
290
     1
  9
$PSVPSCALE
 40
0.0
  0
ENDSEC
  0
SECTION
  2
CLASSES
  0
CLASS
  1
LWPOLYLINE
  2
AcDbPolyline
  3
AutoCAD 2000
 90
    32768
280
     0
281
     1
  0
CLASS
  1
IMAGE
  2
AcDbRasterImage
  3
ISM
 90
    32895
280
     0
281
     1
  0
CLASS
  1
OLE2FRAME
  2
AcDbOle2Frame
  3
AutoCAD 2000
 90
    32768
280
     0
281
     1
  0
CLASS
  1
HATCH
  2
AcDbHatch
  3
AutoCAD 2000
 90
    32768
280
     0
281
     1
  0
CLASS
  1
DICTIONARYVAR
  2
AcDbDictionaryVar
  3
AutoCAD 2000
 90
    32768
280
     0
281
     0
  0
CLASS
  1
RASTERVARIABLES
  2
AcDbRasterVariables
  3
ISM
 90
    32768
280
     0
281
     0
  0
CLASS
  1
IMAGEDEF
  2
AcDbRasterImageDef
  3
ISM
 90
    32768
280
     0
281
     0
  0
CLASS
  1
IMAGEDEF_REACTOR
  2
AcDbRasterImageDefReactor
  3
ISM
 90
    32769
280
     0
281
     0
  0
CLASS
  1
IDBUFFER
  2
AcDbIdBuffer
  3
AutoCAD 2000
 90
    32768
280
     0
281
     0
  0
CLASS
  1
SPATIAL_FILTER
  2
AcDbSpatialFilter
  3
AutoCAD 2000
 90
    32768
280
     0
281
     0
  0
CLASS
  1
XRECORD
  2
AcDbXrecord
  3
AutoCAD 2000
 90
    32768
280
     0
281
     0
  0
CLASS
  1
SORTENTSTABLE
  2
AcDbSortentsTable
  3
AutoCAD 2000
 90
    32768
280
     0
281
     0
  0
CLASS
  1
LAYER_INDEX
  2
AcDbLayerIndex
  3
AutoCAD 2000
 90
    32768
280
     0
281
     0
  0
CLASS
  1
SPATIAL_INDEX
  2
AcDbSpatialIndex
  3
AutoCAD 2000
 90
    32768
280
     0
281
     0
  0
CLASS
  1
OBJECT_PTR
  2
CAseDLPNTableRecord
  3
"ASE-LPNTableRecord"
 90
    32769
280
     0
281
     0
  0
CLASS
  1
LAYOUT
  2
AcDbLayout
  3
AutoCAD 2000
 90
        0
280
     0
281
     0
  0
CLASS
  1
PLOTSETTINGS
  2
AcDbPlotSettings
  3
AutoCAD 2000
 90
    32768
280
     0
281
     0
  0
CLASS
  1
ACDBDICTIONARYWDFLT
  2
AcDbDictionaryWithDefault
  3
AutoCAD 2000
 90
        0
280
     0
281
     0
  0
CLASS
  1
ACDBPLACEHOLDER
  2
AcDbPlaceHolder
  3
AutoCAD 2000
 90
        0
280
     0
281
     0
  0
CLASS
  1
VBA_PROJECT
  2
AcDbVbaProject
  3
acadvba
 90
    32768
280
     0
281
     0
  0
CLASS
  1
WIPEOUT
  2
AcDbWipeout
  3
WipeOut|AutoCAD Express Tool|expresstools@autodesk.com
 90
    32895
280
     0
281
     1
  0
CLASS
  1
WIPEOUTVARIABLES
  2
AcDbWipeoutVariables
  3
WipeOut|AutoCAD Express Tool|expresstools@autodesk.com
 90
        0
280
     0
281
     0
  0
CLASS
  1
RTEXT
  2
RText
  3
RText|AutoCAD Express Tool|expresstools@autodesk.com
 90
    32768
280
     0
281
     1
  0
CLASS
  1
ARCALIGNEDTEXT
  2
AcDbArcAlignedText
  3
ATEXT|AutoCAD Express Tool|expresstools@autodesk.com
 90
    32768
280
     0
281
     1
  0
ENDSEC
  0
SECTION
  2
TABLES
  0
TABLE
  2
VPORT
  5
7
100
AcDbSymbolTable
 70
     1
  0
VPORT
  5
15
100
AcDbSymbolTableRecord
100
AcDbViewportTableRecord
  2
*ACTIVE
 70
     0
 10
0.0
 20
0.0
 11
1.0
 21
1.0
 12
6.591288
 22
4.579184
 13
0.0
 23
0.0
 14
1.0
 24
1.0
 15
0.0
 25
0.0
 16
0.0
 26
0.0
 36
1.0
 17
0.0
 27
0.0
 37
0.0
 40
9.158369
 41
0.688564
 42
50.0
 43
0.0
 44
0.0
 50
0.0
 51
0.0
 71
     0
 72
   100
 73
     1
 74
     1
 75
     0
 76
     0
 77
     0
 78
     0
281
     0
 65
     0
110
0.0
120
0.0
130
0.0
111
1.0
121
0.0
131
0.0
112
0.0
122
1.0
132
0.0
345
0
346
0
 79
     0
146
0.0
  0
ENDTAB
  0
TABLE
  2
LTYPE
  5
4
100
AcDbSymbolTable
 70
     3
  0
LTYPE
  5
11
100
AcDbSymbolTableRecord
100
AcDbLinetypeTableRecord
  2
ByBlock
 70
    64
  3

 72
    65
 73
     0
 40
0.0
  0
LTYPE
  5
12
100
AcDbSymbolTableRecord
100
AcDbLinetypeTableRecord
  2
ByLayer
 70
    64
  3

 72
    65
 73
     0
 40
0.0
  0
LTYPE
  5
13
100
AcDbSymbolTableRecord
100
AcDbLinetypeTableRecord
  2
Continuous
 70
    64
  3
Solid line
 72
    65
 73
     0
 40
0.0
  0
ENDTAB
  0
TABLE
  2
LAYER
  5
2
100
AcDbSymbolTable
 70
     2
  0
LAYER
  5
14
100
AcDbSymbolTableRecord
100
AcDbLayerTableRecord
  2
0
 70
     0
 62
     7
  6
Continuous
290
     1
370
    -3
390
1D
  0
LAYER
  5
24
100
AcDbSymbolTableRecord
100
AcDbLayerTableRecord
  2
RÚteg 1
 70
     0
 62
     7
  6
Continuous
290
     1
370
    -3
390
1F
  0
ENDTAB
  0
TABLE
  2
STYLE
  5
3
100
AcDbSymbolTable
 70
     1
  0
STYLE
  5
17
100
AcDbSymbolTableRecord
100
AcDbTextStyleTableRecord
  2
Standard
 70
     0
 40
0.0
 41
1.0
 50
0.0
 71
     0
 42
0.0
  3
txt
  4

  0
ENDTAB
  0
TABLE
  2
VIEW
  5
5
100
AcDbSymbolTable
 70
     0
  0
ENDTAB
  0
TABLE
  2
UCS
  5
6
100
AcDbSymbolTable
 70
     0
  0
ENDTAB
  0
TABLE
  2
APPID
  5
8
100
AcDbSymbolTable
 70
     1
  0
APPID
  5
16
100
AcDbSymbolTableRecord
100
AcDbRegAppTableRecord
  2
ACAD
 70
     0
  0
ENDTAB
  0
TABLE
  2
DIMSTYLE
  5
9
100
AcDbSymbolTable
 70
     1
100
AcDbDimStyleTable
 71
     0
  0
DIMSTYLE
105
18
100
AcDbSymbolTableRecord
100
AcDbDimStyleTableRecord
  2
Standard
 70
     0
  3

  4

 40
1.0
 41
0.18
 42
0.0625
 43
0.38
 44
0.18
 45
0.0
 46
0.0
 47
0.0
 48
0.0
 71
     0
 72
     0
 73
     1
 74
     1
 75
     0
 76
     0
 77
     0
 78
     0
 79
     0
140
0.18
141
0.09
142
0.0
143
25.4
144
1.0
145
0.0
146
1.0
147
0.09
148
0.0
170
     0
171
     2
172
     0
173
     0
174
     0
175
     0
176
     0
177
     0
178
     0
179
     0
271
     4
272
     4
273
     2
274
     2
275
     0
276
     0
277
     2
278
    46
279
     0
280
     0
281
     0
282
     0
283
     1
284
     0
285
     0
286
     0
288
     0
340
17
341
0
342
0
343
0
344
0
371
    -2
372
    -2
  0
ENDTAB
  0
TABLE
  2
BLOCK_RECORD
  5
1
100
AcDbSymbolTable
 70
     0
  0
BLOCK_RECORD
  5
A
100
AcDbSymbolTableRecord
100
AcDbBlockTableRecord
  2
*MODEL_SPACE
340
20
  0
BLOCK_RECORD
  5
B
100
AcDbSymbolTableRecord
100
AcDbBlockTableRecord
  2
*PAPER_SPACE
340
21
  0
ENDTAB
  0
ENDSEC
  0
SECTION
  2
BLOCKS
  0
BLOCK
  5
D
100
AcDbEntity
  8
0
100
AcDbBlockBegin
  2
*MODEL_SPACE
 70
     0
 10
0.0
 20
0.0
 30
0.0
  3
*MODEL_SPACE
  1

  0
ENDBLK
  5
E
100
AcDbEntity
  8
0
100
AcDbBlockEnd
  0
BLOCK
  5
F
100
AcDbEntity
 67
     1
  8
0
100
AcDbBlockBegin
  2
*PAPER_SPACE
 70
     0
 10
0.0
 20
0.0
 30
0.0
  3
*PAPER_SPACE
  1

  0
ENDBLK
  5
10
100
AcDbEntity
 67
     1
  8
0
100
AcDbBlockEnd
  0
ENDSEC
  0
SECTION
  2
ENTITIES
  0
SPLINE
  5
25
100
AcDbEntity
  8
RÚteg 1
 62
     7
100
AcDbSpline
210
0.0
220
0.0
230
1.0
 70
     1
 71
     3
 72
    96
 73
    92
 74
     0
 42
0.0000000001
 43
0.0000000001
 40
0.0
 40
0.0
 40
0.0
 40
0.0
 40
0.0434782608695652
 40
0.0434782608695652
 40
0.0434782608695652
 40
0.0434782608695652
 40
0.0869565217391304
 40
0.0869565217391304
 40
0.0869565217391304
 40
0.0869565217391304
 40
0.1304347826086957
 40
0.1304347826086957
 40
0.1304347826086957
 40
0.1304347826086957
 40
0.1739130434782609
 40
0.1739130434782609
 40
0.1739130434782609
 40
0.1739130434782609
 40
0.2173913043478261
 40
0.2173913043478261
 40
0.2173913043478261
 40
0.2173913043478261
 40
0.2608695652173913
 40
0.2608695652173913
 40
0.2608695652173913
 40
0.2608695652173913
 40
0.3043478260869565
 40
0.3043478260869565
 40
0.3043478260869565
 40
0.3043478260869565
 40
0.3478260869565217
 40
0.3478260869565217
 40
0.3478260869565217
 40
0.3478260869565217
 40
0.3913043478260869
 40
0.3913043478260869
 40
0.3913043478260869
 40
0.3913043478260869
 40
0.4347826086956521
 40
0.4347826086956521
 40
0.4347826086956521
 40
0.4347826086956521
 40
0.4782608695652173
 40
0.4782608695652173
 40
0.4782608695652173
 40
0.4782608695652173
 40
0.5217391304347825
 40
0.5217391304347825
 40
0.5217391304347825
 40
0.5217391304347825
 40
0.5652173913043477
 40
0.5652173913043477
 40
0.5652173913043477
 40
0.5652173913043477
 40
0.6086956521739129
 40
0.6086956521739129
 40
0.6086956521739129
 40
0.6086956521739129
 40
0.6521739130434781
 40
0.6521739130434781
 40
0.6521739130434781
 40
0.6521739130434781
 40
0.6956521739130432
 40
0.6956521739130432
 40
0.6956521739130432
 40
0.6956521739130432
 40
0.7391304347826084
 40
0.7391304347826084
 40
0.7391304347826084
 40
0.7391304347826084
 40
0.7826086956521736
 40
0.7826086956521736
 40
0.7826086956521736
 40
0.7826086956521736
 40
0.8260869565217388
 40
0.8260869565217388
 40
0.8260869565217388
 40
0.8260869565217388
 40
0.869565217391304
 40
0.869565217391304
 40
0.869565217391304
 40
0.869565217391304
 40
0.9130434782608692
 40
0.9130434782608692
 40
0.9130434782608692
 40
0.9130434782608692
 40
0.9565217391304344
 40
0.9565217391304344
 40
0.9565217391304344
 40
0.9565217391304344
 40
1.0
 40
1.0
 40
1.0
 40
1.0
 10
-59.5974
 20
9.7929999999999993
 30
0.0
 10
-59.5974
 20
9.7929999999999993
 30
0.0
 10
-59.641300000000001
 20
9.8363999999999994
 30
0.0
 10
-59.641300000000001
 20
9.8363999999999994
 30
0.0
 10
-59.641300000000001
 20
9.8363999999999994
 30
0.0
 10
-60.033499999999997
 20
10.2295
 30
0.0
 10
-60.330500000000001
 20
10.420199999999999
 30
0.0
 10
-60.483899999999998
 20
10.9377
 30
0.0
 10
-60.483899999999998
 20
10.9377
 30
0.0
 10
-60.569899999999997
 20
11.2279
 30
0.0
 10
-60.936399999999999
 20
12.209899999999999
 30
0.0
 10
-60.938200000000002
 20
12.4278
 30
0.0
 10
-60.938200000000002
 20
12.4278
 30
0.0
 10
-60.9437
 20
13.048299999999999
 30
0.0
 10
-60.906100000000002
 20
13.709
 30
0.0
 10
-60.933700000000002
 20
14.3255
 30
0.0
 10
-60.933700000000002
 20
14.3255
 30
0.0
 10
-60.990299999999998
 20
15.5877
 30
0.0
 10
-60.949100000000001
 20
16.692900000000002
 30
0.0
 10
-60.616599999999998
 20
17.745100000000001
 30
0.0
 10
-60.616599999999998
 20
17.745100000000001
 30
0.0
 10
-60.477899999999998
 20
18.184999999999999
 30
0.0
 10
-59.6601
 20
20.059100000000001
 30
0.0
 10
-59.398099999999999
 20
20.363700000000001
 30
0.0
 10
-59.398099999999999
 20
20.363700000000001
 30
0.0
 10
-58.375799999999998
 20
20.363700000000001
 30
0.0
 10
-57.353299999999997
 20
20.363700000000001
 30
0.0
 10
-56.3307
 20
20.363700000000001
 30
0.0
 10
-56.3307
 20
20.363700000000001
 30
0.0
 10
-56.369100000000003
 20
20.2805
 30
0.0
 10
-56.407400000000003
 20
20.197399999999998
 30
0.0
 10
-56.445599999999999
 20
20.1142
 30
0.0
 10
-56.445599999999999
 20
20.1142
 30
0.0
 10
-57.792000000000002
 20
20.107900000000001
 30
0.0
 10
-57.6372
 20
19.848199999999999
 30
0.0
 10
-58.567
 20
18.918199999999999
 30
0.0
 10
-58.567
 20
18.918199999999999
 30
0.0
 10
-58.974400000000003
 20
18.5108
 30
0.0
 10
-59.814799999999998
 20
17.6492
 30
0.0
 10
-60.1143
 20
17.191299999999998
 30
0.0
 10
-60.1143
 20
17.191299999999998
 30
0.0
 10
-60.0974
 20
17.202999999999999
 30
0.0
 10
-60.080100000000002
 20
17.214700000000001
 30
0.0
 10
-60.063200000000002
 20
17.226600000000001
 30
0.0
 10
-60.063200000000002
 20
17.226600000000001
 30
0.0
 10
-59.7879
 20
16.824200000000001
 30
0.0
 10
-59.512700000000002
 20
16.422000000000001
 30
0.0
 10
-59.237499999999997
 20
16.0197
 30
0.0
 10
-59.237499999999997
 20
16.0197
 30
0.0
 10
-59.246000000000002
 20
16.042899999999999
 30
0.0
 10
-59.254399999999997
 20
16.066400000000002
 30
0.0
 10
-59.263100000000001
 20
16.089400000000001
 30
0.0
 10
-59.263100000000001
 20
16.089400000000001
 30
0.0
 10
-58.808999999999997
 20
16.200199999999999
 30
0.0
 10
-58.354599999999998
 20
16.310700000000001
 30
0.0
 10
-57.900500000000001
 20
16.421600000000002
 30
0.0
 10
-57.900500000000001
 20
16.421600000000002
 30
0.0
 10
-57.888100000000001
 20
16.370999999999999
 30
0.0
 10
-57.875999999999998
 20
16.320900000000002
 30
0.0
 10
-57.863700000000001
 20
16.270399999999999
 30
0.0
 10
-57.863700000000001
 20
16.270399999999999
 30
0.0
 10
-57.978999999999999
 20
15.7943
 30
0.0
 10
-58.616999999999997
 20
15.393599999999999
 30
0.0
 10
-58.279400000000003
 20
14.731
 30
0.0
 10
-58.279400000000003
 20
14.731
 30
0.0
 10
-58.057499999999997
 20
14.295299999999999
 30
0.0
 10
-57.764099999999999
 20
13.758900000000001
 30
0.0
 10
-57.5336
 20
13.326000000000001
 30
0.0
 10
-57.5336
 20
13.326000000000001
 30
0.0
 10
-57.289200000000001
 20
12.8666
 30
0.0
 10
-57.088299999999997
 20
12.3043
 30
0.0
 10
-56.8371
 20
11.873799999999999
 30
0.0
 10
-56.8371
 20
11.873799999999999
 30
0.0
 10
-56.601100000000002
 20
11.468299999999999
 30
0.0
 10
-56.303400000000003
 20
10.943099999999999
 30
0.0
 10
-56.073500000000003
 20
10.489000000000001
 30
0.0
 10
-56.073500000000003
 20
10.489000000000001
 30
0.0
 10
-55.398400000000002
 20
10.489000000000001
 30
0.0
 10
-54.75
 20
9.8867999999999991
 30
0.0
 10
-54.005899999999997
 20
9.6917000000000009
 30
0.0
 10
-54.005899999999997
 20
9.6917000000000009
 30
0.0
 10
-53.923400000000001
 20
9.6699999999999999
 30
0.0
 10
-53.847000000000001
 20
9.6481999999999992
 30
0.0
 10
-53.775399999999998
 20
9.6263000000000005
 30
0.0
 10
-53.775399999999998
 20
9.6263000000000005
 30
0.0
 10
-54.462400000000002
 20
9.5772999999999993
 30
0.0
 10
-55.155700000000003
 20
9.5510999999999999
 30
0.0
 10
-55.855200000000004
 20
9.5510999999999999
 30
0.0
 10
-55.855200000000004
 20
9.5510999999999999
 30
0.0
 10
-57.1233
 20
9.5510999999999999
 30
0.0
 10
-58.372500000000002
 20
9.6339000000000006
 30
0.0
 10
-59.5974
 20
9.7929999999999993
 30
0.0
  0
SPLINE
  5
26
100
AcDbEntity
  8
RÚteg 1
 62
     7
100
AcDbSpline
210
0.0
220
0.0
230
1.0
 70
     1
 71
     3
 72
   348
 73
   344
 74
     0
 42
0.0000000001
 43
0.0000000001
 40
0.0
 40
0.0
 40
0.0
 40
0.0
 40
0.0116279069767442
 40
0.0116279069767442
 40
0.0116279069767442
 40
0.0116279069767442
 40
0.0232558139534884
 40
0.0232558139534884
 40
0.0232558139534884
 40
0.0232558139534884
 40
0.0348837209302326
 40
0.0348837209302326
 40
0.0348837209302326
 40
0.0348837209302326
 40
0.0465116279069767
 40
0.0465116279069767
 40
0.0465116279069767
 40
0.0465116279069767
 40
0.0581395348837209
 40
0.0581395348837209
 40
0.0581395348837209
 40
0.0581395348837209
 40
0.0697674418604651
 40
0.0697674418604651
 40
0.0697674418604651
 40
0.0697674418604651
 40
0.0813953488372093
 40
0.0813953488372093
 40
0.0813953488372093
 40
0.0813953488372093
 40
0.0930232558139535
 40
0.0930232558139535
 40
0.0930232558139535
 40
0.0930232558139535
 40
0.1046511627906977
 40
0.1046511627906977
 40
0.1046511627906977
 40
0.1046511627906977
 40
0.1162790697674418
 40
0.1162790697674418
 40
0.1162790697674418
 40
0.1162790697674418
 40
0.127906976744186
 40
0.127906976744186
 40
0.127906976744186
 40
0.127906976744186
 40
0.1395348837209302
 40
0.1395348837209302
 40
0.1395348837209302
 40
0.1395348837209302
 40
0.1511627906976744
 40
0.1511627906976744
 40
0.1511627906976744
 40
0.1511627906976744
 40
0.1627906976744186
 40
0.1627906976744186
 40
0.1627906976744186
 40
0.1627906976744186
 40
0.1744186046511627
 40
0.1744186046511627
 40
0.1744186046511627
 40
0.1744186046511627
 40
0.1860465116279069
 40
0.1860465116279069
 40
0.1860465116279069
 40
0.1860465116279069
 40
0.1976744186046511
 40
0.1976744186046511
 40
0.1976744186046511
 40
0.1976744186046511
 40
0.2093023255813953
 40
0.2093023255813953
 40
0.2093023255813953
 40
0.2093023255813953
 40
0.2209302325581395
 40
0.2209302325581395
 40
0.2209302325581395
 40
0.2209302325581395
 40
0.2325581395348836
 40
0.2325581395348836
 40
0.2325581395348836
 40
0.2325581395348836
 40
0.2441860465116278
 40
0.2441860465116278
 40
0.2441860465116278
 40
0.2441860465116278
 40
0.255813953488372
 40
0.255813953488372
 40
0.255813953488372
 40
0.255813953488372
 40
0.2674418604651162
 40
0.2674418604651162
 40
0.2674418604651162
 40
0.2674418604651162
 40
0.2790697674418604
 40
0.2790697674418604
 40
0.2790697674418604
 40
0.2790697674418604
 40
0.2906976744186046
 40
0.2906976744186046
 40
0.2906976744186046
 40
0.2906976744186046
 40
0.3023255813953488
 40
0.3023255813953488
 40
0.3023255813953488
 40
0.3023255813953488
 40
0.313953488372093
 40
0.313953488372093
 40
0.313953488372093
 40
0.313953488372093
 40
0.3255813953488372
 40
0.3255813953488372
 40
0.3255813953488372
 40
0.3255813953488372
 40
0.3372093023255814
 40
0.3372093023255814
 40
0.3372093023255814
 40
0.3372093023255814
 40
0.3488372093023257
 40
0.3488372093023257
 40
0.3488372093023257
 40
0.3488372093023257
 40
0.3604651162790699
 40
0.3604651162790699
 40
0.3604651162790699
 40
0.3604651162790699
 40
0.3720930232558141
 40
0.3720930232558141
 40
0.3720930232558141
 40
0.3720930232558141
 40
0.3837209302325583
 40
0.3837209302325583
 40
0.3837209302325583
 40
0.3837209302325583
 40
0.3953488372093025
 40
0.3953488372093025
 40
0.3953488372093025
 40
0.3953488372093025
 40
0.4069767441860467
 40
0.4069767441860467
 40
0.4069767441860467
 40
0.4069767441860467
 40
0.4186046511627909
 40
0.4186046511627909
 40
0.4186046511627909
 40
0.4186046511627909
 40
0.4302325581395351
 40
0.4302325581395351
 40
0.4302325581395351
 40
0.4302325581395351
 40
0.4418604651162793
 40
0.4418604651162793
 40
0.4418604651162793
 40
0.4418604651162793
 40
0.4534883720930235
 40
0.4534883720930235
 40
0.4534883720930235
 40
0.4534883720930235
 40
0.4651162790697677
 40
0.4651162790697677
 40
0.4651162790697677
 40
0.4651162790697677
 40
0.4767441860465119
 40
0.4767441860465119
 40
0.4767441860465119
 40
0.4767441860465119
 40
0.4883720930232561
 40
0.4883720930232561
 40
0.4883720930232561
 40
0.4883720930232561
 40
0.5000000000000003
 40
0.5000000000000003
 40
0.5000000000000003
 40
0.5000000000000003
 40
0.5116279069767445
 40
0.5116279069767445
 40
0.5116279069767445
 40
0.5116279069767445
 40
0.5232558139534888
 40
0.5232558139534888
 40
0.5232558139534888
 40
0.5232558139534888
 40
0.534883720930233
 40
0.534883720930233
 40
0.534883720930233
 40
0.534883720930233
 40
0.5465116279069772
 40
0.5465116279069772
 40
0.5465116279069772
 40
0.5465116279069772
 40
0.5581395348837214
 40
0.5581395348837214
 40
0.5581395348837214
 40
0.5581395348837214
 40
0.5697674418604656
 40
0.5697674418604656
 40
0.5697674418604656
 40
0.5697674418604656
 40
0.5813953488372098
 40
0.5813953488372098
 40
0.5813953488372098
 40
0.5813953488372098
 40
0.593023255813954
 40
0.593023255813954
 40
0.593023255813954
 40
0.593023255813954
 40
0.6046511627906982
 40
0.6046511627906982
 40
0.6046511627906982
 40
0.6046511627906982
 40
0.6162790697674424
 40
0.6162790697674424
 40
0.6162790697674424
 40
0.6162790697674424
 40
0.6279069767441866
 40
0.6279069767441866
 40
0.6279069767441866
 40
0.6279069767441866
 40
0.6395348837209308
 40
0.6395348837209308
 40
0.6395348837209308
 40
0.6395348837209308
 40
0.651162790697675
 40
0.651162790697675
 40
0.651162790697675
 40
0.651162790697675
 40
0.6627906976744192
 40
0.6627906976744192
 40
0.6627906976744192
 40
0.6627906976744192
 40
0.6744186046511634
 40
0.6744186046511634
 40
0.6744186046511634
 40
0.6744186046511634
 40
0.6860465116279076
 40
0.6860465116279076
 40
0.6860465116279076
 40
0.6860465116279076
 40
0.6976744186046519
 40
0.6976744186046519
 40
0.6976744186046519
 40
0.6976744186046519
 40
0.7093023255813961
 40
0.7093023255813961
 40
0.7093023255813961
 40
0.7093023255813961
 40
0.7209302325581403
 40
0.7209302325581403
 40
0.7209302325581403
 40
0.7209302325581403
 40
0.7325581395348845
 40
0.7325581395348845
 40
0.7325581395348845
 40
0.7325581395348845
 40
0.7441860465116287
 40
0.7441860465116287
 40
0.7441860465116287
 40
0.7441860465116287
 40
0.7558139534883729
 40
0.7558139534883729
 40
0.7558139534883729
 40
0.7558139534883729
 40
0.7674418604651171
 40
0.7674418604651171
 40
0.7674418604651171
 40
0.7674418604651171
 40
0.7790697674418613
 40
0.7790697674418613
 40
0.7790697674418613
 40
0.7790697674418613
 40
0.7906976744186055
 40
0.7906976744186055
 40
0.7906976744186055
 40
0.7906976744186055
 40
0.8023255813953497
 40
0.8023255813953497
 40
0.8023255813953497
 40
0.8023255813953497
 40
0.8139534883720939
 40
0.8139534883720939
 40
0.8139534883720939
 40
0.8139534883720939
 40
0.8255813953488381
 40
0.8255813953488381
 40
0.8255813953488381
 40
0.8255813953488381
 40
0.8372093023255823
 40
0.8372093023255823
 40
0.8372093023255823
 40
0.8372093023255823
 40
0.8488372093023265
 40
0.8488372093023265
 40
0.8488372093023265
 40
0.8488372093023265
 40
0.8604651162790707
 40
0.8604651162790707
 40
0.8604651162790707
 40
0.8604651162790707
 40
0.872093023255815
 40
0.872093023255815
 40
0.872093023255815
 40
0.872093023255815
 40
0.8837209302325592
 40
0.8837209302325592
 40
0.8837209302325592
 40
0.8837209302325592
 40
0.8953488372093034
 40
0.8953488372093034
 40
0.8953488372093034
 40
0.8953488372093034
 40
0.9069767441860476
 40
0.9069767441860476
 40
0.9069767441860476
 40
0.9069767441860476
 40
0.9186046511627918
 40
0.9186046511627918
 40
0.9186046511627918
 40
0.9186046511627918
 40
0.930232558139536
 40
0.930232558139536
 40
0.930232558139536
 40
0.930232558139536
 40
0.9418604651162802
 40
0.9418604651162802
 40
0.9418604651162802
 40
0.9418604651162802
 40
0.9534883720930244
 40
0.9534883720930244
 40
0.9534883720930244
 40
0.9534883720930244
 40
0.9651162790697686
 40
0.9651162790697686
 40
0.9651162790697686
 40
0.9651162790697686
 40
0.9767441860465128
 40
0.9767441860465128
 40
0.9767441860465128
 40
0.9767441860465128
 40
0.988372093023257
 40
0.988372093023257
 40
0.988372093023257
 40
0.988372093023257
 40
1.0
 40
1.0
 40
1.0
 40
1.0
 10
-50.483199999999997
 20
56.085000000000001
 30
0.0
 10
-50.483199999999997
 20
56.085000000000001
 30
0.0
 10
-49.079799999999999
 20
55.426900000000003
 30
0.0
 10
-49.079799999999999
 20
55.426900000000003
 30
0.0
 10
-49.079799999999999
 20
55.426900000000003
 30
0.0
 10
-49.079799999999999
 20
55.426900000000003
 30
0.0
 10
-49.205500000000001
 20
55.016599999999997
 30
0.0
 10
-49.205500000000001
 20
55.016599999999997
 30
0.0
 10
-49.205500000000001
 20
55.016599999999997
 30
0.0
 10
-49.205500000000001
 20
55.016599999999997
 30
0.0
 10
-47.389200000000002
 20
55.285299999999999
 30
0.0
 10
-47.389200000000002
 20
55.285299999999999
 30
0.0
 10
-47.389200000000002
 20
55.285299999999999
 30
0.0
 10
-46.667900000000003
 20
55.1828
 30
0.0
 10
-45.160699999999999
 20
54.764200000000002
 30
0.0
 10
-44.8508
 20
53.902999999999999
 30
0.0
 10
-44.8508
 20
53.902999999999999
 30
0.0
 10
-44.8508
 20
53.902999999999999
 30
0.0
 10
-44.728900000000003
 20
53.564300000000003
 30
0.0
 10
-44.728900000000003
 20
53.564300000000003
 30
0.0
 10
-44.728900000000003
 20
53.564300000000003
 30
0.0
 10
-44.1907
 20
53.810000000000002
 30
0.0
 10
-44.396599999999999
 20
53.938899999999997
 30
0.0
 10
-43.906700000000001
 20
54.115200000000002
 30
0.0
 10
-43.906700000000001
 20
54.115200000000002
 30
0.0
 10
-43.906700000000001
 20
54.115200000000002
 30
0.0
 10
-43.680700000000002
 20
54.1965
 30
0.0
 10
-43.680700000000002
 20
54.1965
 30
0.0
 10
-43.680700000000002
 20
54.1965
 30
0.0
 10
-43.1434
 20
54.389899999999997
 30
0.0
 10
-42.692300000000003
 20
54.450299999999999
 30
0.0
 10
-42.316899999999997
 20
54.304600000000001
 30
0.0
 10
-42.316899999999997
 20
54.304600000000001
 30
0.0
 10
-41.6357
 20
54.384599999999999
 30
0.0
 10
-41.276299999999999
 20
54.066299999999998
 30
0.0
 10
-40.966200000000001
 20
53.387700000000002
 30
0.0
 10
-40.966200000000001
 20
53.387700000000002
 30
0.0
 10
-40.4724
 20
53.730400000000003
 30
0.0
 10
-40.523000000000003
 20
54.184800000000003
 30
0.0
 10
-39.927300000000002
 20
54.3994
 30
0.0
 10
-39.927300000000002
 20
54.3994
 30
0.0
 10
-39.927300000000002
 20
54.3994
 30
0.0
 10
-39.4756
 20
54.562100000000001
 30
0.0
 10
-39.4756
 20
54.562100000000001
 30
0.0
 10
-39.4756
 20
54.562100000000001
 30
0.0
 10
-39.043799999999997
 20
54.717399999999998
 30
0.0
 10
-39.446899999999999
 20
54.611699999999999
 30
0.0
 10
-39.0961
 20
54.571100000000001
 30
0.0
 10
-39.0961
 20
54.571100000000001
 30
0.0
 10
-39.494999999999997
 20
53.218699999999998
 30
0.0
 10
-40.3889
 20
53.388800000000003
 30
0.0
 10
-39.814500000000002
 20
51.251199999999997
 30
0.0
 10
-39.814500000000002
 20
51.251199999999997
 30
0.0
 10
-38.793300000000002
 20
51.717799999999997
 30
0.0
 10
-39.037799999999997
 20
52.551200000000001
 30
0.0
 10
-38.107100000000003
 20
52.886099999999999
 30
0.0
 10
-38.107100000000003
 20
52.886099999999999
 30
0.0
 10
-37.704999999999998
 20
53.030900000000003
 30
0.0
 10
-37.568100000000001
 20
52.7776
 30
0.0
 10
-37.4116
 20
52.371099999999998
 30
0.0
 10
-37.4116
 20
52.371099999999998
 30
0.0
 10
-37.4116
 20
52.371099999999998
 30
0.0
 10
-38.1023
 20
52.1145
 30
0.0
 10
-38.1023
 20
52.1145
 30
0.0
 10
-38.1023
 20
52.1145
 30
0.0
 10
-38.1023
 20
52.1145
 30
0.0
 10
-37.619399999999999
 20
51.531100000000002
 30
0.0
 10
-37.619399999999999
 20
51.531100000000002
 30
0.0
 10
-37.619399999999999
 20
51.531100000000002
 30
0.0
 10
-39.715299999999999
 20
50.776600000000002
 30
0.0
 10
-40.103999999999999
 20
48.685899999999997
 30
0.0
 10
-41.034500000000001
 20
48.261000000000003
 30
0.0
 10
-41.034500000000001
 20
48.261000000000003
 30
0.0
 10
-41.034500000000001
 20
48.261000000000003
 30
0.0
 10
-41.2376
 20
48.825499999999998
 30
0.0
 10
-41.2376
 20
48.825499999999998
 30
0.0
 10
-41.2376
 20
48.825499999999998
 30
0.0
 10
-42.0261
 20
47.756
 30
0.0
 10
-41.078600000000002
 20
47.398600000000002
 30
0.0
 10
-40.918999999999997
 20
46.049199999999999
 30
0.0
 10
-40.918999999999997
 20
46.049199999999999
 30
0.0
 10
-40.844700000000003
 20
45.419800000000002
 30
0.0
 10
-41.085900000000002
 20
43.963700000000003
 30
0.0
 10
-41.712299999999999
 20
43.683399999999999
 30
0.0
 10
-41.712299999999999
 20
43.683399999999999
 30
0.0
 10
-41.712299999999999
 20
43.683399999999999
 30
0.0
 10
-42.1006
 20
45.198500000000003
 30
0.0
 10
-42.1006
 20
45.198500000000003
 30
0.0
 10
-42.1006
 20
45.198500000000003
 30
0.0
 10
-42.646999999999998
 20
44.819800000000001
 30
0.0
 10
-42.491799999999998
 20
43.654699999999998
 30
0.0
 10
-42.782899999999998
 20
43.549999999999997
 30
0.0
 10
-42.782899999999998
 20
43.549999999999997
 30
0.0
 10
-43.353700000000003
 20
43.3444
 30
0.0
 10
-43.5471
 20
44.167700000000004
 30
0.0
 10
-44.083799999999997
 20
43.974600000000002
 30
0.0
 10
-44.083799999999997
 20
43.974600000000002
 30
0.0
 10
-44.083799999999997
 20
43.974600000000002
 30
0.0
 10
-44.422600000000003
 20
43.852699999999999
 30
0.0
 10
-44.422600000000003
 20
43.852699999999999
 30
0.0
 10
-44.422600000000003
 20
43.852699999999999
 30
0.0
 10
-44.422600000000003
 20
43.852699999999999
 30
0.0
 10
-44.514400000000002
 20
43.754800000000003
 30
0.0
 10
-44.514400000000002
 20
43.754800000000003
 30
0.0
 10
-44.514400000000002
 20
43.754800000000003
 30
0.0
 10
-44.514400000000002
 20
43.754800000000003
 30
0.0
 10
-42.755600000000001
 20
42.102400000000003
 30
0.0
 10
-42.755600000000001
 20
42.102400000000003
 30
0.0
 10
-42.755600000000001
 20
42.102400000000003
 30
0.0
 10
-42.755600000000001
 20
42.102400000000003
 30
0.0
 10
-42.859699999999997
 20
41.991799999999998
 30
0.0
 10
-42.859699999999997
 20
41.991799999999998
 30
0.0
 10
-42.859699999999997
 20
41.991799999999998
 30
0.0
 10
-43.842199999999998
 20
41.727699999999999
 30
0.0
 10
-44.587400000000002
 20
42.374699999999997
 30
0.0
 10
-45.186500000000002
 20
43.026499999999999
 30
0.0
 10
-45.186500000000002
 20
43.026499999999999
 30
0.0
 10
-46.420200000000001
 20
44.369199999999999
 30
0.0
 10
-46.191200000000002
 20
43.808999999999997
 30
0.0
 10
-47.579900000000002
 20
44.119399999999999
 30
0.0
 10
-47.579900000000002
 20
44.119399999999999
 30
0.0
 10
-47.579900000000002
 20
44.119399999999999
 30
0.0
 10
-47.502899999999997
 20
43.509
 30
0.0
 10
-47.502899999999997
 20
43.509
 30
0.0
 10
-47.502899999999997
 20
43.509
 30
0.0
 10
-47.502899999999997
 20
43.509
 30
0.0
 10
-47.443100000000001
 20
43.401400000000002
 30
0.0
 10
-47.443100000000001
 20
43.401400000000002
 30
0.0
 10
-47.443100000000001
 20
43.401400000000002
 30
0.0
 10
-47.443100000000001
 20
43.401400000000002
 30
0.0
 10
-51.022100000000002
 20
41.988
 30
0.0
 10
-51.022100000000002
 20
41.988
 30
0.0
 10
-51.022100000000002
 20
41.988
 30
0.0
 10
-51.813899999999997
 20
41.7029
 30
0.0
 10
-52.805599999999998
 20
41.323
 30
0.0
 10
-53.371200000000002
 20
40.8187
 30
0.0
 10
-53.371200000000002
 20
40.8187
 30
0.0
 10
-53.371200000000002
 20
40.8187
 30
0.0
 10
-53.405799999999999
 20
40.837200000000003
 30
0.0
 10
-53.405799999999999
 20
40.837200000000003
 30
0.0
 10
-53.405799999999999
 20
40.837200000000003
 30
0.0
 10
-53.971200000000003
 20
41.143999999999998
 30
0.0
 10
-54.096699999999998
 20
40.864100000000001
 30
0.0
 10
-54.556399999999996
 20
41.016599999999997
 30
0.0
 10
-54.556399999999996
 20
41.016599999999997
 30
0.0
 10
-55.325200000000002
 20
41.912599999999998
 30
0.0
 10
-54.786499999999997
 20
41.9039
 30
0.0
 10
-56.226900000000001
 20
41.9039
 30
0.0
 10
-56.226900000000001
 20
41.9039
 30
0.0
 10
-56.751899999999999
 20
42.7072
 30
0.0
 10
-57.026499999999999
 20
42.965299999999999
 30
0.0
 10
-57.410200000000003
 20
43.841500000000003
 30
0.0
 10
-57.410200000000003
 20
43.841500000000003
 30
0.0
 10
-57.419400000000003
 20
43.863100000000003
 30
0.0
 10
-57.700200000000002
 20
45.018500000000003
 30
0.0
 10
-57.707700000000003
 20
45.078499999999998
 30
0.0
 10
-57.707700000000003
 20
45.078499999999998
 30
0.0
 10
-57.767099999999999
 20
45.539000000000001
 30
0.0
 10
-57.964300000000001
 20
45.817100000000003
 30
0.0
 10
-58.128599999999999
 20
46.192799999999998
 30
0.0
 10
-58.128599999999999
 20
46.192799999999998
 30
0.0
 10
-58.325299999999999
 20
46.643300000000004
 30
0.0
 10
-59.061799999999998
 20
47.629100000000001
 30
0.0
 10
-59.436399999999999
 20
48.005499999999998
 30
0.0
 10
-59.436399999999999
 20
48.005499999999998
 30
0.0
 10
-59.985999999999997
 20
48.557600000000001
 30
0.0
 10
-60.669899999999998
 20
48.756799999999998
 30
0.0
 10
-61.277500000000003
 20
49.233400000000003
 30
0.0
 10
-61.277500000000003
 20
49.233400000000003
 30
0.0
 10
-60.518700000000003
 20
49.880699999999997
 30
0.0
 10
-58.138399999999997
 20
47.568800000000003
 30
0.0
 10
-57.147500000000001
 20
49.067
 30
0.0
 10
-57.147500000000001
 20
49.067
 30
0.0
 10
-57.213700000000003
 20
49.272399999999998
 30
0.0
 10
-57.279899999999998
 20
49.477800000000002
 30
0.0
 10
-57.3459
 20
49.683199999999999
 30
0.0
 10
-57.3459
 20
49.683199999999999
 30
0.0
 10
-57.355800000000002
 20
49.660299999999999
 30
0.0
 10
-57.365499999999997
 20
49.637599999999999
 30
0.0
 10
-57.375399999999999
 20
49.614600000000003
 30
0.0
 10
-57.375399999999999
 20
49.614600000000003
 30
0.0
 10
-57.682499999999997
 20
49.722499999999997
 30
0.0
 10
-57.989400000000003
 20
49.830300000000001
 30
0.0
 10
-58.296399999999998
 20
49.938099999999999
 30
0.0
 10
-58.296399999999998
 20
49.938099999999999
 30
0.0
 10
-58.296399999999998
 20
49.961100000000002
 30
0.0
 10
-58.296399999999998
 20
49.983800000000002
 30
0.0
 10
-58.296399999999998
 20
50.006399999999999
 30
0.0
 10
-58.296399999999998
 20
50.006399999999999
 30
0.0
 10
-58.043100000000003
 20
50.3491
 30
0.0
 10
-57.7898
 20
50.691499999999998
 30
0.0
 10
-57.536499999999997
 20
51.034100000000002
 30
0.0
 10
-57.536499999999997
 20
51.034100000000002
 30
0.0
 10
-57.650700000000001
 20
51.122700000000002
 30
0.0
 10
-57.764699999999998
 20
51.211599999999997
 30
0.0
 10
-57.878900000000002
 20
51.300400000000003
 30
0.0
 10
-57.878900000000002
 20
51.300400000000003
 30
0.0
 10
-57.849600000000002
 20
51.288899999999998
 30
0.0
 10
-57.820399999999999
 20
51.277200000000001
 30
0.0
 10
-57.7911
 20
51.265900000000002
 30
0.0
 10
-57.7911
 20
51.265900000000002
 30
0.0
 10
-57.683700000000002
 20
51.5413
 30
0.0
 10
-57.576300000000003
 20
51.816899999999997
 30
0.0
 10
-57.469000000000001
 20
52.092300000000002
 30
0.0
 10
-57.469000000000001
 20
52.092300000000002
 30
0.0
 10
-57.580399999999997
 20
52.385399999999997
 30
0.0
 10
-57.691800000000001
 20
52.678199999999997
 30
0.0
 10
-57.803199999999997
 20
52.971200000000003
 30
0.0
 10
-57.803199999999997
 20
52.971200000000003
 30
0.0
 10
-57.772199999999998
 20
52.982900000000001
 30
0.0
 10
-57.741199999999999
 20
52.994700000000002
 30
0.0
 10
-57.710299999999997
 20
53.006700000000002
 30
0.0
 10
-57.710299999999997
 20
53.006700000000002
 30
0.0
 10
-55.899299999999997
 20
53.006700000000002
 30
0.0
 10
-56.383400000000002
 20
51.881599999999999
 30
0.0
 10
-55.664200000000001
 20
51.881
 30
0.0
 10
-55.664200000000001
 20
51.881
 30
0.0
 10
-55.238799999999998
 20
52.496200000000002
 30
0.0
 10
-55.817700000000002
 20
52.832299999999996
 30
0.0
 10
-55.817700000000002
 20
53.825200000000002
 30
0.0
 10
-55.817700000000002
 20
53.825200000000002
 30
0.0
 10
-56.213799999999999
 20
54.173999999999999
 30
0.0
 10
-56.7973
 20
53.967799999999997
 30
0.0
 10
-57.100200000000001
 20
54.589100000000002
 30
0.0
 10
-57.100200000000001
 20
54.589100000000002
 30
0.0
 10
-57.374299999999998
 20
55.152200000000001
 30
0.0
 10
-56.942999999999998
 20
56.055100000000003
 30
0.0
 10
-56.942999999999998
 20
56.332099999999997
 30
0.0
 10
-56.942999999999998
 20
56.332099999999997
 30
0.0
 10
-56.942999999999998
 20
56.741700000000002
 30
0.0
 10
-56.942999999999998
 20
57.151000000000003
 30
0.0
 10
-56.942999999999998
 20
57.560299999999998
 30
0.0
 10
-56.942999999999998
 20
57.560299999999998
 30
0.0
 10
-55.799199999999999
 20
57.588000000000001
 30
0.0
 10
-54.655500000000004
 20
57.615699999999997
 30
0.0
 10
-53.511600000000001
 20
57.6434
 30
0.0
 10
-53.511600000000001
 20
57.6434
 30
0.0
 10
-53.512999999999998
 20
57.683999999999997
 30
0.0
 10
-53.514499999999998
 20
57.724499999999999
 30
0.0
 10
-53.515799999999999
 20
57.764899999999997
 30
0.0
 10
-53.515799999999999
 20
57.764899999999997
 30
0.0
 10
-54.087299999999999
 20
58.872199999999999
 30
0.0
 10
-55.874899999999997
 20
58.839399999999998
 30
0.0
 10
-57.198799999999999
 20
58.839399999999998
 30
0.0
 10
-57.198799999999999
 20
58.839399999999998
 30
0.0
 10
-57.298299999999998
 20
59.255499999999998
 30
0.0
 10
-58.0015
 20
60.971200000000003
 30
0.0
 10
-58.216200000000001
 20
61.403199999999998
 30
0.0
 10
-58.216200000000001
 20
61.403199999999998
 30
0.0
 10
-58.550600000000003
 20
62.075200000000002
 30
0.0
 10
-59.030099999999997
 20
62.9831
 30
0.0
 10
-59.649000000000001
 20
63.500399999999999
 30
0.0
 10
-59.649000000000001
 20
63.500399999999999
 30
0.0
 10
-60.667499999999997
 20
64.351100000000002
 30
0.0
 10
-60.604500000000002
 20
64.340699999999998
 30
0.0
 10
-61.747100000000003
 20
64.932100000000005
 30
0.0
 10
-61.747100000000003
 20
64.932100000000005
 30
0.0
 10
-62.006
 20
65.066000000000003
 30
0.0
 10
-63.484099999999998
 20
65.728399999999993
 30
0.0
 10
-63.987400000000001
 20
65.968000000000004
 30
0.0
 10
-63.987400000000001
 20
65.968000000000004
 30
0.0
 10
-61.408200000000001
 20
66.726200000000006
 30
0.0
 10
-58.679400000000001
 20
67.135199999999998
 30
0.0
 10
-55.855200000000004
 20
67.135199999999998
 30
0.0
 10
-55.855200000000004
 20
67.135199999999998
 30
0.0
 10
-47.634300000000003
 20
67.135199999999998
 30
0.0
 10
-40.217300000000002
 20
63.687600000000003
 30
0.0
 10
-34.970799999999997
 20
58.159799999999997
 30
0.0
 10
-34.970799999999997
 20
58.159799999999997
 30
0.0
 10
-34.965000000000003
 20
57.895099999999999
 30
0.0
 10
-35.001199999999997
 20
57.668599999999998
 30
0.0
 10
-35.136299999999999
 20
57.303100000000001
 30
0.0
 10
-35.136299999999999
 20
57.303100000000001
 30
0.0
 10
-35.232199999999999
 20
57.043500000000002
 30
0.0
 10
-35.874000000000002
 20
55.896299999999997
 30
0.0
 10
-36.1464
 20
56.653100000000002
 30
0.0
 10
-36.1464
 20
56.653100000000002
 30
0.0
 10
-36.1464
 20
56.653100000000002
 30
0.0
 10
-36.227499999999999
 20
56.878900000000002
 30
0.0
 10
-36.227499999999999
 20
56.878900000000002
 30
0.0
 10
-36.227499999999999
 20
56.878900000000002
 30
0.0
 10
-36.451900000000002
 20
57.5017
 30
0.0
 10
-35.993600000000001
 20
58.000700000000002
 30
0.0
 10
-36.313400000000001
 20
58.8889
 30
0.0
 10
-36.313400000000001
 20
58.8889
 30
0.0
 10
-36.313400000000001
 20
58.8889
 30
0.0
 10
-36.516500000000001
 20
59.453499999999998
 30
0.0
 10
-36.516500000000001
 20
59.453499999999998
 30
0.0
 10
-36.516500000000001
 20
59.453499999999998
 30
0.0
 10
-36.516500000000001
 20
59.453499999999998
 30
0.0
 10
-36.8553
 20
59.331600000000002
 30
0.0
 10
-36.8553
 20
59.331600000000002
 30
0.0
 10
-36.8553
 20
59.331600000000002
 30
0.0
 10
-37.5822
 20
59.0702
 30
0.0
 10
-36.874499999999998
 20
57.7941
 30
0.0
 10
-37.496699999999997
 20
57.570099999999996
 30
0.0
 10
-37.496699999999997
 20
57.570099999999996
 30
0.0
 10
-37.496699999999997
 20
57.570099999999996
 30
0.0
 10
-37.609900000000003
 20
57.529499999999999
 30
0.0
 10
-37.609900000000003
 20
57.529499999999999
 30
0.0
 10
-37.609900000000003
 20
57.529499999999999
 30
0.0
 10
-38.028500000000001
 20
57.378700000000002
 30
0.0
 10
-39.147500000000001
 20
58.213200000000001
 30
0.0
 10
-39.750700000000002
 20
58.161999999999999
 30
0.0
 10
-39.750700000000002
 20
58.161999999999999
 30
0.0
 10
-39.750700000000002
 20
58.161999999999999
 30
0.0
 10
-38.542200000000001
 20
56.309399999999997
 30
0.0
 10
-38.542200000000001
 20
56.309399999999997
 30
0.0
 10
-38.542200000000001
 20
56.309399999999997
 30
0.0
 10
-40.168199999999999
 20
55.861899999999999
 30
0.0
 10
-42.308999999999997
 20
57.948900000000002
 30
0.0
 10
-42.975900000000003
 20
59.68
 30
0.0
 10
-42.975900000000003
 20
59.68
 30
0.0
 10
-42.975900000000003
 20
59.68
 30
0.0
 10
-44.283499999999997
 20
60.293599999999998
 30
0.0
 10
-44.283499999999997
 20
60.293599999999998
 30
0.0
 10
-44.283499999999997
 20
60.293599999999998
 30
0.0
 10
-44.164200000000001
 20
59.792499999999997
 30
0.0
 10
-43.771999999999998
 20
59.3934
 30
0.0
 10
-44.104999999999997
 20
59.273600000000002
 30
0.0
 10
-44.104999999999997
 20
59.273600000000002
 30
0.0
 10
-44.4313
 20
59.156199999999998
 30
0.0
 10
-46.828600000000002
 20
59.393099999999997
 30
0.0
 10
-47.108899999999998
 20
59.4681
 30
0.0
 10
-47.108899999999998
 20
59.4681
 30
0.0
 10
-47.108899999999998
 20
59.4681
 30
0.0
 10
-49.295099999999998
 20
58.808700000000002
 30
0.0
 10
-49.295099999999998
 20
58.808700000000002
 30
0.0
 10
-49.295099999999998
 20
58.808700000000002
 30
0.0
 10
-49.295099999999998
 20
58.808700000000002
 30
0.0
 10
-50.198500000000003
 20
58.483499999999999
 30
0.0
 10
-50.198500000000003
 20
58.483499999999999
 30
0.0
 10
-50.198500000000003
 20
58.483499999999999
 30
0.0
 10
-51.462200000000003
 20
58.028700000000001
 30
0.0
 10
-53.516800000000003
 20
56.726799999999997
 30
0.0
 10
-53.437399999999997
 20
55.787300000000002
 30
0.0
 10
-53.437399999999997
 20
55.787300000000002
 30
0.0
 10
-53.437399999999997
 20
55.787300000000002
 30
0.0
 10
-52.308
 20
56.193800000000003
 30
0.0
 10
-52.308
 20
56.193800000000003
 30
0.0
 10
-52.308
 20
56.193800000000003
 30
0.0
 10
-51.707000000000001
 20
56.409999999999997
 30
0.0
 10
-50.860500000000002
 20
56.339500000000001
 30
0.0
 10
-50.483199999999997
 20
56.085000000000001
 30
0.0
  0
SPLINE
  5
27
100
AcDbEntity
  8
RÚteg 1
 62
     7
100
AcDbSpline
210
0.0
220
0.0
230
1.0
 70
     1
 71
     3
 72
   240
 73
   236
 74
     0
 42
0.0000000001
 43
0.0000000001
 40
0.0
 40
0.0
 40
0.0
 40
0.0
 40
0.0169491525423729
 40
0.0169491525423729
 40
0.0169491525423729
 40
0.0169491525423729
 40
0.0338983050847458
 40
0.0338983050847458
 40
0.0338983050847458
 40
0.0338983050847458
 40
0.0508474576271186
 40
0.0508474576271186
 40
0.0508474576271186
 40
0.0508474576271186
 40
0.0677966101694915
 40
0.0677966101694915
 40
0.0677966101694915
 40
0.0677966101694915
 40
0.0847457627118644
 40
0.0847457627118644
 40
0.0847457627118644
 40
0.0847457627118644
 40
0.1016949152542373
 40
0.1016949152542373
 40
0.1016949152542373
 40
0.1016949152542373
 40
0.1186440677966102
 40
0.1186440677966102
 40
0.1186440677966102
 40
0.1186440677966102
 40
0.1355932203389831
 40
0.1355932203389831
 40
0.1355932203389831
 40
0.1355932203389831
 40
0.1525423728813559
 40
0.1525423728813559
 40
0.1525423728813559
 40
0.1525423728813559
 40
0.1694915254237288
 40
0.1694915254237288
 40
0.1694915254237288
 40
0.1694915254237288
 40
0.1864406779661017
 40
0.1864406779661017
 40
0.1864406779661017
 40
0.1864406779661017
 40
0.2033898305084746
 40
0.2033898305084746
 40
0.2033898305084746
 40
0.2033898305084746
 40
0.2203389830508475
 40
0.2203389830508475
 40
0.2203389830508475
 40
0.2203389830508475
 40
0.2372881355932204
 40
0.2372881355932204
 40
0.2372881355932204
 40
0.2372881355932204
 40
0.2542372881355933
 40
0.2542372881355933
 40
0.2542372881355933
 40
0.2542372881355933
 40
0.2711864406779662
 40
0.2711864406779662
 40
0.2711864406779662
 40
0.2711864406779662
 40
0.2881355932203391
 40
0.2881355932203391
 40
0.2881355932203391
 40
0.2881355932203391
 40
0.3050847457627119
 40
0.3050847457627119
 40
0.3050847457627119
 40
0.3050847457627119
 40
0.3220338983050848
 40
0.3220338983050848
 40
0.3220338983050848
 40
0.3220338983050848
 40
0.3389830508474577
 40
0.3389830508474577
 40
0.3389830508474577
 40
0.3389830508474577
 40
0.3559322033898306
 40
0.3559322033898306
 40
0.3559322033898306
 40
0.3559322033898306
 40
0.3728813559322035
 40
0.3728813559322035
 40
0.3728813559322035
 40
0.3728813559322035
 40
0.3898305084745764
 40
0.3898305084745764
 40
0.3898305084745764
 40
0.3898305084745764
 40
0.4067796610169493
 40
0.4067796610169493
 40
0.4067796610169493
 40
0.4067796610169493
 40
0.4237288135593222
 40
0.4237288135593222
 40
0.4237288135593222
 40
0.4237288135593222
 40
0.4406779661016951
 40
0.4406779661016951
 40
0.4406779661016951
 40
0.4406779661016951
 40
0.457627118644068
 40
0.457627118644068
 40
0.457627118644068
 40
0.457627118644068
 40
0.4745762711864409
 40
0.4745762711864409
 40
0.4745762711864409
 40
0.4745762711864409
 40
0.4915254237288138
 40
0.4915254237288138
 40
0.4915254237288138
 40
0.4915254237288138
 40
0.5084745762711866
 40
0.5084745762711866
 40
0.5084745762711866
 40
0.5084745762711866
 40
0.5254237288135595
 40
0.5254237288135595
 40
0.5254237288135595
 40
0.5254237288135595
 40
0.5423728813559323
 40
0.5423728813559323
 40
0.5423728813559323
 40
0.5423728813559323
 40
0.5593220338983052
 40
0.5593220338983052
 40
0.5593220338983052
 40
0.5593220338983052
 40
0.576271186440678
 40
0.576271186440678
 40
0.576271186440678
 40
0.576271186440678
 40
0.5932203389830508
 40
0.5932203389830508
 40
0.5932203389830508
 40
0.5932203389830508
 40
0.6101694915254237
 40
0.6101694915254237
 40
0.6101694915254237
 40
0.6101694915254237
 40
0.6271186440677965
 40
0.6271186440677965
 40
0.6271186440677965
 40
0.6271186440677965
 40
0.6440677966101693
 40
0.6440677966101693
 40
0.6440677966101693
 40
0.6440677966101693
 40
0.6610169491525422
 40
0.6610169491525422
 40
0.6610169491525422
 40
0.6610169491525422
 40
0.677966101694915
 40
0.677966101694915
 40
0.677966101694915
 40
0.677966101694915
 40
0.6949152542372878
 40
0.6949152542372878
 40
0.6949152542372878
 40
0.6949152542372878
 40
0.7118644067796607
 40
0.7118644067796607
 40
0.7118644067796607
 40
0.7118644067796607
 40
0.7288135593220335
 40
0.7288135593220335
 40
0.7288135593220335
 40
0.7288135593220335
 40
0.7457627118644064
 40
0.7457627118644064
 40
0.7457627118644064
 40
0.7457627118644064
 40
0.7627118644067792
 40
0.7627118644067792
 40
0.7627118644067792
 40
0.7627118644067792
 40
0.779661016949152
 40
0.779661016949152
 40
0.779661016949152
 40
0.779661016949152
 40
0.7966101694915249
 40
0.7966101694915249
 40
0.7966101694915249
 40
0.7966101694915249
 40
0.8135593220338977
 40
0.8135593220338977
 40
0.8135593220338977
 40
0.8135593220338977
 40
0.8305084745762705
 40
0.8305084745762705
 40
0.8305084745762705
 40
0.8305084745762705
 40
0.8474576271186434
 40
0.8474576271186434
 40
0.8474576271186434
 40
0.8474576271186434
 40
0.8644067796610162
 40
0.8644067796610162
 40
0.8644067796610162
 40
0.8644067796610162
 40
0.881355932203389
 40
0.881355932203389
 40
0.881355932203389
 40
0.881355932203389
 40
0.8983050847457619
 40
0.8983050847457619
 40
0.8983050847457619
 40
0.8983050847457619
 40
0.9152542372881347
 40
0.9152542372881347
 40
0.9152542372881347
 40
0.9152542372881347
 40
0.9322033898305075
 40
0.9322033898305075
 40
0.9322033898305075
 40
0.9322033898305075
 40
0.9491525423728804
 40
0.9491525423728804
 40
0.9491525423728804
 40
0.9491525423728804
 40
0.9661016949152532
 40
0.9661016949152532
 40
0.9661016949152532
 40
0.9661016949152532
 40
0.9830508474576261
 40
0.9830508474576261
 40
0.9830508474576261
 40
0.9830508474576261
 40
1.0
 40
1.0
 40
1.0
 40
1.0
 10
-52.085700000000003
 20
40.2166
 30
0.0
 10
-52.085700000000003
 20
40.2166
 30
0.0
 10
-51.930100000000003
 20
40.257800000000003
 30
0.0
 10
-51.930100000000003
 20
40.257800000000003
 30
0.0
 10
-51.930100000000003
 20
40.257800000000003
 30
0.0
 10
-51.930100000000003
 20
40.257800000000003
 30
0.0
 10
-51.580300000000001
 20
40.415199999999999
 30
0.0
 10
-51.580300000000001
 20
40.415199999999999
 30
0.0
 10
-51.580300000000001
 20
40.415199999999999
 30
0.0
 10
-51.580300000000001
 20
40.415199999999999
 30
0.0
 10
-50.023800000000001
 20
39.923499999999997
 30
0.0
 10
-50.023800000000001
 20
39.923499999999997
 30
0.0
 10
-50.023800000000001
 20
39.923499999999997
 30
0.0
 10
-49.987499999999997
 20
39.5946
 30
0.0
 10
-50.060000000000002
 20
39.670000000000002
 30
0.0
 10
-49.974499999999999
 20
39.4313
 30
0.0
 10
-49.974499999999999
 20
39.4313
 30
0.0
 10
-49.834600000000002
 20
39.042999999999999
 30
0.0
 10
-49.140099999999997
 20
39.731499999999997
 30
0.0
 10
-48.619100000000003
 20
39.918900000000001
 30
0.0
 10
-48.619100000000003
 20
39.918900000000001
 30
0.0
 10
-48.619100000000003
 20
39.918900000000001
 30
0.0
 10
-47.941499999999998
 20
40.162799999999997
 30
0.0
 10
-47.941499999999998
 20
40.162799999999997
 30
0.0
 10
-47.941499999999998
 20
40.162799999999997
 30
0.0
 10
-47.519300000000001
 20
40.314700000000002
 30
0.0
 10
-46.831499999999998
 20
39.795999999999999
 30
0.0
 10
-46.610100000000003
 20
39.3292
 30
0.0
 10
-46.610100000000003
 20
39.3292
 30
0.0
 10
-46.610100000000003
 20
39.3292
 30
0.0
 10
-45.809600000000003
 20
39.909500000000001
 30
0.0
 10
-45.809600000000003
 20
39.909500000000001
 30
0.0
 10
-45.809600000000003
 20
39.909500000000001
 30
0.0
 10
-44.067
 20
40.536900000000003
 30
0.0
 10
-43.5548
 20
39.828099999999999
 30
0.0
 10
-43.3795
 20
39.891399999999997
 30
0.0
 10
-43.3795
 20
39.891399999999997
 30
0.0
 10
-43.000100000000003
 20
40.027799999999999
 30
0.0
 10
-43.024099999999997
 20
40.784500000000001
 30
0.0
 10
-42.042299999999997
 20
41.137799999999999
 30
0.0
 10
-42.042299999999997
 20
41.137799999999999
 30
0.0
 10
-41.616700000000002
 20
41.2911
 30
0.0
 10
-41.175800000000002
 20
40.669699999999999
 30
0.0
 10
-40.8902
 20
40.4193
 30
0.0
 10
-40.8902
 20
40.4193
 30
0.0
 10
-40.8902
 20
40.4193
 30
0.0
 10
-39.9422
 20
40.618299999999998
 30
0.0
 10
-39.9422
 20
40.618299999999998
 30
0.0
 10
-39.9422
 20
40.618299999999998
 30
0.0
 10
-39.9422
 20
40.618299999999998
 30
0.0
 10
-39.212299999999999
 20
40.631900000000002
 30
0.0
 10
-39.212299999999999
 20
40.631900000000002
 30
0.0
 10
-39.212299999999999
 20
40.631900000000002
 30
0.0
 10
-39.212299999999999
 20
40.631900000000002
 30
0.0
 10
-39.3142
 20
41.354500000000002
 30
0.0
 10
-39.3142
 20
41.354500000000002
 30
0.0
 10
-39.3142
 20
41.354500000000002
 30
0.0
 10
-39.3142
 20
41.354500000000002
 30
0.0
 10
-39.878799999999998
 20
41.151200000000003
 30
0.0
 10
-39.878799999999998
 20
41.151200000000003
 30
0.0
 10
-39.878799999999998
 20
41.151200000000003
 30
0.0
 10
-40.000900000000001
 20
41.516100000000002
 30
0.0
 10
-40.118600000000001
 20
41.702599999999997
 30
0.0
 10
-39.743099999999998
 20
41.837800000000001
 30
0.0
 10
-39.743099999999998
 20
41.837800000000001
 30
0.0
 10
-39.743099999999998
 20
41.837800000000001
 30
0.0
 10
-39.404400000000003
 20
41.959699999999998
 30
0.0
 10
-39.404400000000003
 20
41.959699999999998
 30
0.0
 10
-39.404400000000003
 20
41.959699999999998
 30
0.0
 10
-39.102499999999999
 20
42.068300000000001
 30
0.0
 10
-39.011600000000001
 20
41.916800000000002
 30
0.0
 10
-38.836199999999998
 20
41.810000000000002
 30
0.0
 10
-38.836199999999998
 20
41.810000000000002
 30
0.0
 10
-38.836199999999998
 20
41.810000000000002
 30
0.0
 10
-38.1126
 20
41.914299999999997
 30
0.0
 10
-38.1126
 20
41.914299999999997
 30
0.0
 10
-38.1126
 20
41.914299999999997
 30
0.0
 10
-38.700800000000001
 20
43.441600000000001
 30
0.0
 10
-39.794199999999996
 20
42.6175
 30
0.0
 10
-40.271500000000003
 20
43.305900000000001
 30
0.0
 10
-40.271500000000003
 20
43.305900000000001
 30
0.0
 10
-39.994700000000002
 20
43.487499999999997
 30
0.0
 10
-40.099200000000003
 20
43.4953
 30
0.0
 10
-39.860599999999998
 20
43.581400000000002
 30
0.0
 10
-39.860599999999998
 20
43.581400000000002
 30
0.0
 10
-39.442900000000002
 20
43.731400000000001
 30
0.0
 10
-39.252899999999997
 20
43.589599999999997
 30
0.0
 10
-38.762799999999999
 20
43.721499999999999
 30
0.0
 10
-38.762799999999999
 20
43.721499999999999
 30
0.0
 10
-38.762799999999999
 20
43.721499999999999
 30
0.0
 10
-38.966099999999997
 20
44.285800000000002
 30
0.0
 10
-38.966099999999997
 20
44.285800000000002
 30
0.0
 10
-38.966099999999997
 20
44.285800000000002
 30
0.0
 10
-39.113
 20
44.694200000000002
 30
0.0
 10
-38.262099999999997
 20
45.687100000000001
 30
0.0
 10
-37.637900000000002
 20
45.911900000000003
 30
0.0
 10
-37.637900000000002
 20
45.911900000000003
 30
0.0
 10
-37.637900000000002
 20
45.911900000000003
 30
0.0
 10
-37.186300000000003
 20
46.074599999999997
 30
0.0
 10
-37.186300000000003
 20
46.074599999999997
 30
0.0
 10
-37.186300000000003
 20
46.074599999999997
 30
0.0
 10
-37.186300000000003
 20
46.074599999999997
 30
0.0
 10
-37.348700000000001
 20
46.5261
 30
0.0
 10
-37.348700000000001
 20
46.5261
 30
0.0
 10
-37.348700000000001
 20
46.5261
 30
0.0
 10
-37.686799999999998
 20
47.465299999999999
 30
0.0
 10
-36.829799999999999
 20
48.9221
 30
0.0
 10
-35.934699999999999
 20
49.331000000000003
 30
0.0
 10
-35.934699999999999
 20
49.331000000000003
 30
0.0
 10
-36.3934
 20
50.039499999999997
 30
0.0
 10
-36.079500000000003
 20
51.111699999999999
 30
0.0
 10
-35.4559
 20
51.5443
 30
0.0
 10
-35.4559
 20
51.5443
 30
0.0
 10
-35.4559
 20
51.5443
 30
0.0
 10
-34.448399999999999
 20
52.289400000000001
 30
0.0
 10
-34.448399999999999
 20
52.289400000000001
 30
0.0
 10
-34.448399999999999
 20
52.289400000000001
 30
0.0
 10
-34.448399999999999
 20
52.289400000000001
 30
0.0
 10
-34.5443
 20
52.5899
 30
0.0
 10
-34.5443
 20
52.5899
 30
0.0
 10
-34.5443
 20
52.5899
 30
0.0
 10
-34.5443
 20
52.5899
 30
0.0
 10
-36.9101
 20
52.0413
 30
0.0
 10
-36.9101
 20
52.0413
 30
0.0
 10
-36.9101
 20
52.0413
 30
0.0
 10
-36.464700000000001
 20
52.838099999999997
 30
0.0
 10
-35.3992
 20
52.450200000000002
 30
0.0
 10
-36.051699999999997
 20
54.263399999999997
 30
0.0
 10
-36.051699999999997
 20
54.263399999999997
 30
0.0
 10
-35.866199999999999
 20
54.515500000000003
 30
0.0
 10
-35.797800000000002
 20
54.737699999999997
 30
0.0
 10
-35.383299999999998
 20
54.887099999999997
 30
0.0
 10
-35.383299999999998
 20
54.887099999999997
 30
0.0
 10
-35.383299999999998
 20
54.887099999999997
 30
0.0
 10
-34.818399999999997
 20
55.0901
 30
0.0
 10
-34.818399999999997
 20
55.0901
 30
0.0
 10
-34.818399999999997
 20
55.0901
 30
0.0
 10
-34.270200000000003
 20
55.287399999999998
 30
0.0
 10
-33.803400000000003
 20
54.9452
 30
0.0
 10
-33.413899999999998
 20
55.0854
 30
0.0
 10
-33.413899999999998
 20
55.0854
 30
0.0
 10
-33.095700000000001
 20
55.200000000000003
 30
0.0
 10
-33.222299999999997
 20
55.209299999999999
 30
0.0
 10
-33.156399999999998
 20
55.433399999999999
 30
0.0
 10
-33.156399999999998
 20
55.433399999999999
 30
0.0
 10
-33.140900000000002
 20
55.583199999999998
 30
0.0
 10
-33.104799999999997
 20
55.746099999999998
 30
0.0
 10
-33.049100000000003
 20
55.914299999999997
 30
0.0
 10
-33.049100000000003
 20
55.914299999999997
 30
0.0
 10
-29.296700000000001
 20
51.052
 30
0.0
 10
-27.063199999999998
 20
44.958199999999998
 30
0.0
 10
-27.063199999999998
 20
38.343000000000004
 30
0.0
 10
-27.063199999999998
 20
38.343000000000004
 30
0.0
 10
-27.063199999999998
 20
23.905100000000001
 30
0.0
 10
-37.6965
 20
11.946300000000001
 30
0.0
 10
-51.557200000000002
 20
9.8707999999999991
 30
0.0
 10
-51.557200000000002
 20
9.8707999999999991
 30
0.0
 10
-51.866799999999998
 20
10.053699999999999
 30
0.0
 10
-52.309899999999999
 20
10.181900000000001
 30
0.0
 10
-52.566800000000001
 20
10.2614
 30
0.0
 10
-52.566800000000001
 20
10.2614
 30
0.0
 10
-53.041400000000003
 20
10.4084
 30
0.0
 10
-53.285400000000003
 20
10.704700000000001
 30
0.0
 10
-53.658499999999997
 20
11.0627
 30
0.0
 10
-53.658499999999997
 20
11.0627
 30
0.0
 10
-54.319600000000001
 20
11.6973
 30
0.0
 10
-54.283200000000001
 20
13.2804
 30
0.0
 10
-54.283000000000001
 20
14.2751
 30
0.0
 10
-54.283000000000001
 20
14.2751
 30
0.0
 10
-54.283000000000001
 20
15.167299999999999
 30
0.0
 10
-54.489100000000001
 20
17.222300000000001
 30
0.0
 10
-54.159500000000001
 20
17.886399999999998
 30
0.0
 10
-54.159500000000001
 20
17.886399999999998
 30
0.0
 10
-54.0184
 20
18.171199999999999
 30
0.0
 10
-53.950200000000002
 20
18.865600000000001
 30
0.0
 10
-53.727400000000003
 20
19.347100000000001
 30
0.0
 10
-53.727400000000003
 20
19.347100000000001
 30
0.0
 10
-53.552700000000002
 20
19.724599999999999
 30
0.0
 10
-53.217799999999997
 20
20.291699999999999
 30
0.0
 10
-53.149900000000002
 20
20.662700000000001
 30
0.0
 10
-53.149900000000002
 20
20.662700000000001
 30
0.0
 10
-53.092599999999997
 20
20.9773
 30
0.0
 10
-51.914700000000003
 20
22.7211
 30
0.0
 10
-51.695900000000002
 20
23.0458
 30
0.0
 10
-51.695900000000002
 20
23.0458
 30
0.0
 10
-51.2712
 20
23.676100000000002
 30
0.0
 10
-50.628900000000002
 20
24.8062
 30
0.0
 10
-50.3048
 20
25.491499999999998
 30
0.0
 10
-50.3048
 20
25.491499999999998
 30
0.0
 10
-49.422499999999999
 20
27.355499999999999
 30
0.0
 10
-48.4009
 20
28.9116
 30
0.0
 10
-48.4009
 20
31.2105
 30
0.0
 10
-48.4009
 20
31.2105
 30
0.0
 10
-47.456800000000001
 20
31.212
 30
0.0
 10
-47.450800000000001
 20
31.773599999999998
 30
0.0
 10
-46.3217
 20
31.499600000000001
 30
0.0
 10
-46.3217
 20
31.499600000000001
 30
0.0
 10
-45.5929
 20
31.322600000000001
 30
0.0
 10
-45.220599999999997
 20
30.9343
 30
0.0
 10
-44.576799999999999
 20
31.632000000000001
 30
0.0
 10
-44.576799999999999
 20
31.632000000000001
 30
0.0
 10
-43.247100000000003
 20
33.073399999999999
 30
0.0
 10
-39.407699999999998
 20
33.871499999999997
 30
0.0
 10
-37.560400000000001
 20
34.488399999999999
 30
0.0
 10
-37.560400000000001
 20
34.488399999999999
 30
0.0
 10
-36.369999999999997
 20
34.8857
 30
0.0
 10
-35.103099999999998
 20
35.380699999999997
 30
0.0
 10
-33.874099999999999
 20
35.712899999999998
 30
0.0
 10
-33.874099999999999
 20
35.712899999999998
 30
0.0
 10
-33.369100000000003
 20
36.810000000000002
 30
0.0
 10
-33.413600000000002
 20
37.145699999999998
 30
0.0
 10
-34.641199999999998
 20
37.145699999999998
 30
0.0
 10
-34.641199999999998
 20
37.145699999999998
 30
0.0
 10
-37.303699999999999
 20
36.373100000000001
 30
0.0
 10
-39.966000000000001
 20
35.600499999999997
 30
0.0
 10
-42.628399999999999
 20
34.827800000000003
 30
0.0
 10
-42.628399999999999
 20
34.827800000000003
 30
0.0
 10
-42.621400000000001
 20
34.803400000000003
 30
0.0
 10
-42.6145
 20
34.778799999999997
 30
0.0
 10
-42.607500000000002
 20
34.754300000000001
 30
0.0
 10
-42.607500000000002
 20
34.754300000000001
 30
0.0
 10
-43.798200000000001
 20
35.920099999999998
 30
0.0
 10
-46.554099999999998
 20
34.935200000000002
 30
0.0
 10
-47.582500000000003
 20
36.3782
 30
0.0
 10
-47.582500000000003
 20
36.3782
 30
0.0
 10
-47.402799999999999
 20
36.750599999999999
 30
0.0
 10
-47.223199999999999
 20
37.123199999999997
 30
0.0
 10
-47.043500000000002
 20
37.495699999999999
 30
0.0
 10
-47.043500000000002
 20
37.495699999999999
 30
0.0
 10
-47.546999999999997
 20
37.781999999999996
 30
0.0
 10
-50.515599999999999
 20
39.240400000000001
 30
0.0
 10
-50.691200000000002
 20
39.408200000000001
 30
0.0
 10
-50.691200000000002
 20
39.408200000000001
 30
0.0
 10
-50.9041
 20
39.611600000000003
 30
0.0
 10
-51.591000000000001
 20
39.972799999999999
 30
0.0
 10
-52.085700000000003
 20
40.2166
 30
0.0
  0
SPLINE
  5
28
100
AcDbEntity
  8
RÚteg 1
 62
     7
100
AcDbSpline
210
0.0
220
0.0
230
1.0
 70
     1
 71
     3
 72
   320
 73
   316
 74
     0
 42
0.0000000001
 43
0.0000000001
 40
0.0
 40
0.0
 40
0.0
 40
0.0
 40
0.0126582278481013
 40
0.0126582278481013
 40
0.0126582278481013
 40
0.0126582278481013
 40
0.0253164556962025
 40
0.0253164556962025
 40
0.0253164556962025
 40
0.0253164556962025
 40
0.0379746835443038
 40
0.0379746835443038
 40
0.0379746835443038
 40
0.0379746835443038
 40
0.0506329113924051
 40
0.0506329113924051
 40
0.0506329113924051
 40
0.0506329113924051
 40
0.0632911392405063
 40
0.0632911392405063
 40
0.0632911392405063
 40
0.0632911392405063
 40
0.0759493670886076
 40
0.0759493670886076
 40
0.0759493670886076
 40
0.0759493670886076
 40
0.0886075949367089
 40
0.0886075949367089
 40
0.0886075949367089
 40
0.0886075949367089
 40
0.1012658227848101
 40
0.1012658227848101
 40
0.1012658227848101
 40
0.1012658227848101
 40
0.1139240506329114
 40
0.1139240506329114
 40
0.1139240506329114
 40
0.1139240506329114
 40
0.1265822784810127
 40
0.1265822784810127
 40
0.1265822784810127
 40
0.1265822784810127
 40
0.1392405063291139
 40
0.1392405063291139
 40
0.1392405063291139
 40
0.1392405063291139
 40
0.1518987341772152
 40
0.1518987341772152
 40
0.1518987341772152
 40
0.1518987341772152
 40
0.1645569620253165
 40
0.1645569620253165
 40
0.1645569620253165
 40
0.1645569620253165
 40
0.1772151898734178
 40
0.1772151898734178
 40
0.1772151898734178
 40
0.1772151898734178
 40
0.1898734177215191
 40
0.1898734177215191
 40
0.1898734177215191
 40
0.1898734177215191
 40
0.2025316455696203
 40
0.2025316455696203
 40
0.2025316455696203
 40
0.2025316455696203
 40
0.2151898734177216
 40
0.2151898734177216
 40
0.2151898734177216
 40
0.2151898734177216
 40
0.2278481012658229
 40
0.2278481012658229
 40
0.2278481012658229
 40
0.2278481012658229
 40
0.2405063291139242
 40
0.2405063291139242
 40
0.2405063291139242
 40
0.2405063291139242
 40
0.2531645569620254
 40
0.2531645569620254
 40
0.2531645569620254
 40
0.2531645569620254
 40
0.2658227848101267
 40
0.2658227848101267
 40
0.2658227848101267
 40
0.2658227848101267
 40
0.278481012658228
 40
0.278481012658228
 40
0.278481012658228
 40
0.278481012658228
 40
0.2911392405063293
 40
0.2911392405063293
 40
0.2911392405063293
 40
0.2911392405063293
 40
0.3037974683544306
 40
0.3037974683544306
 40
0.3037974683544306
 40
0.3037974683544306
 40
0.3164556962025318
 40
0.3164556962025318
 40
0.3164556962025318
 40
0.3164556962025318
 40
0.3291139240506331
 40
0.3291139240506331
 40
0.3291139240506331
 40
0.3291139240506331
 40
0.3417721518987344
 40
0.3417721518987344
 40
0.3417721518987344
 40
0.3417721518987344
 40
0.3544303797468357
 40
0.3544303797468357
 40
0.3544303797468357
 40
0.3544303797468357
 40
0.3670886075949369
 40
0.3670886075949369
 40
0.3670886075949369
 40
0.3670886075949369
 40
0.3797468354430382
 40
0.3797468354430382
 40
0.3797468354430382
 40
0.3797468354430382
 40
0.3924050632911395
 40
0.3924050632911395
 40
0.3924050632911395
 40
0.3924050632911395
 40
0.4050632911392408
 40
0.4050632911392408
 40
0.4050632911392408
 40
0.4050632911392408
 40
0.4177215189873421
 40
0.4177215189873421
 40
0.4177215189873421
 40
0.4177215189873421
 40
0.4303797468354433
 40
0.4303797468354433
 40
0.4303797468354433
 40
0.4303797468354433
 40
0.4430379746835446
 40
0.4430379746835446
 40
0.4430379746835446
 40
0.4430379746835446
 40
0.4556962025316459
 40
0.4556962025316459
 40
0.4556962025316459
 40
0.4556962025316459
 40
0.4683544303797472
 40
0.4683544303797472
 40
0.4683544303797472
 40
0.4683544303797472
 40
0.4810126582278484
 40
0.4810126582278484
 40
0.4810126582278484
 40
0.4810126582278484
 40
0.4936708860759497
 40
0.4936708860759497
 40
0.4936708860759497
 40
0.4936708860759497
 40
0.506329113924051
 40
0.506329113924051
 40
0.506329113924051
 40
0.506329113924051
 40
0.5189873417721522
 40
0.5189873417721522
 40
0.5189873417721522
 40
0.5189873417721522
 40
0.5316455696202534
 40
0.5316455696202534
 40
0.5316455696202534
 40
0.5316455696202534
 40
0.5443037974683547
 40
0.5443037974683547
 40
0.5443037974683547
 40
0.5443037974683547
 40
0.5569620253164559
 40
0.5569620253164559
 40
0.5569620253164559
 40
0.5569620253164559
 40
0.5696202531645571
 40
0.5696202531645571
 40
0.5696202531645571
 40
0.5696202531645571
 40
0.5822784810126583
 40
0.5822784810126583
 40
0.5822784810126583
 40
0.5822784810126583
 40
0.5949367088607596
 40
0.5949367088607596
 40
0.5949367088607596
 40
0.5949367088607596
 40
0.6075949367088608
 40
0.6075949367088608
 40
0.6075949367088608
 40
0.6075949367088608
 40
0.620253164556962
 40
0.620253164556962
 40
0.620253164556962
 40
0.620253164556962
 40
0.6329113924050632
 40
0.6329113924050632
 40
0.6329113924050632
 40
0.6329113924050632
 40
0.6455696202531644
 40
0.6455696202531644
 40
0.6455696202531644
 40
0.6455696202531644
 40
0.6582278481012657
 40
0.6582278481012657
 40
0.6582278481012657
 40
0.6582278481012657
 40
0.6708860759493669
 40
0.6708860759493669
 40
0.6708860759493669
 40
0.6708860759493669
 40
0.6835443037974681
 40
0.6835443037974681
 40
0.6835443037974681
 40
0.6835443037974681
 40
0.6962025316455693
 40
0.6962025316455693
 40
0.6962025316455693
 40
0.6962025316455693
 40
0.7088607594936706
 40
0.7088607594936706
 40
0.7088607594936706
 40
0.7088607594936706
 40
0.7215189873417718
 40
0.7215189873417718
 40
0.7215189873417718
 40
0.7215189873417718
 40
0.734177215189873
 40
0.734177215189873
 40
0.734177215189873
 40
0.734177215189873
 40
0.7468354430379742
 40
0.7468354430379742
 40
0.7468354430379742
 40
0.7468354430379742
 40
0.7594936708860754
 40
0.7594936708860754
 40
0.7594936708860754
 40
0.7594936708860754
 40
0.7721518987341767
 40
0.7721518987341767
 40
0.7721518987341767
 40
0.7721518987341767
 40
0.7848101265822779
 40
0.7848101265822779
 40
0.7848101265822779
 40
0.7848101265822779
 40
0.7974683544303791
 40
0.7974683544303791
 40
0.7974683544303791
 40
0.7974683544303791
 40
0.8101265822784803
 40
0.8101265822784803
 40
0.8101265822784803
 40
0.8101265822784803
 40
0.8227848101265816
 40
0.8227848101265816
 40
0.8227848101265816
 40
0.8227848101265816
 40
0.8354430379746828
 40
0.8354430379746828
 40
0.8354430379746828
 40
0.8354430379746828
 40
0.848101265822784
 40
0.848101265822784
 40
0.848101265822784
 40
0.848101265822784
 40
0.8607594936708852
 40
0.8607594936708852
 40
0.8607594936708852
 40
0.8607594936708852
 40
0.8734177215189865
 40
0.8734177215189865
 40
0.8734177215189865
 40
0.8734177215189865
 40
0.8860759493670877
 40
0.8860759493670877
 40
0.8860759493670877
 40
0.8860759493670877
 40
0.8987341772151889
 40
0.8987341772151889
 40
0.8987341772151889
 40
0.8987341772151889
 40
0.9113924050632901
 40
0.9113924050632901
 40
0.9113924050632901
 40
0.9113924050632901
 40
0.9240506329113913
 40
0.9240506329113913
 40
0.9240506329113913
 40
0.9240506329113913
 40
0.9367088607594926
 40
0.9367088607594926
 40
0.9367088607594926
 40
0.9367088607594926
 40
0.9493670886075938
 40
0.9493670886075938
 40
0.9493670886075938
 40
0.9493670886075938
 40
0.962025316455695
 40
0.962025316455695
 40
0.962025316455695
 40
0.962025316455695
 40
0.9746835443037962
 40
0.9746835443037962
 40
0.9746835443037962
 40
0.9746835443037962
 40
0.9873417721518975
 40
0.9873417721518975
 40
0.9873417721518975
 40
0.9873417721518975
 40
1.0
 40
1.0
 40
1.0
 40
1.0
 10
-30.296099999999999
 20
59.062600000000003
 30
0.0
 10
-30.293399999999998
 20
59.2819
 30
0.0
 10
-30.246099999999998
 20
59.4953
 30
0.0
 10
-30.219799999999999
 20
59.678899999999999
 30
0.0
 10
-30.219799999999999
 20
59.678899999999999
 30
0.0
 10
-30.219799999999999
 20
59.678899999999999
 30
0.0
 10
-30.147600000000001
 20
59.832500000000003
 30
0.0
 10
-30.147600000000001
 20
59.832500000000003
 30
0.0
 10
-30.147600000000001
 20
59.832500000000003
 30
0.0
 10
-30.147600000000001
 20
59.832500000000003
 30
0.0
 10
-30.043800000000001
 20
60.252600000000001
 30
0.0
 10
-30.043800000000001
 20
60.252600000000001
 30
0.0
 10
-30.043800000000001
 20
60.252600000000001
 30
0.0
 10
-29.4818
 20
60.454799999999999
 30
0.0
 10
-29.191500000000001
 20
60.662199999999999
 30
0.0
 10
-28.7102
 20
60.938000000000002
 30
0.0
 10
-28.7102
 20
60.938000000000002
 30
0.0
 10
-28.164200000000001
 20
61.250999999999998
 30
0.0
 10
-27.348500000000001
 20
61.269799999999996
 30
0.0
 10
-27.455400000000001
 20
61.567
 30
0.0
 10
-27.455400000000001
 20
61.567
 30
0.0
 10
-27.566800000000001
 20
61.875999999999998
 30
0.0
 10
-27.813800000000001
 20
61.8538
 30
0.0
 10
-27.9251
 20
62.1631
 30
0.0
 10
-27.9251
 20
62.1631
 30
0.0
 10
-28.1127
 20
62.684399999999997
 30
0.0
 10
-27.1326
 20
64.319699999999997
 30
0.0
 10
-26.5426
 20
64.701300000000003
 30
0.0
 10
-26.5426
 20
64.701300000000003
 30
0.0
 10
-26.337900000000001
 20
65.067599999999999
 30
0.0
 10
-25.8888
 20
65.446899999999999
 30
0.0
 10
-25.350200000000001
 20
65.641000000000005
 30
0.0
 10
-25.350200000000001
 20
65.641000000000005
 30
0.0
 10
-25.350200000000001
 20
65.641000000000005
 30
0.0
 10
-24.559699999999999
 20
65.925299999999993
 30
0.0
 10
-24.559699999999999
 20
65.925299999999993
 30
0.0
 10
-24.559699999999999
 20
65.925299999999993
 30
0.0
 10
-24.986699999999999
 20
66.5411
 30
0.0
 10
-26.414200000000001
 20
66.405600000000007
 30
0.0
 10
-27.297000000000001
 20
66.088099999999997
 30
0.0
 10
-27.297000000000001
 20
66.088099999999997
 30
0.0
 10
-28.3916
 20
65.694400000000002
 30
0.0
 10
-29.096
 20
65.038700000000006
 30
0.0
 10
-29.916799999999999
 20
64.507400000000004
 30
0.0
 10
-29.916799999999999
 20
64.507400000000004
 30
0.0
 10
-30.1295
 20
64.291700000000006
 30
0.0
 10
-31.925999999999998
 20
63.019199999999998
 30
0.0
 10
-32.270400000000002
 20
62.8949
 30
0.0
 10
-32.270400000000002
 20
62.8949
 30
0.0
 10
-32.270400000000002
 20
62.8949
 30
0.0
 10
-33.1738
 20
62.570099999999996
 30
0.0
 10
-33.1738
 20
62.570099999999996
 30
0.0
 10
-33.1738
 20
62.570099999999996
 30
0.0
 10
-33.342700000000001
 20
62.5092
 30
0.0
 10
-33.425899999999999
 20
62.497799999999998
 30
0.0
 10
-33.513199999999998
 20
62.494700000000002
 30
0.0
 10
-33.513199999999998
 20
62.494700000000002
 30
0.0
 10
-33.621200000000002
 20
62.5944
 30
0.0
 10
-33.729999999999997
 20
62.6937
 30
0.0
 10
-33.839300000000001
 20
62.792299999999997
 30
0.0
 10
-33.839300000000001
 20
62.792299999999997
 30
0.0
 10
-33.839300000000001
 20
62.792299999999997
 30
0.0
 10
-33.939900000000002
 20
63.312600000000003
 30
0.0
 10
-33.939900000000002
 20
63.312600000000003
 30
0.0
 10
-33.939900000000002
 20
63.312600000000003
 30
0.0
 10
-33.939900000000002
 20
63.312600000000003
 30
0.0
 10
-34.144500000000001
 20
63.064999999999998
 30
0.0
 10
-34.144500000000001
 20
63.064999999999998
 30
0.0
 10
-34.144500000000001
 20
63.064999999999998
 30
0.0
 10
-38.875399999999999
 20
67.222899999999996
 30
0.0
 10
-44.809399999999997
 20
70.045000000000002
 30
0.0
 10
-51.356200000000001
 20
70.940700000000007
 30
0.0
 10
-51.356200000000001
 20
70.940700000000007
 30
0.0
 10
-50.566499999999998
 20
71.926699999999997
 30
0.0
 10
-50.093899999999998
 20
73.177499999999995
 30
0.0
 10
-50.093899999999998
 20
74.538799999999995
 30
0.0
 10
-50.093899999999998
 20
74.538799999999995
 30
0.0
 10
-50.093899999999998
 20
77.719899999999996
 30
0.0
 10
-52.673900000000003
 20
80.299999999999997
 30
0.0
 10
-55.855200000000004
 20
80.299999999999997
 30
0.0
 10
-55.855200000000004
 20
80.299999999999997
 30
0.0
 10
-59.036499999999997
 20
80.299999999999997
 30
0.0
 10
-61.616500000000002
 20
77.719899999999996
 30
0.0
 10
-61.616500000000002
 20
74.538799999999995
 30
0.0
 10
-61.616500000000002
 20
74.538799999999995
 30
0.0
 10
-61.616500000000002
 20
73.177499999999995
 30
0.0
 10
-61.143799999999999
 20
71.926699999999997
 30
0.0
 10
-60.354100000000003
 20
70.940700000000007
 30
0.0
 10
-60.354100000000003
 20
70.940700000000007
 30
0.0
 10
-76.396000000000001
 20
68.745900000000006
 30
0.0
 10
-88.760400000000004
 20
54.986699999999999
 30
0.0
 10
-88.760400000000004
 20
38.343000000000004
 30
0.0
 10
-88.760400000000004
 20
38.343000000000004
 30
0.0
 10
-88.760400000000004
 20
36.629300000000001
 30
0.0
 10
-88.628799999999998
 20
34.945999999999998
 30
0.0
 10
-88.376300000000001
 20
33.302700000000002
 30
0.0
 10
-88.376300000000001
 20
33.302700000000002
 30
0.0
 10
-88.554199999999994
 20
33.020099999999999
 30
0.0
 10
-88.885300000000001
 20
32.4925
 30
0.0
 10
-88.913899999999998
 20
32.440300000000001
 30
0.0
 10
-88.913899999999998
 20
32.440300000000001
 30
0.0
 10
-88.934399999999997
 20
32.402999999999999
 30
0.0
 10
-89.622399999999999
 20
31.480899999999998
 30
0.0
 10
-89.632400000000004
 20
31.470600000000001
 30
0.0
 10
-89.632400000000004
 20
31.470600000000001
 30
0.0
 10
-90.186000000000007
 20
30.896999999999998
 30
0.0
 10
-91.714299999999994
 20
31.875599999999999
 30
0.0
 10
-92.236800000000002
 20
31.875599999999999
 30
0.0
 10
-92.236800000000002
 20
31.875599999999999
 30
0.0
 10
-92.424400000000006
 20
31.875599999999999
 30
0.0
 10
-92.611900000000006
 20
31.875599999999999
 30
0.0
 10
-92.799400000000006
 20
31.875599999999999
 30
0.0
 10
-92.799400000000006
 20
31.875599999999999
 30
0.0
 10
-93.490099999999998
 20
31.875599999999999
 30
0.0
 10
-94.078100000000006
 20
28.981100000000001
 30
0.0
 10
-94.078100000000006
 20
28.345300000000002
 30
0.0
 10
-94.078100000000006
 20
28.345300000000002
 30
0.0
 10
-94.061099999999996
 20
28.345300000000002
 30
0.0
 10
-94.043999999999997
 20
28.345300000000002
 30
0.0
 10
-94.027100000000004
 20
28.345300000000002
 30
0.0
 10
-94.027100000000004
 20
28.345300000000002
 30
0.0
 10
-93.084400000000002
 20
28.345300000000002
 30
0.0
 10
-92.610399999999998
 20
28.908799999999999
 30
0.0
 10
-91.753900000000002
 20
29.141300000000001
 30
0.0
 10
-91.753900000000002
 20
29.141300000000001
 30
0.0
 10
-91.260000000000005
 20
29.275600000000001
 30
0.0
 10
-90.072000000000003
 20
29.880299999999998
 30
0.0
 10
-89.474699999999999
 20
29.880299999999998
 30
0.0
 10
-89.474699999999999
 20
29.880299999999998
 30
0.0
 10
-89.338399999999993
 20
29.880299999999998
 30
0.0
 10
-89.201899999999995
 20
29.880299999999998
 30
0.0
 10
-89.065399999999997
 20
29.880299999999998
 30
0.0
 10
-89.065399999999997
 20
29.880299999999998
 30
0.0
 10
-88.758899999999997
 20
29.880299999999998
 30
0.0
 10
-88.144199999999998
 20
29.329999999999998
 30
0.0
 10
-87.921899999999994
 20
29.079599999999999
 30
0.0
 10
-87.921899999999994
 20
29.079599999999999
 30
0.0
 10
-87.883200000000002
 20
29.035900000000002
 30
0.0
 10
-87.418099999999995
 20
27.8719
 30
0.0
 10
-87.338099999999997
 20
27.7194
 30
0.0
 10
-87.338099999999997
 20
27.7194
 30
0.0
 10
-87.041700000000006
 20
27.152000000000001
 30
0.0
 10
-86.829300000000003
 20
26.031400000000001
 30
0.0
 10
-86.210800000000006
 20
25.626000000000001
 30
0.0
 10
-86.210800000000006
 20
25.626000000000001
 30
0.0
 10
-86.074799999999996
 20
25.3018
 30
0.0
 10
-85.933300000000003
 20
24.980399999999999
 30
0.0
 10
-85.787199999999999
 20
24.6616
 30
0.0
 10
-85.787199999999999
 20
24.6616
 30
0.0
 10
-85.787199999999999
 20
24.6616
 30
0.0
 10
-90.088399999999993
 20
24.6616
 30
0.0
 10
-90.088399999999993
 20
24.6616
 30
0.0
 10
-90.088399999999993
 20
24.6616
 30
0.0
 10
-89.934899999999999
 20
24.6616
 30
0.0
 10
-89.781599999999997
 20
24.6616
 30
0.0
 10
-89.628200000000007
 20
24.6616
 30
0.0
 10
-89.628200000000007
 20
24.6616
 30
0.0
 10
-90.407300000000006
 20
24.6616
 30
0.0
 10
-90.243099999999998
 20
24.4465
 30
0.0
 10
-91.007900000000006
 20
24.455400000000001
 30
0.0
 10
-91.007900000000006
 20
24.455400000000001
 30
0.0
 10
-91.418300000000002
 20
24.4604
 30
0.0
 10
-92.159300000000002
 20
24.538699999999999
 30
0.0
 10
-92.507000000000005
 20
24.369
 30
0.0
 10
-92.507000000000005
 20
24.369
 30
0.0
 10
-92.702600000000004
 20
24.273499999999999
 30
0.0
 10
-93.583399999999997
 20
24.119199999999999
 30
0.0
 10
-93.818799999999996
 20
24.094899999999999
 30
0.0
 10
-93.818799999999996
 20
24.094899999999999
 30
0.0
 10
-94.023799999999994
 20
24.073599999999999
 30
0.0
 10
-94.863100000000003
 20
23.689299999999999
 30
0.0
 10
-94.998800000000003
 20
23.689299999999999
 30
0.0
 10
-94.998800000000003
 20
23.689299999999999
 30
0.0
 10
-95.067099999999996
 20
23.689299999999999
 30
0.0
 10
-95.135199999999998
 20
23.689299999999999
 30
0.0
 10
-95.203299999999999
 20
23.689299999999999
 30
0.0
 10
-95.203299999999999
 20
23.689299999999999
 30
0.0
 10
-95.203299999999999
 20
23.536000000000001
 30
0.0
 10
-95.203299999999999
 20
23.3825
 30
0.0
 10
-95.203299999999999
 20
23.228899999999999
 30
0.0
 10
-95.203299999999999
 20
23.228899999999999
 30
0.0
 10
-95.058300000000003
 20
23.101299999999998
 30
0.0
 10
-94.912999999999997
 20
22.973700000000001
 30
0.0
 10
-94.767700000000005
 20
22.8461
 30
0.0
 10
-94.767700000000005
 20
22.8461
 30
0.0
 10
-94.1083
 20
22.819600000000001
 30
0.0
 10
-94.092799999999997
 20
23.024100000000001
 30
0.0
 10
-93.822299999999998
 20
23.024100000000001
 30
0.0
 10
-93.822299999999998
 20
23.024100000000001
 30
0.0
 10
-93.686099999999996
 20
23.024100000000001
 30
0.0
 10
-93.549400000000006
 20
23.024100000000001
 30
0.0
 10
-93.413200000000003
 20
23.024100000000001
 30
0.0
 10
-93.413200000000003
 20
23.024100000000001
 30
0.0
 10
-93.213700000000003
 20
23.024100000000001
 30
0.0
 10
-93.055499999999995
 20
22.978899999999999
 30
0.0
 10
-93.015500000000003
 20
22.8309
 30
0.0
 10
-93.015500000000003
 20
22.8309
 30
0.0
 10
-93.030100000000004
 20
22.8552
 30
0.0
 10
-93.044899999999998
 20
22.8794
 30
0.0
 10
-93.059600000000003
 20
22.9038
 30
0.0
 10
-93.059600000000003
 20
22.9038
 30
0.0
 10
-93.974999999999994
 20
22.348099999999999
 30
0.0
 10
-94.890799999999999
 20
21.7925
 30
0.0
 10
-95.806100000000001
 20
21.236699999999999
 30
0.0
 10
-95.806100000000001
 20
21.236699999999999
 30
0.0
 10
-95.794200000000004
 20
21.217199999999998
 30
0.0
 10
-95.782399999999996
 20
21.197399999999998
 30
0.0
 10
-95.770499999999998
 20
21.178000000000001
 30
0.0
 10
-95.770499999999998
 20
21.178000000000001
 30
0.0
 10
-95.408100000000005
 20
20.700299999999999
 30
0.0
 10
-93.866200000000006
 20
21.101299999999998
 30
0.0
 10
-93.310900000000004
 20
21.2334
 30
0.0
 10
-93.310900000000004
 20
21.2334
 30
0.0
 10
-93.694500000000005
 20
20.6539
 30
0.0
 10
-95.562700000000007
 20
20.1066
 30
0.0
 10
-95.561400000000006
 20
19.442699999999999
 30
0.0
 10
-95.561400000000006
 20
19.442699999999999
 30
0.0
 10
-94.808700000000002
 20
19.544599999999999
 30
0.0
 10
-94.055599999999998
 20
19.6465
 30
0.0
 10
-93.302800000000005
 20
19.7485
 30
0.0
 10
-93.302800000000005
 20
19.7485
 30
0.0
 10
-93.305499999999995
 20
19.765999999999998
 30
0.0
 10
-93.308199999999999
 20
19.7835
 30
0.0
 10
-93.310900000000004
 20
19.800999999999998
 30
0.0
 10
-93.310900000000004
 20
19.800999999999998
 30
0.0
 10
-93.318100000000001
 20
19.452300000000001
 30
0.0
 10
-94.319500000000005
 20
18.101099999999999
 30
0.0
 10
-94.576999999999998
 20
17.843800000000002
 30
0.0
 10
-94.576999999999998
 20
17.843800000000002
 30
0.0
 10
-95.486599999999996
 20
16.9345
 30
0.0
 10
-95.766199999999998
 20
17.3142
 30
0.0
 10
-95.766199999999998
 20
15.81
 30
0.0
 10
-95.766199999999998
 20
15.81
 30
0.0
 10
-95.258600000000001
 20
15.9314
 30
0.0
 10
-93.288300000000007
 20
17.8247
 30
0.0
 10
-92.816800000000001
 20
17.430099999999999
 30
0.0
 10
-92.816800000000001
 20
17.430099999999999
 30
0.0
 10
-92.3797
 20
16.907599999999999
 30
0.0
 10
-94.078100000000006
 20
16.112500000000001
 30
0.0
 10
-94.078100000000006
 20
14.940300000000001
 30
0.0
 10
-94.078100000000006
 20
14.940300000000001
 30
0.0
 10
-94.312799999999996
 20
14.6975
 30
0.0
 10
-94.547499999999999
 20
14.454499999999999
 30
0.0
 10
-94.782200000000003
 20
14.2117
 30
0.0
 10
-94.782200000000003
 20
14.2117
 30
0.0
 10
-94.786199999999994
 20
14.0626
 30
0.0
 10
-94.790199999999999
 20
13.9129
 30
0.0
 10
-94.794399999999996
 20
13.763500000000001
 30
0.0
 10
-94.794399999999996
 20
13.763500000000001
 30
0.0
 10
-94.521600000000007
 20
13.763500000000001
 30
0.0
 10
-94.248699999999999
 20
13.763500000000001
 30
0.0
 10
-93.975800000000007
 20
13.763500000000001
 30
0.0
 10
-93.975800000000007
 20
13.763500000000001
 30
0.0
 10
-93.790000000000006
 20
13.763500000000001
 30
0.0
 10
-93.870400000000004
 20
13.745200000000001
 30
0.0
 10
-93.719999999999999
 20
13.8147
 30
0.0
 10
-93.719999999999999
 20
13.8147
 30
0.0
 10
-93.001800000000003
 20
14.3916
 30
0.0
 10
-92.283199999999994
 20
14.968500000000001
 30
0.0
 10
-91.564899999999994
 20
15.545400000000001
 30
0.0
 10
-91.564899999999994
 20
15.545400000000001
 30
0.0
 10
-91.741900000000001
 20
15.2972
 30
0.0
 10
-92.119200000000006
 20
15.110799999999999
 30
0.0
 10
-92.174899999999994
 20
14.827299999999999
 30
0.0
 10
-92.174899999999994
 20
14.827299999999999
 30
0.0
 10
-92.208399999999997
 20
14.6563
 30
0.0
 10
-92.328199999999995
 20
13.811999999999999
 30
0.0
 10
-92.337000000000003
 20
13.6593
 30
0.0
 10
-92.337000000000003
 20
13.6593
 30
0.0
 10
-92.412499999999994
 20
12.351800000000001
 30
0.0
 10
-92.343699999999998
 20
12.708399999999999
 30
0.0
 10
-92.939700000000002
 20
11.678900000000001
 30
0.0
 10
-92.939700000000002
 20
11.678900000000001
 30
0.0
 10
-92.861599999999996
 20
11.603300000000001
 30
0.0
 10
-92.783699999999996
 20
11.5275
 30
0.0
 10
-92.705600000000004
 20
11.452
 30
0.0
 10
-92.705600000000004
 20
11.452
 30
0.0
 10
-91.870999999999995
 20
12.3264
 30
0.0
 10
-91.036299999999997
 20
13.200799999999999
 30
0.0
 10
-90.201800000000006
 20
14.075200000000001
 30
0.0
 10
-90.201800000000006
 20
14.075200000000001
 30
0.0
 10
-90.164100000000005
 20
14.0396
 30
0.0
 10
-90.126199999999997
 20
14.0038
 30
0.0
 10
-90.088399999999993
 20
13.968
 30
0.0
 10
-90.088399999999993
 20
13.968
 30
0.0
 10
-90.088399999999993
 20
13.2455
 30
0.0
 10
-90.805599999999998
 20
12.8825
 30
0.0
 10
-90.854699999999994
 20
12.227399999999999
 30
0.0
 10
-90.854699999999994
 20
12.227399999999999
 30
0.0
 10
-90.914900000000003
 20
11.4223
 30
0.0
 10
-91.213800000000006
 20
11.3485
 30
0.0
 10
-91.213800000000006
 20
10.079499999999999
 30
0.0
 10
-91.213800000000006
 20
10.079499999999999
 30
0.0
 10
-90.646699999999996
 20
10.436400000000001
 30
0.0
 10
-85.691100000000006
 20
14.741099999999999
 30
0.0
 10
-85.517899999999997
 20
15.0755
 30
0.0
 10
-85.517899999999997
 20
15.0755
 30
0.0
 10
-85.176500000000004
 20
15.7349
 30
0.0
 10
-83.498900000000006
 20
17.2882
 30
0.0
 10
-83.139700000000005
 20
18.017700000000001
 30
0.0
 10
-83.139700000000005
 20
18.017700000000001
 30
0.0
 10
-82.987899999999996
 20
18.3261
 30
0.0
 10
-82.723100000000002
 20
18.698599999999999
 30
0.0
 10
-82.495999999999995
 20
19.0318
 30
0.0
 10
-82.495999999999995
 20
19.0318
 30
0.0
 10
-76.515199999999993
 20
10.795500000000001
 30
0.0
 10
-66.810199999999995
 20
5.4377000000000004
 30
0.0
 10
-55.855200000000004
 20
5.4377000000000004
 30
0.0
 10
-55.855200000000004
 20
5.4377000000000004
 30
0.0
 10
-37.685200000000002
 20
5.4377000000000004
 30
0.0
 10
-22.949999999999999
 20
20.172899999999998
 30
0.0
 10
-22.949999999999999
 20
38.343000000000004
 30
0.0
 10
-22.949999999999999
 20
38.343000000000004
 30
0.0
 10
-22.949999999999999
 20
46.195799999999998
 30
0.0
 10
-25.703600000000002
 20
53.405799999999999
 30
0.0
 10
-30.296099999999999
 20
59.062600000000003
 30
0.0
  0
SPLINE
  5
29
100
AcDbEntity
  8
RÚteg 1
 62
     7
100
AcDbSpline
210
0.0
220
0.0
230
1.0
 70
     1
 71
     3
 72
   160
 73
   156
 74
     0
 42
0.0000000001
 43
0.0000000001
 40
0.0
 40
0.0
 40
0.0
 40
0.0
 40
0.0256410256410256
 40
0.0256410256410256
 40
0.0256410256410256
 40
0.0256410256410256
 40
0.0512820512820513
 40
0.0512820512820513
 40
0.0512820512820513
 40
0.0512820512820513
 40
0.0769230769230769
 40
0.0769230769230769
 40
0.0769230769230769
 40
0.0769230769230769
 40
0.1025641025641026
 40
0.1025641025641026
 40
0.1025641025641026
 40
0.1025641025641026
 40
0.1282051282051282
 40
0.1282051282051282
 40
0.1282051282051282
 40
0.1282051282051282
 40
0.1538461538461538
 40
0.1538461538461538
 40
0.1538461538461538
 40
0.1538461538461538
 40
0.1794871794871795
 40
0.1794871794871795
 40
0.1794871794871795
 40
0.1794871794871795
 40
0.2051282051282051
 40
0.2051282051282051
 40
0.2051282051282051
 40
0.2051282051282051
 40
0.2307692307692307
 40
0.2307692307692307
 40
0.2307692307692307
 40
0.2307692307692307
 40
0.2564102564102564
 40
0.2564102564102564
 40
0.2564102564102564
 40
0.2564102564102564
 40
0.2820512820512821
 40
0.2820512820512821
 40
0.2820512820512821
 40
0.2820512820512821
 40
0.3076923076923077
 40
0.3076923076923077
 40
0.3076923076923077
 40
0.3076923076923077
 40
0.3333333333333334
 40
0.3333333333333334
 40
0.3333333333333334
 40
0.3333333333333334
 40
0.358974358974359
 40
0.358974358974359
 40
0.358974358974359
 40
0.358974358974359
 40
0.3846153846153847
 40
0.3846153846153847
 40
0.3846153846153847
 40
0.3846153846153847
 40
0.4102564102564104
 40
0.4102564102564104
 40
0.4102564102564104
 40
0.4102564102564104
 40
0.435897435897436
 40
0.435897435897436
 40
0.435897435897436
 40
0.435897435897436
 40
0.4615384615384617
 40
0.4615384615384617
 40
0.4615384615384617
 40
0.4615384615384617
 40
0.4871794871794873
 40
0.4871794871794873
 40
0.4871794871794873
 40
0.4871794871794873
 40
0.512820512820513
 40
0.512820512820513
 40
0.512820512820513
 40
0.512820512820513
 40
0.5384615384615387
 40
0.5384615384615387
 40
0.5384615384615387
 40
0.5384615384615387
 40
0.5641025641025643
 40
0.5641025641025643
 40
0.5641025641025643
 40
0.5641025641025643
 40
0.58974358974359
 40
0.58974358974359
 40
0.58974358974359
 40
0.58974358974359
 40
0.6153846153846156
 40
0.6153846153846156
 40
0.6153846153846156
 40
0.6153846153846156
 40
0.6410256410256413
 40
0.6410256410256413
 40
0.6410256410256413
 40
0.6410256410256413
 40
0.666666666666667
 40
0.666666666666667
 40
0.666666666666667
 40
0.666666666666667
 40
0.6923076923076926
 40
0.6923076923076926
 40
0.6923076923076926
 40
0.6923076923076926
 40
0.7179487179487183
 40
0.7179487179487183
 40
0.7179487179487183
 40
0.7179487179487183
 40
0.743589743589744
 40
0.743589743589744
 40
0.743589743589744
 40
0.743589743589744
 40
0.7692307692307696
 40
0.7692307692307696
 40
0.7692307692307696
 40
0.7692307692307696
 40
0.7948717948717953
 40
0.7948717948717953
 40
0.7948717948717953
 40
0.7948717948717953
 40
0.8205128205128209
 40
0.8205128205128209
 40
0.8205128205128209
 40
0.8205128205128209
 40
0.8461538461538466
 40
0.8461538461538466
 40
0.8461538461538466
 40
0.8461538461538466
 40
0.8717948717948723
 40
0.8717948717948723
 40
0.8717948717948723
 40
0.8717948717948723
 40
0.8974358974358979
 40
0.8974358974358979
 40
0.8974358974358979
 40
0.8974358974358979
 40
0.9230769230769236
 40
0.9230769230769236
 40
0.9230769230769236
 40
0.9230769230769236
 40
0.9487179487179492
 40
0.9487179487179492
 40
0.9487179487179492
 40
0.9487179487179492
 40
0.9743589743589749
 40
0.9743589743589749
 40
0.9743589743589749
 40
0.9743589743589749
 40
1.0
 40
1.0
 40
1.0
 40
1.0
 10
-67.405600000000007
 20
64.721299999999999
 30
0.0
 10
-67.174599999999998
 20
64.774100000000004
 30
0.0
 10
-66.929699999999997
 20
64.807299999999998
 30
0.0
 10
-66.664400000000001
 20
64.806799999999996
 30
0.0
 10
-66.664400000000001
 20
64.806799999999996
 30
0.0
 10
-65.477500000000006
 20
64.804100000000005
 30
0.0
 10
-65.097399999999993
 20
65.078800000000001
 30
0.0
 10
-64.171199999999999
 20
64.349500000000006
 30
0.0
 10
-64.171199999999999
 20
64.349500000000006
 30
0.0
 10
-63.686300000000003
 20
63.967799999999997
 30
0.0
 10
-63.663499999999999
 20
63.877600000000001
 30
0.0
 10
-63.688899999999997
 20
63.235100000000003
 30
0.0
 10
-63.688899999999997
 20
63.235100000000003
 30
0.0
 10
-63.691699999999997
 20
63.161200000000001
 30
0.0
 10
-63.989800000000002
 20
62.115900000000003
 30
0.0
 10
-64.028999999999996
 20
62.039000000000001
 30
0.0
 10
-64.028999999999996
 20
62.039000000000001
 30
0.0
 10
-64.048900000000003
 20
61.9998
 30
0.0
 10
-64.4529
 20
60.962699999999998
 30
0.0
 10
-64.457700000000003
 20
60.932699999999997
 30
0.0
 10
-64.457700000000003
 20
60.932699999999997
 30
0.0
 10
-64.511200000000002
 20
60.592199999999998
 30
0.0
 10
-64.3399
 20
59.689599999999999
 30
0.0
 10
-64.532600000000002
 20
59.4726
 30
0.0
 10
-64.532600000000002
 20
59.4726
 30
0.0
 10
-64.538499999999999
 20
59.466999999999999
 30
0.0
 10
-66.431799999999996
 20
59.087400000000002
 30
0.0
 10
-66.691199999999995
 20
59.022399999999998
 30
0.0
 10
-66.691199999999995
 20
59.022399999999998
 30
0.0
 10
-67.117400000000004
 20
58.915799999999997
 30
0.0
 10
-67.272499999999994
 20
58.959899999999998
 30
0.0
 10
-67.684399999999997
 20
58.736699999999999
 30
0.0
 10
-67.684399999999997
 20
58.736699999999999
 30
0.0
 10
-68.221999999999994
 20
58.445500000000003
 30
0.0
 10
-67.969999999999999
 20
58.3035
 30
0.0
 10
-67.889300000000006
 20
57.969499999999996
 30
0.0
 10
-67.889300000000006
 20
57.969499999999996
 30
0.0
 10
-66.962100000000007
 20
57.878500000000003
 30
0.0
 10
-66.035200000000003
 20
57.787799999999997
 30
0.0
 10
-65.108199999999997
 20
57.696800000000003
 30
0.0
 10
-65.108199999999997
 20
57.696800000000003
 30
0.0
 10
-65.001000000000005
 20
57.187899999999999
 30
0.0
 10
-66.464299999999994
 20
56.8172
 30
0.0
 10
-66.773600000000002
 20
56.648899999999998
 30
0.0
 10
-66.773600000000002
 20
56.648899999999998
 30
0.0
 10
-67.135000000000005
 20
56.452100000000002
 30
0.0
 10
-67.278099999999995
 20
56.438699999999997
 30
0.0
 10
-67.5702
 20
56.064399999999999
 30
0.0
 10
-67.5702
 20
56.064399999999999
 30
0.0
 10
-67.797600000000003
 20
55.7729
 30
0.0
 10
-67.862300000000005
 20
55.264400000000002
 30
0.0
 10
-67.978700000000003
 20
55.091500000000003
 30
0.0
 10
-67.978700000000003
 20
55.091500000000003
 30
0.0
 10
-68.419399999999996
 20
54.436399999999999
 30
0.0
 10
-69.059600000000003
 20
54.316400000000002
 30
0.0
 10
-69.6387
 20
53.9893
 30
0.0
 10
-69.6387
 20
53.9893
 30
0.0
 10
-70.353300000000004
 20
53.585700000000003
 30
0.0
 10
-71.188999999999993
 20
53.538800000000002
 30
0.0
 10
-71.6785
 20
53.2667
 30
0.0
 10
-71.6785
 20
53.2667
 30
0.0
 10
-71.647800000000004
 20
52.313400000000001
 30
0.0
 10
-68.837400000000002
 20
53.025599999999997
 30
0.0
 10
-68.441699999999997
 20
53.3033
 30
0.0
 10
-68.441699999999997
 20
53.3033
 30
0.0
 10
-67.463899999999995
 20
53.989600000000003
 30
0.0
 10
-67.271900000000002
 20
54.818399999999997
 30
0.0
 10
-65.791899999999998
 20
54.848500000000001
 30
0.0
 10
-65.791899999999998
 20
54.848500000000001
 30
0.0
 10
-66.181700000000006
 20
54.259500000000003
 30
0.0
 10
-67.590299999999999
 20
53.439100000000003
 30
0.0
 10
-68.129499999999993
 20
52.991300000000003
 30
0.0
 10
-68.129499999999993
 20
52.991300000000003
 30
0.0
 10
-68.895799999999994
 20
52.354700000000001
 30
0.0
 10
-70.013300000000001
 20
51.778599999999997
 30
0.0
 10
-71.111800000000002
 20
51.778599999999997
 30
0.0
 10
-71.111800000000002
 20
51.778599999999997
 30
0.0
 10
-70.862399999999994
 20
50.749299999999998
 30
0.0
 10
-70.077699999999993
 20
50.755299999999998
 30
0.0
 10
-69.219200000000001
 20
50.755299999999998
 30
0.0
 10
-69.219200000000001
 20
50.755299999999998
 30
0.0
 10
-69.306200000000004
 20
49.739699999999999
 30
0.0
 10
-71.879999999999995
 20
50.020000000000003
 30
0.0
 10
-71.879000000000005
 20
49.015799999999999
 30
0.0
 10
-71.879000000000005
 20
49.015799999999999
 30
0.0
 10
-71.365399999999994
 20
49.015799999999999
 30
0.0
 10
-70.953699999999998
 20
49.244100000000003
 30
0.0
 10
-70.467100000000002
 20
49.394300000000001
 30
0.0
 10
-70.467100000000002
 20
49.394300000000001
 30
0.0
 10
-69.924899999999994
 20
49.561700000000002
 30
0.0
 10
-69.348399999999998
 20
49.520699999999998
 30
0.0
 10
-68.942800000000005
 20
49.660400000000003
 30
0.0
 10
-68.942800000000005
 20
49.660400000000003
 30
0.0
 10
-68.432400000000001
 20
49.835999999999999
 30
0.0
 10
-66.341899999999995
 20
50.049700000000001
 30
0.0
 10
-65.952200000000005
 20
49.7654
 30
0.0
 10
-65.952200000000005
 20
49.7654
 30
0.0
 10
-66.219999999999999
 20
49.439100000000003
 30
0.0
 10
-66.968800000000002
 20
49.041699999999999
 30
0.0
 10
-67.364800000000002
 20
48.644799999999996
 30
0.0
 10
-67.364800000000002
 20
48.644799999999996
 30
0.0
 10
-67.793499999999995
 20
48.215400000000002
 30
0.0
 10
-68.212000000000003
 20
47.791899999999998
 30
0.0
 10
-68.643799999999999
 20
47.365900000000003
 30
0.0
 10
-68.643799999999999
 20
47.365900000000003
 30
0.0
 10
-69.196399999999997
 20
46.820700000000002
 30
0.0
 10
-69.985100000000003
 20
44.812100000000001
 30
0.0
 10
-70.383700000000005
 20
43.989699999999999
 30
0.0
 10
-70.383700000000005
 20
43.989699999999999
 30
0.0
 10
-70.566699999999997
 20
43.612099999999998
 30
0.0
 10
-72.092600000000004
 20
40.859000000000002
 30
0.0
 10
-72.234399999999994
 20
40.724499999999999
 30
0.0
 10
-72.234399999999994
 20
40.724499999999999
 30
0.0
 10
-72.484999999999999
 20
40.486499999999999
 30
0.0
 10
-73.078400000000002
 20
39.494
 30
0.0
 10
-73.320599999999999
 20
39.252800000000001
 30
0.0
 10
-73.320599999999999
 20
39.252800000000001
 30
0.0
 10
-74.105699999999999
 20
38.4711
 30
0.0
 10
-73.811300000000003
 20
38.405000000000001
 30
0.0
 10
-74.238500000000002
 20
37.612900000000003
 30
0.0
 10
-74.238500000000002
 20
37.612900000000003
 30
0.0
 10
-74.540199999999999
 20
37.053100000000001
 30
0.0
 10
-74.719499999999996
 20
36.433100000000003
 30
0.0
 10
-75.026300000000006
 20
35.842300000000002
 30
0.0
 10
-75.026300000000006
 20
35.842300000000002
 30
0.0
 10
-75.310699999999997
 20
35.294600000000003
 30
0.0
 10
-75.766900000000007
 20
34.976900000000001
 30
0.0
 10
-76.239199999999997
 20
34.497599999999998
 30
0.0
 10
-76.239199999999997
 20
34.497599999999998
 30
0.0
 10
-76.538399999999996
 20
34.194299999999998
 30
0.0
 10
-77.324600000000004
 20
33.632300000000001
 30
0.0
 10
-77.711799999999997
 20
33.412199999999999
 30
0.0
 10
-77.711799999999997
 20
33.412199999999999
 30
0.0
 10
-78.506299999999996
 20
32.961199999999998
 30
0.0
 10
-78.674300000000002
 20
32.892600000000002
 30
0.0
 10
-79.632900000000006
 20
32.775799999999997
 30
0.0
 10
-79.632900000000006
 20
32.775799999999997
 30
0.0
 10
-80.445700000000002
 20
32.677
 30
0.0
 10
-81.082599999999999
 20
32.670499999999997
 30
0.0
 10
-81.899799999999999
 20
32.801400000000001
 30
0.0
 10
-81.899799999999999
 20
32.801400000000001
 30
0.0
 10
-82.345500000000001
 20
32.872599999999998
 30
0.0
 10
-83.315399999999997
 20
33.338799999999999
 30
0.0
 10
-83.898200000000003
 20
33.360700000000001
 30
0.0
 10
-83.898200000000003
 20
33.360700000000001
 30
0.0
 10
-84.017499999999998
 20
33.365000000000002
 30
0.0
 10
-84.123699999999999
 20
33.374899999999997
 30
0.0
 10
-84.220799999999997
 20
33.389099999999999
 30
0.0
 10
-84.220799999999997
 20
33.389099999999999
 30
0.0
 10
-84.500200000000007
 20
34.9985
 30
0.0
 10
-84.647300000000001
 20
36.653599999999997
 30
0.0
 10
-84.647300000000001
 20
38.343000000000004
 30
0.0
 10
-84.647300000000001
 20
38.343000000000004
 30
0.0
 10
-84.647300000000001
 20
50.133800000000001
 30
0.0
 10
-77.554900000000004
 20
60.2699
 30
0.0
 10
-67.405600000000007
 20
64.721299999999999
 30
0.0
  0
SPLINE
  5
2A
100
AcDbEntity
  8
RÚteg 1
 62
     7
100
AcDbSpline
210
0.0
220
0.0
230
1.0
 70
     1
 71
     3
 72
    28
 73
    24
 74
     0
 42
0.0000000001
 43
0.0000000001
 40
0.0
 40
0.0
 40
0.0
 40
0.0
 40
0.1666666666666667
 40
0.1666666666666667
 40
0.1666666666666667
 40
0.1666666666666667
 40
0.3333333333333333
 40
0.3333333333333333
 40
0.3333333333333333
 40
0.3333333333333333
 40
0.5
 40
0.5
 40
0.5
 40
0.5
 40
0.6666666666666666
 40
0.6666666666666666
 40
0.6666666666666666
 40
0.6666666666666666
 40
0.8333333333333333
 40
0.8333333333333333
 40
0.8333333333333333
 40
0.8333333333333333
 40
1.0
 40
1.0
 40
1.0
 40
1.0
 10
-82.178399999999996
 20
26.666499999999999
 30
0.0
 10
-81.379999999999995
 20
26.950299999999999
 30
0.0
 10
-80.480900000000005
 20
27.0792
 30
0.0
 10
-79.706699999999998
 20
26.757300000000001
 30
0.0
 10
-79.706699999999998
 20
26.757300000000001
 30
0.0
 10
-79.560199999999995
 20
26.405999999999999
 30
0.0
 10
-79.251000000000005
 20
25.862200000000001
 30
0.0
 10
-79.486199999999997
 20
25.519100000000002
 30
0.0
 10
-79.486199999999997
 20
25.519100000000002
 30
0.0
 10
-79.760099999999994
 20
25.1191
 30
0.0
 10
-79.653700000000001
 20
24.713100000000001
 30
0.0
 10
-79.653700000000001
 20
24.098600000000001
 30
0.0
 10
-79.653700000000001
 20
24.098600000000001
 30
0.0
 10
-79.704899999999995
 20
24.098600000000001
 30
0.0
 10
-79.756
 20
24.098600000000001
 30
0.0
 10
-79.807199999999995
 20
24.098600000000001
 30
0.0
 10
-79.807199999999995
 20
24.098600000000001
 30
0.0
 10
-79.816800000000001
 20
24.098600000000001
 30
0.0
 10
-80.236099999999993
 20
23.9665
 30
0.0
 10
-80.7136
 20
23.8126
 30
0.0
 10
-80.7136
 20
23.8126
 30
0.0
 10
-81.252899999999997
 20
24.732600000000001
 30
0.0
 10
-81.7423
 20
25.684899999999999
 30
0.0
 10
-82.178399999999996
 20
26.666499999999999
 30
0.0
  0
SPLINE
  5
2B
100
AcDbEntity
  8
RÚteg 1
 62
     7
100
AcDbSpline
210
0.0
220
0.0
230
1.0
 70
     1
 71
     3
 72
    80
 73
    76
 74
     0
 42
0.0000000001
 43
0.0000000001
 40
0.0
 40
0.0
 40
0.0
 40
0.0
 40
0.0526315789473684
 40
0.0526315789473684
 40
0.0526315789473684
 40
0.0526315789473684
 40
0.1052631578947368
 40
0.1052631578947368
 40
0.1052631578947368
 40
0.1052631578947368
 40
0.1578947368421053
 40
0.1578947368421053
 40
0.1578947368421053
 40
0.1578947368421053
 40
0.2105263157894737
 40
0.2105263157894737
 40
0.2105263157894737
 40
0.2105263157894737
 40
0.2631578947368421
 40
0.2631578947368421
 40
0.2631578947368421
 40
0.2631578947368421
 40
0.3157894736842105
 40
0.3157894736842105
 40
0.3157894736842105
 40
0.3157894736842105
 40
0.3684210526315789
 40
0.3684210526315789
 40
0.3684210526315789
 40
0.3684210526315789
 40
0.4210526315789474
 40
0.4210526315789474
 40
0.4210526315789474
 40
0.4210526315789474
 40
0.4736842105263158
 40
0.4736842105263158
 40
0.4736842105263158
 40
0.4736842105263158
 40
0.5263157894736842
 40
0.5263157894736842
 40
0.5263157894736842
 40
0.5263157894736842
 40
0.5789473684210527
 40
0.5789473684210527
 40
0.5789473684210527
 40
0.5789473684210527
 40
0.631578947368421
 40
0.631578947368421
 40
0.631578947368421
 40
0.631578947368421
 40
0.6842105263157894
 40
0.6842105263157894
 40
0.6842105263157894
 40
0.6842105263157894
 40
0.7368421052631577
 40
0.7368421052631577
 40
0.7368421052631577
 40
0.7368421052631577
 40
0.7894736842105261
 40
0.7894736842105261
 40
0.7894736842105261
 40
0.7894736842105261
 40
0.8421052631578945
 40
0.8421052631578945
 40
0.8421052631578945
 40
0.8421052631578945
 40
0.8947368421052628
 40
0.8947368421052628
 40
0.8947368421052628
 40
0.8947368421052628
 40
0.9473684210526312
 40
0.9473684210526312
 40
0.9473684210526312
 40
0.9473684210526312
 40
1.0
 40
1.0
 40
1.0
 40
1.0
 10
-79.632300000000001
 20
22.1068
 30
0.0
 10
-79.632300000000001
 20
22.1068
 30
0.0
 10
-67.365300000000005
 20
25.623000000000001
 30
0.0
 10
-67.365300000000005
 20
25.623000000000001
 30
0.0
 10
-67.365300000000005
 20
25.623000000000001
 30
0.0
 10
-67.371600000000001
 20
25.645199999999999
 30
0.0
 10
-67.377899999999997
 20
25.667400000000001
 30
0.0
 10
-67.384299999999996
 20
25.6891
 30
0.0
 10
-67.384299999999996
 20
25.6891
 30
0.0
 10
-66.463099999999997
 20
25.4452
 30
0.0
 10
-64.934799999999996
 20
25.539400000000001
 30
0.0
 10
-64.776600000000002
 20
24.398199999999999
 30
0.0
 10
-64.776600000000002
 20
24.398199999999999
 30
0.0
 10
-64.599199999999996
 20
23.120000000000001
 30
0.0
 10
-64.636399999999995
 20
23.844799999999999
 30
0.0
 10
-65.046700000000001
 20
22.943999999999999
 30
0.0
 10
-65.046700000000001
 20
22.943999999999999
 30
0.0
 10
-65.369299999999996
 20
22.236000000000001
 30
0.0
 10
-65.587500000000006
 20
22.595500000000001
 30
0.0
 10
-65.587500000000006
 20
21.540400000000002
 30
0.0
 10
-65.587500000000006
 20
21.540400000000002
 30
0.0
 10
-65.599199999999996
 20
21.489799999999999
 30
0.0
 10
-65.610799999999998
 20
21.439
 30
0.0
 10
-65.622299999999996
 20
21.388300000000001
 30
0.0
 10
-65.622299999999996
 20
21.388300000000001
 30
0.0
 10
-64.547399999999996
 20
21.141100000000002
 30
0.0
 10
-63.4726
 20
20.893799999999999
 30
0.0
 10
-62.397599999999997
 20
20.6464
 30
0.0
 10
-62.397599999999997
 20
20.6464
 30
0.0
 10
-62.352200000000003
 20
20.501799999999999
 30
0.0
 10
-62.799399999999999
 20
19.309999999999999
 30
0.0
 10
-63.0349
 20
19.1919
 30
0.0
 10
-63.0349
 20
19.1919
 30
0.0
 10
-63.864400000000003
 20
18.777100000000001
 30
0.0
 10
-63.937100000000001
 20
19.290099999999999
 30
0.0
 10
-64.602900000000005
 20
18.611499999999999
 30
0.0
 10
-64.602900000000005
 20
18.611499999999999
 30
0.0
 10
-65.201400000000007
 20
18.001799999999999
 30
0.0
 10
-66.550200000000004
 20
17.183599999999998
 30
0.0
 10
-66.917400000000001
 20
16.628699999999998
 30
0.0
 10
-66.917400000000001
 20
16.628699999999998
 30
0.0
 10
-66.578400000000002
 20
15.999000000000001
 30
0.0
 10
-66.239099999999993
 20
15.369199999999999
 30
0.0
 10
-65.899900000000002
 20
14.7394
 30
0.0
 10
-65.899900000000002
 20
14.7394
 30
0.0
 10
-65.901799999999994
 20
14.691599999999999
 30
0.0
 10
-65.903899999999993
 20
14.643599999999999
 30
0.0
 10
-65.905900000000003
 20
14.595700000000001
 30
0.0
 10
-65.905900000000003
 20
14.595700000000001
 30
0.0
 10
-65.666899999999998
 20
14.796900000000001
 30
0.0
 10
-65.427700000000002
 20
14.9978
 30
0.0
 10
-65.188500000000005
 20
15.1988
 30
0.0
 10
-65.188500000000005
 20
15.1988
 30
0.0
 10
-65.207899999999995
 20
15.195499999999999
 30
0.0
 10
-65.227199999999996
 20
15.1921
 30
0.0
 10
-65.246499999999997
 20
15.188700000000001
 30
0.0
 10
-65.246499999999997
 20
15.188700000000001
 30
0.0
 10
-65.005399999999995
 20
15.1181
 30
0.0
 10
-64.764300000000006
 20
15.0474
 30
0.0
 10
-64.523200000000003
 20
14.977
 30
0.0
 10
-64.523200000000003
 20
14.977
 30
0.0
 10
-64.164000000000001
 20
14.294600000000001
 30
0.0
 10
-65.555300000000003
 20
14.717700000000001
 30
0.0
 10
-64.628500000000003
 20
12.829499999999999
 30
0.0
 10
-64.628500000000003
 20
12.829499999999999
 30
0.0
 10
-64.261099999999999
 20
12.0808
 30
0.0
 10
-63.9587
 20
11.4559
 30
0.0
 10
-63.640700000000002
 20
10.6965
 30
0.0
 10
-63.640700000000002
 20
10.6965
 30
0.0
 10
-63.628
 20
10.6663
 30
0.0
 10
-63.615000000000002
 20
10.6365
 30
0.0
 10
-63.601799999999997
 20
10.6069
 30
0.0
 10
-63.601799999999997
 20
10.6069
 30
0.0
 10
-70.207099999999997
 20
12.448700000000001
 30
0.0
 10
-75.855900000000005
 20
16.5868
 30
0.0
 10
-79.632300000000001
 20
22.1068
 30
0.0
  0
SPLINE
  5
2C
100
AcDbEntity
  8
RÚteg 1
 62
     7
100
AcDbSpline
210
0.0
220
0.0
230
1.0
 70
     1
 71
     3
 72
    20
 73
    16
 74
     0
 42
0.0000000001
 43
0.0000000001
 40
0.0
 40
0.0
 40
0.0
 40
0.0
 40
0.25
 40
0.25
 40
0.25
 40
0.25
 40
0.5
 40
0.5
 40
0.5
 40
0.5
 40
0.75
 40
0.75
 40
0.75
 40
0.75
 40
1.0
 40
1.0
 40
1.0
 40
1.0
 10
-55.855200000000004
 20
77.667599999999993
 30
0.0
 10
-54.127499999999998
 20
77.667599999999993
 30
0.0
 10
-52.726399999999998
 20
76.266400000000004
 30
0.0
 10
-52.726399999999998
 20
74.538799999999995
 30
0.0
 10
-52.726399999999998
 20
74.538799999999995
 30
0.0
 10
-52.726399999999998
 20
72.811000000000007
 30
0.0
 10
-54.127499999999998
 20
71.409800000000004
 30
0.0
 10
-55.855200000000004
 20
71.409800000000004
 30
0.0
 10
-55.855200000000004
 20
71.409800000000004
 30
0.0
 10
-57.582999999999998
 20
71.409800000000004
 30
0.0
 10
-58.983899999999998
 20
72.811000000000007
 30
0.0
 10
-58.983899999999998
 20
74.538799999999995
 30
0.0
 10
-58.983899999999998
 20
74.538799999999995
 30
0.0
 10
-58.983899999999998
 20
76.266400000000004
 30
0.0
 10
-57.582999999999998
 20
77.667599999999993
 30
0.0
 10
-55.855200000000004
 20
77.667599999999993
 30
0.0
  0
SPLINE
  5
2D
100
AcDbEntity
  8
RÚteg 1
 62
     7
100
AcDbSpline
210
0.0
220
0.0
230
1.0
 70
     1
 71
     3
 72
    32
 73
    28
 74
     0
 42
0.0000000001
 43
0.0000000001
 40
0.0
 40
0.0
 40
0.0
 40
0.0
 40
0.1428571428571429
 40
0.1428571428571429
 40
0.1428571428571429
 40
0.1428571428571429
 40
0.2857142857142857
 40
0.2857142857142857
 40
0.2857142857142857
 40
0.2857142857142857
 40
0.4285714285714286
 40
0.4285714285714286
 40
0.4285714285714286
 40
0.4285714285714286
 40
0.5714285714285714
 40
0.5714285714285714
 40
0.5714285714285714
 40
0.5714285714285714
 40
0.7142857142857142
 40
0.7142857142857142
 40
0.7142857142857142
 40
0.7142857142857142
 40
0.857142857142857
 40
0.857142857142857
 40
0.857142857142857
 40
0.857142857142857
 40
1.0
 40
1.0
 40
1.0
 40
1.0
 10
-70.971199999999996
 20
28.958500000000001
 30
0.0
 10
-71.034400000000005
 20
28.965800000000002
 30
0.0
 10
-71.097399999999993
 20
28.9727
 30
0.0
 10
-71.160499999999999
 20
28.979600000000001
 30
0.0
 10
-71.160499999999999
 20
28.979600000000001
 30
0.0
 10
-71.044499999999999
 20
28.230699999999999
 30
0.0
 10
-70.928399999999996
 20
27.482099999999999
 30
0.0
 10
-70.812399999999997
 20
26.733499999999999
 30
0.0
 10
-70.812399999999997
 20
26.733499999999999
 30
0.0
 10
-70.7744
 20
26.7395
 30
0.0
 10
-70.7363
 20
26.7455
 30
0.0
 10
-70.698300000000003
 20
26.751000000000001
 30
0.0
 10
-70.698300000000003
 20
26.751000000000001
 30
0.0
 10
-70.779399999999995
 20
26.649899999999999
 30
0.0
 10
-72.311199999999999
 20
26.145199999999999
 30
0.0
 10
-72.492800000000003
 20
26.145199999999999
 30
0.0
 10
-72.492800000000003
 20
26.145199999999999
 30
0.0
 10
-72.561199999999999
 20
26.145199999999999
 30
0.0
 10
-72.629300000000001
 20
26.145199999999999
 30
0.0
 10
-72.697500000000005
 20
26.145199999999999
 30
0.0
 10
-72.697500000000005
 20
26.145199999999999
 30
0.0
 10
-73.049899999999994
 20
26.145199999999999
 30
0.0
 10
-73.420100000000005
 20
25.787099999999999
 30
0.0
 10
-73.898600000000002
 20
25.762799999999999
 30
0.0
 10
-73.898600000000002
 20
25.762799999999999
 30
0.0
 10
-72.922899999999998
 20
26.828199999999999
 30
0.0
 10
-71.947000000000003
 20
27.8935
 30
0.0
 10
-70.971199999999996
 20
28.958500000000001
 30
0.0
  0
SPLINE
  5
2E
100
AcDbEntity
  8
RÚteg 1
 62
     7
100
AcDbSpline
210
0.0
220
0.0
230
1.0
 70
     1
 71
     3
 72
    48
 73
    44
 74
     0
 42
0.0000000001
 43
0.0000000001
 40
0.0
 40
0.0
 40
0.0
 40
0.0
 40
0.0909090909090909
 40
0.0909090909090909
 40
0.0909090909090909
 40
0.0909090909090909
 40
0.1818181818181818
 40
0.1818181818181818
 40
0.1818181818181818
 40
0.1818181818181818
 40
0.2727272727272727
 40
0.2727272727272727
 40
0.2727272727272727
 40
0.2727272727272727
 40
0.3636363636363637
 40
0.3636363636363637
 40
0.3636363636363637
 40
0.3636363636363637
 40
0.4545454545454546
 40
0.4545454545454546
 40
0.4545454545454546
 40
0.4545454545454546
 40
0.5454545454545455
 40
0.5454545454545455
 40
0.5454545454545455
 40
0.5454545454545455
 40
0.6363636363636365
 40
0.6363636363636365
 40
0.6363636363636365
 40
0.6363636363636365
 40
0.7272727272727274
 40
0.7272727272727274
 40
0.7272727272727274
 40
0.7272727272727274
 40
0.8181818181818183
 40
0.8181818181818183
 40
0.8181818181818183
 40
0.8181818181818183
 40
0.9090909090909093
 40
0.9090909090909093
 40
0.9090909090909093
 40
0.9090909090909093
 40
1.0
 40
1.0
 40
1.0
 40
1.0
 10
-48.851100000000002
 20
34.218600000000002
 30
0.0
 10
-48.649900000000002
 20
34.222200000000001
 30
0.0
 10
-48.448599999999999
 20
34.225700000000003
 30
0.0
 10
-48.247399999999999
 20
34.229300000000002
 30
0.0
 10
-48.247399999999999
 20
34.229300000000002
 30
0.0
 10
-47.9377
 20
33.959800000000001
 30
0.0
 10
-47.6282
 20
33.689999999999998
 30
0.0
 10
-47.3187
 20
33.420699999999997
 30
0.0
 10
-47.3187
 20
33.420699999999997
 30
0.0
 10
-47.457799999999999
 20
33.417299999999997
 30
0.0
 10
-47.596699999999998
 20
33.413899999999998
 30
0.0
 10
-47.7361
 20
33.410600000000002
 30
0.0
 10
-47.7361
 20
33.410600000000002
 30
0.0
 10
-47.789000000000001
 20
33.344200000000001
 30
0.0
 10
-47.842300000000002
 20
33.277700000000003
 30
0.0
 10
-47.895699999999998
 20
33.211300000000001
 30
0.0
 10
-47.895699999999998
 20
33.211300000000001
 30
0.0
 10
-48.098100000000002
 20
33.209600000000002
 30
0.0
 10
-48.300600000000003
 20
33.207799999999999
 30
0.0
 10
-48.503
 20
33.206000000000003
 30
0.0
 10
-48.503
 20
33.206000000000003
 30
0.0
 10
-48.5565
 20
33.139499999999998
 30
0.0
 10
-48.609699999999997
 20
33.073099999999997
 30
0.0
 10
-48.6631
 20
33.006799999999998
 30
0.0
 10
-48.6631
 20
33.006799999999998
 30
0.0
 10
-48.833599999999997
 20
33.1038
 30
0.0
 10
-49.004100000000001
 20
33.201000000000001
 30
0.0
 10
-49.174199999999999
 20
33.298200000000001
 30
0.0
 10
-49.174199999999999
 20
33.298200000000001
 30
0.0
 10
-49.1721
 20
33.437899999999999
 30
0.0
 10
-49.170200000000001
 20
33.5777
 30
0.0
 10
-49.168100000000003
 20
33.717500000000001
 30
0.0
 10
-49.168100000000003
 20
33.717500000000001
 30
0.0
 10
-49.101799999999997
 20
33.770800000000001
 30
0.0
 10
-49.035299999999999
 20
33.824199999999998
 30
0.0
 10
-48.968899999999998
 20
33.877400000000002
 30
0.0
 10
-48.968899999999998
 20
33.877400000000002
 30
0.0
 10
-48.964300000000001
 20
33.957700000000003
 30
0.0
 10
-48.959899999999998
 20
34.037999999999997
 30
0.0
 10
-48.955399999999997
 20
34.118499999999997
 30
0.0
 10
-48.955399999999997
 20
34.118499999999997
 30
0.0
 10
-48.9206
 20
34.151800000000001
 30
0.0
 10
-48.886000000000003
 20
34.185200000000002
 30
0.0
 10
-48.851100000000002
 20
34.218600000000002
 30
0.0
  0
SPLINE
  5
2F
100
AcDbEntity
  8
RÚteg 1
 62
     7
100
AcDbSpline
210
0.0
220
0.0
230
1.0
 70
     1
 71
     3
 72
    24
 73
    20
 74
     0
 42
0.0000000001
 43
0.0000000001
 40
0.0
 40
0.0
 40
0.0
 40
0.0
 40
0.2
 40
0.2
 40
0.2
 40
0.2
 40
0.4
 40
0.4
 40
0.4
 40
0.4
 40
0.6000000000000001
 40
0.6000000000000001
 40
0.6000000000000001
 40
0.6000000000000001
 40
0.8
 40
0.8
 40
0.8
 40
0.8
 40
1.0
 40
1.0
 40
1.0
 40
1.0
 10
-52.850900000000003
 20
35.0989
 30
0.0
 10
-53.591700000000003
 20
35.0989
 30
0.0
 10
-54.194400000000002
 20
35.665100000000002
 30
0.0
 10
-55.102600000000002
 20
35.660699999999999
 30
0.0
 10
-55.102600000000002
 20
35.660699999999999
 30
0.0
 10
-55.664099999999998
 20
35.658299999999997
 30
0.0
 10
-56.810000000000002
 20
36.092199999999998
 30
0.0
 10
-57.3538
 20
36.222999999999999
 30
0.0
 10
-57.3538
 20
36.222999999999999
 30
0.0
 10
-59.482599999999998
 20
36.7346
 30
0.0
 10
-59.398099999999999
 20
37.661900000000003
 30
0.0
 10
-59.398099999999999
 20
39.8063
 30
0.0
 10
-59.398099999999999
 20
39.8063
 30
0.0
 10
-58.5456
 20
39.234699999999997
 30
0.0
 10
-57.704099999999997
 20
37.313099999999999
 30
0.0
 10
-56.478099999999998
 20
37.098999999999997
 30
0.0
 10
-56.478099999999998
 20
37.098999999999997
 30
0.0
 10
-55.908000000000001
 20
36.999400000000001
 30
0.0
 10
-53.279800000000002
 20
35.479599999999998
 30
0.0
 10
-52.850900000000003
 20
35.0989
 30
0.0
  0
SPLINE
  5
30
100
AcDbEntity
  8
RÚteg 1
 62
     7
100
AcDbSpline
210
0.0
220
0.0
230
1.0
 70
     1
 71
     3
 72
    36
 73
    32
 74
     0
 42
0.0000000001
 43
0.0000000001
 40
0.0
 40
0.0
 40
0.0
 40
0.0
 40
0.125
 40
0.125
 40
0.125
 40
0.125
 40
0.25
 40
0.25
 40
0.25
 40
0.25
 40
0.375
 40
0.375
 40
0.375
 40
0.375
 40
0.5
 40
0.5
 40
0.5
 40
0.5
 40
0.625
 40
0.625
 40
0.625
 40
0.625
 40
0.75
 40
0.75
 40
0.75
 40
0.75
 40
0.875
 40
0.875
 40
0.875
 40
0.875
 40
1.0
 40
1.0
 40
1.0
 40
1.0
 10
20.613399999999999
 20
75.650599999999997
 30
0.0
 10
37.152299999999997
 20
73.387900000000002
 30
0.0
 10
49.900100000000002
 20
59.202100000000002
 30
0.0
 10
49.900100000000002
 20
42.042700000000004
 30
0.0
 10
49.900100000000002
 20
42.042700000000004
 30
0.0
 10
49.900100000000002
 20
23.3095
 30
0.0
 10
34.708100000000002
 20
8.1176999999999992
 30
0.0
 10
15.975
 20
8.1176999999999992
 30
0.0
 10
15.975
 20
8.1176999999999992
 30
0.0
 10
-2.7578999999999998
 20
8.1176999999999992
 30
0.0
 10
-17.949999999999999
 20
23.3095
 30
0.0
 10
-17.949999999999999
 20
42.042700000000004
 30
0.0
 10
-17.949999999999999
 20
42.042700000000004
 30
0.0
 10
-17.949999999999999
 20
59.202100000000002
 30
0.0
 10
-5.2023999999999999
 20
73.387900000000002
 30
0.0
 10
11.336600000000001
 20
75.650599999999997
 30
0.0
 10
11.336600000000001
 20
75.650599999999997
 30
0.0
 10
10.5223
 20
76.667000000000002
 30
0.0
 10
10.0351
 20
77.956699999999998
 30
0.0
 10
10.0351
 20
79.360299999999995
 30
0.0
 10
10.0351
 20
79.360299999999995
 30
0.0
 10
10.0351
 20
82.640100000000004
 30
0.0
 10
12.695
 20
85.299999999999997
 30
0.0
 10
15.975
 20
85.299999999999997
 30
0.0
 10
15.975
 20
85.299999999999997
 30
0.0
 10
19.254899999999999
 20
85.299999999999997
 30
0.0
 10
21.9148
 20
82.640100000000004
 30
0.0
 10
21.9148
 20
79.360299999999995
 30
0.0
 10
21.9148
 20
79.360299999999995
 30
0.0
 10
21.9148
 20
77.956699999999998
 30
0.0
 10
21.427600000000002
 20
76.667000000000002
 30
0.0
 10
20.613399999999999
 20
75.650599999999997
 30
0.0
  0
SPLINE
  5
31
100
AcDbEntity
  8
RÚteg 1
 62
     7
100
AcDbSpline
210
0.0
220
0.0
230
1.0
 70
     1
 71
     3
 72
    80
 73
    76
 74
     0
 42
0.0000000001
 43
0.0000000001
 40
0.0
 40
0.0
 40
0.0
 40
0.0
 40
0.0526315789473684
 40
0.0526315789473684
 40
0.0526315789473684
 40
0.0526315789473684
 40
0.1052631578947368
 40
0.1052631578947368
 40
0.1052631578947368
 40
0.1052631578947368
 40
0.1578947368421053
 40
0.1578947368421053
 40
0.1578947368421053
 40
0.1578947368421053
 40
0.2105263157894737
 40
0.2105263157894737
 40
0.2105263157894737
 40
0.2105263157894737
 40
0.2631578947368421
 40
0.2631578947368421
 40
0.2631578947368421
 40
0.2631578947368421
 40
0.3157894736842105
 40
0.3157894736842105
 40
0.3157894736842105
 40
0.3157894736842105
 40
0.3684210526315789
 40
0.3684210526315789
 40
0.3684210526315789
 40
0.3684210526315789
 40
0.4210526315789474
 40
0.4210526315789474
 40
0.4210526315789474
 40
0.4210526315789474
 40
0.4736842105263158
 40
0.4736842105263158
 40
0.4736842105263158
 40
0.4736842105263158
 40
0.5263157894736842
 40
0.5263157894736842
 40
0.5263157894736842
 40
0.5263157894736842
 40
0.5789473684210527
 40
0.5789473684210527
 40
0.5789473684210527
 40
0.5789473684210527
 40
0.631578947368421
 40
0.631578947368421
 40
0.631578947368421
 40
0.631578947368421
 40
0.6842105263157894
 40
0.6842105263157894
 40
0.6842105263157894
 40
0.6842105263157894
 40
0.7368421052631577
 40
0.7368421052631577
 40
0.7368421052631577
 40
0.7368421052631577
 40
0.7894736842105261
 40
0.7894736842105261
 40
0.7894736842105261
 40
0.7894736842105261
 40
0.8421052631578945
 40
0.8421052631578945
 40
0.8421052631578945
 40
0.8421052631578945
 40
0.8947368421052628
 40
0.8947368421052628
 40
0.8947368421052628
 40
0.8947368421052628
 40
0.9473684210526312
 40
0.9473684210526312
 40
0.9473684210526312
 40
0.9473684210526312
 40
1.0
 40
1.0
 40
1.0
 40
1.0
 10
40.276499999999999
 20
45.812199999999997
 30
0.0
 10
40.276499999999999
 20
45.812199999999997
 30
0.0
 10
39.052
 20
43.608400000000003
 30
0.0
 10
39.052
 20
43.608400000000003
 30
0.0
 10
39.052
 20
43.608400000000003
 30
0.0
 10
39.052
 20
43.608400000000003
 30
0.0
 10
37.819200000000002
 20
42.6113
 30
0.0
 10
37.819200000000002
 20
42.6113
 30
0.0
 10
37.819200000000002
 20
42.6113
 30
0.0
 10
37.819200000000002
 20
42.6113
 30
0.0
 10
30.1845
 20
41.868099999999998
 30
0.0
 10
30.1845
 20
41.868099999999998
 30
0.0
 10
30.1845
 20
41.868099999999998
 30
0.0
 10
30.1845
 20
41.868099999999998
 30
0.0
 10
26.983899999999998
 20
42.3752
 30
0.0
 10
26.983899999999998
 20
42.3752
 30
0.0
 10
26.983899999999998
 20
42.3752
 30
0.0
 10
26.983899999999998
 20
42.3752
 30
0.0
 10
25.243400000000001
 20
43.608400000000003
 30
0.0
 10
25.243400000000001
 20
43.608400000000003
 30
0.0
 10
25.243400000000001
 20
43.608400000000003
 30
0.0
 10
25.243400000000001
 20
43.608400000000003
 30
0.0
 10
23.520800000000001
 20
45.584800000000001
 30
0.0
 10
23.520800000000001
 20
45.584800000000001
 30
0.0
 10
23.520800000000001
 20
45.584800000000001
 30
0.0
 10
23.520800000000001
 20
45.584800000000001
 30
0.0
 10
22.033999999999999
 20
51.243000000000002
 30
0.0
 10
22.033999999999999
 20
51.243000000000002
 30
0.0
 10
22.033999999999999
 20
51.243000000000002
 30
0.0
 10
22.033999999999999
 20
51.243000000000002
 30
0.0
 10
20.809699999999999
 20
59.393300000000004
 30
0.0
 10
20.809699999999999
 20
59.393300000000004
 30
0.0
 10
20.809699999999999
 20
59.393300000000004
 30
0.0
 10
20.809699999999999
 20
59.393300000000004
 30
0.0
 10
21.299399999999999
 20
61.107599999999998
 30
0.0
 10
21.299399999999999
 20
61.107599999999998
 30
0.0
 10
21.299399999999999
 20
61.107599999999998
 30
0.0
 10
21.299399999999999
 20
61.107599999999998
 30
0.0
 10
22.523700000000002
 20
63.337600000000002
 30
0.0
 10
22.523700000000002
 20
63.337600000000002
 30
0.0
 10
22.523700000000002
 20
63.337600000000002
 30
0.0
 10
22.523700000000002
 20
63.337600000000002
 30
0.0
 10
26.7302
 20
64.797899999999998
 30
0.0
 10
26.7302
 20
64.797899999999998
 30
0.0
 10
26.7302
 20
64.797899999999998
 30
0.0
 10
26.7302
 20
64.797899999999998
 30
0.0
 10
29.441099999999999
 20
65.051400000000001
 30
0.0
 10
29.441099999999999
 20
65.051400000000001
 30
0.0
 10
29.441099999999999
 20
65.051400000000001
 30
0.0
 10
29.441099999999999
 20
65.051400000000001
 30
0.0
 10
32.904200000000003
 20
64.308300000000003
 30
0.0
 10
32.904200000000003
 20
64.308300000000003
 30
0.0
 10
32.904200000000003
 20
64.308300000000003
 30
0.0
 10
32.904200000000003
 20
64.308300000000003
 30
0.0
 10
35.361600000000003
 20
63.337600000000002
 30
0.0
 10
35.361600000000003
 20
63.337600000000002
 30
0.0
 10
35.361600000000003
 20
63.337600000000002
 30
0.0
 10
35.361600000000003
 20
63.337600000000002
 30
0.0
 10
37.338200000000001
 20
60.853999999999999
 30
0.0
 10
37.338200000000001
 20
60.853999999999999
 30
0.0
 10
37.338200000000001
 20
60.853999999999999
 30
0.0
 10
37.338200000000001
 20
60.853999999999999
 30
0.0
 10
38.816200000000002
 20
57.163400000000003
 30
0.0
 10
38.816200000000002
 20
57.163400000000003
 30
0.0
 10
38.816200000000002
 20
57.163400000000003
 30
0.0
 10
38.816200000000002
 20
57.163400000000003
 30
0.0
 10
39.795499999999997
 20
53.2194
 30
0.0
 10
39.795499999999997
 20
53.2194
 30
0.0
 10
39.795499999999997
 20
53.2194
 30
0.0
 10
39.795499999999997
 20
53.2194
 30
0.0
 10
40.276499999999999
 20
49.756300000000003
 30
0.0
 10
40.276499999999999
 20
49.756300000000003
 30
0.0
 10
40.276499999999999
 20
49.756300000000003
 30
0.0
 10
40.276499999999999
 20
49.756300000000003
 30
0.0
 10
40.276499999999999
 20
45.812199999999997
 30
0.0
 10
40.276499999999999
 20
45.812199999999997
 30
0.0
  0
SPLINE
  5
32
100
AcDbEntity
  8
RÚteg 1
 62
     7
100
AcDbSpline
210
0.0
220
0.0
230
1.0
 70
     1
 71
     3
 72
    88
 73
    84
 74
     0
 42
0.0000000001
 43
0.0000000001
 40
0.0
 40
0.0
 40
0.0
 40
0.0
 40
0.0476190476190476
 40
0.0476190476190476
 40
0.0476190476190476
 40
0.0476190476190476
 40
0.0952380952380952
 40
0.0952380952380952
 40
0.0952380952380952
 40
0.0952380952380952
 40
0.1428571428571429
 40
0.1428571428571429
 40
0.1428571428571429
 40
0.1428571428571429
 40
0.1904761904761905
 40
0.1904761904761905
 40
0.1904761904761905
 40
0.1904761904761905
 40
0.2380952380952381
 40
0.2380952380952381
 40
0.2380952380952381
 40
0.2380952380952381
 40
0.2857142857142857
 40
0.2857142857142857
 40
0.2857142857142857
 40
0.2857142857142857
 40
0.3333333333333333
 40
0.3333333333333333
 40
0.3333333333333333
 40
0.3333333333333333
 40
0.3809523809523809
 40
0.3809523809523809
 40
0.3809523809523809
 40
0.3809523809523809
 40
0.4285714285714286
 40
0.4285714285714286
 40
0.4285714285714286
 40
0.4285714285714286
 40
0.4761904761904762
 40
0.4761904761904762
 40
0.4761904761904762
 40
0.4761904761904762
 40
0.5238095238095237
 40
0.5238095238095237
 40
0.5238095238095237
 40
0.5238095238095237
 40
0.5714285714285714
 40
0.5714285714285714
 40
0.5714285714285714
 40
0.5714285714285714
 40
0.6190476190476191
 40
0.6190476190476191
 40
0.6190476190476191
 40
0.6190476190476191
 40
0.6666666666666667
 40
0.6666666666666667
 40
0.6666666666666667
 40
0.6666666666666667
 40
0.7142857142857144
 40
0.7142857142857144
 40
0.7142857142857144
 40
0.7142857142857144
 40
0.7619047619047621
 40
0.7619047619047621
 40
0.7619047619047621
 40
0.7619047619047621
 40
0.8095238095238098
 40
0.8095238095238098
 40
0.8095238095238098
 40
0.8095238095238098
 40
0.8571428571428574
 40
0.8571428571428574
 40
0.8571428571428574
 40
0.8571428571428574
 40
0.9047619047619051
 40
0.9047619047619051
 40
0.9047619047619051
 40
0.9047619047619051
 40
0.9523809523809528
 40
0.9523809523809528
 40
0.9523809523809528
 40
0.9523809523809528
 40
1.0
 40
1.0
 40
1.0
 40
1.0
 10
22.296299999999999
 20
38.177500000000002
 30
0.0
 10
22.296299999999999
 20
38.177500000000002
 30
0.0
 10
21.7804
 20
37.180700000000002
 30
0.0
 10
21.7804
 20
37.180700000000002
 30
0.0
 10
21.7804
 20
37.180700000000002
 30
0.0
 10
21.7804
 20
37.180700000000002
 30
0.0
 10
20.066299999999998
 20
36.463500000000003
 30
0.0
 10
20.066299999999998
 20
36.463500000000003
 30
0.0
 10
20.066299999999998
 20
36.463500000000003
 30
0.0
 10
20.066299999999998
 20
36.463500000000003
 30
0.0
 10
18.579699999999999
 20
36.944499999999998
 30
0.0
 10
18.579699999999999
 20
36.944499999999998
 30
0.0
 10
18.579699999999999
 20
36.944499999999998
 30
0.0
 10
18.579699999999999
 20
36.944499999999998
 30
0.0
 10
17.836099999999998
 20
37.924100000000003
 30
0.0
 10
17.836099999999998
 20
37.924100000000003
 30
0.0
 10
17.836099999999998
 20
37.924100000000003
 30
0.0
 10
17.836099999999998
 20
37.924100000000003
 30
0.0
 10
17.608799999999999
 20
41.1248
 30
0.0
 10
17.608799999999999
 20
41.1248
 30
0.0
 10
17.608799999999999
 20
41.1248
 30
0.0
 10
17.608799999999999
 20
41.1248
 30
0.0
 10
16.865600000000001
 20
42.1218
 30
0.0
 10
16.865600000000001
 20
42.1218
 30
0.0
 10
16.865600000000001
 20
42.1218
 30
0.0
 10
16.865600000000001
 20
42.1218
 30
0.0
 10
15.8599
 20
42.1218
 30
0.0
 10
15.8599
 20
42.1218
 30
0.0
 10
15.8599
 20
42.1218
 30
0.0
 10
15.8599
 20
42.1218
 30
0.0
 10
15.142799999999999
 20
41.1248
 30
0.0
 10
15.142799999999999
 20
41.1248
 30
0.0
 10
15.142799999999999
 20
41.1248
 30
0.0
 10
15.142799999999999
 20
41.1248
 30
0.0
 10
14.3994
 20
37.180700000000002
 30
0.0
 10
14.3994
 20
37.180700000000002
 30
0.0
 10
14.3994
 20
37.180700000000002
 30
0.0
 10
14.3994
 20
37.180700000000002
 30
0.0
 10
13.1753
 20
36.463500000000003
 30
0.0
 10
13.1753
 20
36.463500000000003
 30
0.0
 10
13.1753
 20
36.463500000000003
 30
0.0
 10
13.1753
 20
36.463500000000003
 30
0.0
 10
11.434699999999999
 20
36.690899999999999
 30
0.0
 10
11.434699999999999
 20
36.690899999999999
 30
0.0
 10
11.434699999999999
 20
36.690899999999999
 30
0.0
 10
11.434699999999999
 20
36.690899999999999
 30
0.0
 10
10.455399999999999
 20
37.924100000000003
 30
0.0
 10
10.455399999999999
 20
37.924100000000003
 30
0.0
 10
10.455399999999999
 20
37.924100000000003
 30
0.0
 10
10.455399999999999
 20
37.924100000000003
 30
0.0
 10
11.434699999999999
 20
42.6113
 30
0.0
 10
11.434699999999999
 20
42.6113
 30
0.0
 10
11.434699999999999
 20
42.6113
 30
0.0
 10
11.434699999999999
 20
42.6113
 30
0.0
 10
13.4024
 20
46.808900000000001
 30
0.0
 10
13.4024
 20
46.808900000000001
 30
0.0
 10
13.4024
 20
46.808900000000001
 30
0.0
 10
13.4024
 20
46.808900000000001
 30
0.0
 10
15.632400000000001
 20
49.266500000000001
 30
0.0
 10
15.632400000000001
 20
49.266500000000001
 30
0.0
 10
15.632400000000001
 20
49.266500000000001
 30
0.0
 10
15.632400000000001
 20
49.266500000000001
 30
0.0
 10
17.608799999999999
 20
50.4998
 30
0.0
 10
17.608799999999999
 20
50.4998
 30
0.0
 10
17.608799999999999
 20
50.4998
 30
0.0
 10
17.608799999999999
 20
50.4998
 30
0.0
 10
18.833200000000001
 20
50.009999999999998
 30
0.0
 10
18.833200000000001
 20
50.009999999999998
 30
0.0
 10
18.833200000000001
 20
50.009999999999998
 30
0.0
 10
18.833200000000001
 20
50.009999999999998
 30
0.0
 10
20.066299999999998
 20
47.045299999999997
 30
0.0
 10
20.066299999999998
 20
47.045299999999997
 30
0.0
 10
20.066299999999998
 20
47.045299999999997
 30
0.0
 10
20.066299999999998
 20
47.045299999999997
 30
0.0
 10
20.319900000000001
 20
45.812199999999997
 30
0.0
 10
20.319900000000001
 20
45.812199999999997
 30
0.0
 10
20.319900000000001
 20
45.812199999999997
 30
0.0
 10
20.319900000000001
 20
45.812199999999997
 30
0.0
 10
21.063099999999999
 20
44.8414
 30
0.0
 10
21.063099999999999
 20
44.8414
 30
0.0
 10
21.063099999999999
 20
44.8414
 30
0.0
 10
21.063099999999999
 20
44.8414
 30
0.0
 10
22.296299999999999
 20
38.177500000000002
 30
0.0
 10
22.296299999999999
 20
38.177500000000002
 30
0.0
  0
SPLINE
  5
33
100
AcDbEntity
  8
RÚteg 1
 62
     7
100
AcDbSpline
210
0.0
220
0.0
230
1.0
 70
     1
 71
     3
 72
    84
 73
    80
 74
     0
 42
0.0000000001
 43
0.0000000001
 40
0.0
 40
0.0
 40
0.0
 40
0.0
 40
0.05
 40
0.05
 40
0.05
 40
0.05
 40
0.1
 40
0.1
 40
0.1
 40
0.1
 40
0.15
 40
0.15
 40
0.15
 40
0.15
 40
0.2
 40
0.2
 40
0.2
 40
0.2
 40
0.25
 40
0.25
 40
0.25
 40
0.25
 40
0.3
 40
0.3
 40
0.3
 40
0.3
 40
0.35
 40
0.35
 40
0.35
 40
0.35
 40
0.4
 40
0.4
 40
0.4
 40
0.4
 40
0.45
 40
0.45
 40
0.45
 40
0.45
 40
0.4999999999999999
 40
0.4999999999999999
 40
0.4999999999999999
 40
0.4999999999999999
 40
0.5499999999999999
 40
0.5499999999999999
 40
0.5499999999999999
 40
0.5499999999999999
 40
0.6
 40
0.6
 40
0.6
 40
0.6
 40
0.65
 40
0.65
 40
0.65
 40
0.65
 40
0.7000000000000001
 40
0.7000000000000001
 40
0.7000000000000001
 40
0.7000000000000001
 40
0.7500000000000001
 40
0.7500000000000001
 40
0.7500000000000001
 40
0.7500000000000001
 40
0.8000000000000002
 40
0.8000000000000002
 40
0.8000000000000002
 40
0.8000000000000002
 40
0.8500000000000002
 40
0.8500000000000002
 40
0.8500000000000002
 40
0.8500000000000002
 40
0.9000000000000002
 40
0.9000000000000002
 40
0.9000000000000002
 40
0.9000000000000002
 40
0.9500000000000003
 40
0.9500000000000003
 40
0.9500000000000003
 40
0.9500000000000003
 40
1.0
 40
1.0
 40
1.0
 40
1.0
 10
13.6561
 20
57.9069
 30
0.0
 10
13.6561
 20
57.9069
 30
0.0
 10
13.1753
 20
54.697200000000002
 30
0.0
 10
13.1753
 20
54.697200000000002
 30
0.0
 10
13.1753
 20
54.697200000000002
 30
0.0
 10
13.1753
 20
54.697200000000002
 30
0.0
 10
12.431800000000001
 20
53.700299999999999
 30
0.0
 10
12.431800000000001
 20
53.700299999999999
 30
0.0
 10
12.431800000000001
 20
53.700299999999999
 30
0.0
 10
12.431800000000001
 20
53.700299999999999
 30
0.0
 10
11.916
 20
50.989400000000003
 30
0.0
 10
11.916
 20
50.989400000000003
 30
0.0
 10
11.916
 20
50.989400000000003
 30
0.0
 10
11.916
 20
50.989400000000003
 30
0.0
 10
9.7119999999999997
 20
44.8414
 30
0.0
 10
9.7119999999999997
 20
44.8414
 30
0.0
 10
9.7119999999999997
 20
44.8414
 30
0.0
 10
9.7119999999999997
 20
44.8414
 30
0.0
 10
8.4878
 20
42.865099999999998
 30
0.0
 10
8.4878
 20
42.865099999999998
 30
0.0
 10
8.4878
 20
42.865099999999998
 30
0.0
 10
8.4878
 20
42.865099999999998
 30
0.0
 10
6.2576000000000001
 20
41.868099999999998
 30
0.0
 10
6.2576000000000001
 20
41.868099999999998
 30
0.0
 10
6.2576000000000001
 20
41.868099999999998
 30
0.0
 10
6.2576000000000001
 20
41.868099999999998
 30
0.0
 10
5.5143000000000004
 20
42.3752
 30
0.0
 10
5.5143000000000004
 20
42.3752
 30
0.0
 10
5.5143000000000004
 20
42.3752
 30
0.0
 10
5.5143000000000004
 20
42.3752
 30
0.0
 10
0.8267
 20
42.6113
 30
0.0
 10
0.8267
 20
42.6113
 30
0.0
 10
0.8267
 20
42.6113
 30
0.0
 10
0.8267
 20
42.6113
 30
0.0
 10
-2.8635999999999999
 20
43.835599999999999
 30
0.0
 10
-2.8635999999999999
 20
43.835599999999999
 30
0.0
 10
-2.8635999999999999
 20
43.835599999999999
 30
0.0
 10
-2.8635999999999999
 20
43.835599999999999
 30
0.0
 10
-4.8399999999999999
 20
44.351599999999998
 30
0.0
 10
-4.8399999999999999
 20
44.351599999999998
 30
0.0
 10
-4.8399999999999999
 20
44.351599999999998
 30
0.0
 10
-4.8399999999999999
 20
44.351599999999998
 30
0.0
 10
-6.8076999999999996
 20
46.555599999999998
 30
0.0
 10
-6.8076999999999996
 20
46.555599999999998
 30
0.0
 10
-6.8076999999999996
 20
46.555599999999998
 30
0.0
 10
-6.8076999999999996
 20
46.555599999999998
 30
0.0
 10
-7.8135000000000003
 20
48.042299999999997
 30
0.0
 10
-7.8135000000000003
 20
48.042299999999997
 30
0.0
 10
-7.8135000000000003
 20
48.042299999999997
 30
0.0
 10
-7.8135000000000003
 20
48.042299999999997
 30
0.0
 10
-7.8135000000000003
 20
52.476199999999999
 30
0.0
 10
-7.8135000000000003
 20
52.476199999999999
 30
0.0
 10
-7.8135000000000003
 20
52.476199999999999
 30
0.0
 10
-7.8135000000000003
 20
52.476199999999999
 30
0.0
 10
-3.8605
 20
62.104599999999998
 30
0.0
 10
-3.8605
 20
62.104599999999998
 30
0.0
 10
-3.8605
 20
62.104599999999998
 30
0.0
 10
-3.8605
 20
62.104599999999998
 30
0.0
 10
-1.8928
 20
64.080799999999996
 30
0.0
 10
-1.8928
 20
64.080799999999996
 30
0.0
 10
-1.8928
 20
64.080799999999996
 30
0.0
 10
-1.8928
 20
64.080799999999996
 30
0.0
 10
0.5907
 20
64.797899999999998
 30
0.0
 10
0.5907
 20
64.797899999999998
 30
0.0
 10
0.5907
 20
64.797899999999998
 30
0.0
 10
0.5907
 20
64.797899999999998
 30
0.0
 10
7.0010000000000003
 20
64.308300000000003
 30
0.0
 10
7.0010000000000003
 20
64.308300000000003
 30
0.0
 10
7.0010000000000003
 20
64.308300000000003
 30
0.0
 10
7.0010000000000003
 20
64.308300000000003
 30
0.0
 10
11.916
 20
61.597200000000001
 30
0.0
 10
11.916
 20
61.597200000000001
 30
0.0
 10
11.916
 20
61.597200000000001
 30
0.0
 10
11.916
 20
61.597200000000001
 30
0.0
 10
12.9215
 20
59.393300000000004
 30
0.0
 10
12.9215
 20
59.393300000000004
 30
0.0
 10
12.9215
 20
59.393300000000004
 30
0.0
 10
12.9215
 20
59.393300000000004
 30
0.0
 10
13.6561
 20
57.9069
 30
0.0
 10
13.6561
 20
57.9069
 30
0.0
  0
SPLINE
  5
34
100
AcDbEntity
  8
RÚteg 1
 62
     7
100
AcDbSpline
210
0.0
220
0.0
230
1.0
 70
     1
 71
     3
 72
   264
 73
   260
 74
     0
 42
0.0000000001
 43
0.0000000001
 40
0.0
 40
0.0
 40
0.0
 40
0.0
 40
0.0153846153846154
 40
0.0153846153846154
 40
0.0153846153846154
 40
0.0153846153846154
 40
0.0307692307692308
 40
0.0307692307692308
 40
0.0307692307692308
 40
0.0307692307692308
 40
0.0461538461538462
 40
0.0461538461538462
 40
0.0461538461538462
 40
0.0461538461538462
 40
0.0615384615384615
 40
0.0615384615384615
 40
0.0615384615384615
 40
0.0615384615384615
 40
0.0769230769230769
 40
0.0769230769230769
 40
0.0769230769230769
 40
0.0769230769230769
 40
0.0923076923076923
 40
0.0923076923076923
 40
0.0923076923076923
 40
0.0923076923076923
 40
0.1076923076923077
 40
0.1076923076923077
 40
0.1076923076923077
 40
0.1076923076923077
 40
0.1230769230769231
 40
0.1230769230769231
 40
0.1230769230769231
 40
0.1230769230769231
 40
0.1384615384615385
 40
0.1384615384615385
 40
0.1384615384615385
 40
0.1384615384615385
 40
0.1538461538461539
 40
0.1538461538461539
 40
0.1538461538461539
 40
0.1538461538461539
 40
0.1692307692307692
 40
0.1692307692307692
 40
0.1692307692307692
 40
0.1692307692307692
 40
0.1846153846153846
 40
0.1846153846153846
 40
0.1846153846153846
 40
0.1846153846153846
 40
0.2
 40
0.2
 40
0.2
 40
0.2
 40
0.2153846153846154
 40
0.2153846153846154
 40
0.2153846153846154
 40
0.2153846153846154
 40
0.2307692307692308
 40
0.2307692307692308
 40
0.2307692307692308
 40
0.2307692307692308
 40
0.2461538461538462
 40
0.2461538461538462
 40
0.2461538461538462
 40
0.2461538461538462
 40
0.2615384615384616
 40
0.2615384615384616
 40
0.2615384615384616
 40
0.2615384615384616
 40
0.2769230769230769
 40
0.2769230769230769
 40
0.2769230769230769
 40
0.2769230769230769
 40
0.2923076923076923
 40
0.2923076923076923
 40
0.2923076923076923
 40
0.2923076923076923
 40
0.3076923076923077
 40
0.3076923076923077
 40
0.3076923076923077
 40
0.3076923076923077
 40
0.3230769230769231
 40
0.3230769230769231
 40
0.3230769230769231
 40
0.3230769230769231
 40
0.3384615384615385
 40
0.3384615384615385
 40
0.3384615384615385
 40
0.3384615384615385
 40
0.3538461538461539
 40
0.3538461538461539
 40
0.3538461538461539
 40
0.3538461538461539
 40
0.3692307692307693
 40
0.3692307692307693
 40
0.3692307692307693
 40
0.3692307692307693
 40
0.3846153846153846
 40
0.3846153846153846
 40
0.3846153846153846
 40
0.3846153846153846
 40
0.4
 40
0.4
 40
0.4
 40
0.4
 40
0.4153846153846154
 40
0.4153846153846154
 40
0.4153846153846154
 40
0.4153846153846154
 40
0.4307692307692308
 40
0.4307692307692308
 40
0.4307692307692308
 40
0.4307692307692308
 40
0.4461538461538462
 40
0.4461538461538462
 40
0.4461538461538462
 40
0.4461538461538462
 40
0.4615384615384616
 40
0.4615384615384616
 40
0.4615384615384616
 40
0.4615384615384616
 40
0.476923076923077
 40
0.476923076923077
 40
0.476923076923077
 40
0.476923076923077
 40
0.4923076923076923
 40
0.4923076923076923
 40
0.4923076923076923
 40
0.4923076923076923
 40
0.5076923076923077
 40
0.5076923076923077
 40
0.5076923076923077
 40
0.5076923076923077
 40
0.523076923076923
 40
0.523076923076923
 40
0.523076923076923
 40
0.523076923076923
 40
0.5384615384615383
 40
0.5384615384615383
 40
0.5384615384615383
 40
0.5384615384615383
 40
0.5538461538461537
 40
0.5538461538461537
 40
0.5538461538461537
 40
0.5538461538461537
 40
0.569230769230769
 40
0.569230769230769
 40
0.569230769230769
 40
0.569230769230769
 40
0.5846153846153843
 40
0.5846153846153843
 40
0.5846153846153843
 40
0.5846153846153843
 40
0.5999999999999996
 40
0.5999999999999996
 40
0.5999999999999996
 40
0.5999999999999996
 40
0.615384615384615
 40
0.615384615384615
 40
0.615384615384615
 40
0.615384615384615
 40
0.6307692307692303
 40
0.6307692307692303
 40
0.6307692307692303
 40
0.6307692307692303
 40
0.6461538461538456
 40
0.6461538461538456
 40
0.6461538461538456
 40
0.6461538461538456
 40
0.661538461538461
 40
0.661538461538461
 40
0.661538461538461
 40
0.661538461538461
 40
0.6769230769230763
 40
0.6769230769230763
 40
0.6769230769230763
 40
0.6769230769230763
 40
0.6923076923076916
 40
0.6923076923076916
 40
0.6923076923076916
 40
0.6923076923076916
 40
0.707692307692307
 40
0.707692307692307
 40
0.707692307692307
 40
0.707692307692307
 40
0.7230769230769223
 40
0.7230769230769223
 40
0.7230769230769223
 40
0.7230769230769223
 40
0.7384615384615376
 40
0.7384615384615376
 40
0.7384615384615376
 40
0.7384615384615376
 40
0.7538461538461529
 40
0.7538461538461529
 40
0.7538461538461529
 40
0.7538461538461529
 40
0.7692307692307683
 40
0.7692307692307683
 40
0.7692307692307683
 40
0.7692307692307683
 40
0.7846153846153836
 40
0.7846153846153836
 40
0.7846153846153836
 40
0.7846153846153836
 40
0.7999999999999989
 40
0.7999999999999989
 40
0.7999999999999989
 40
0.7999999999999989
 40
0.8153846153846143
 40
0.8153846153846143
 40
0.8153846153846143
 40
0.8153846153846143
 40
0.8307692307692296
 40
0.8307692307692296
 40
0.8307692307692296
 40
0.8307692307692296
 40
0.8461538461538449
 40
0.8461538461538449
 40
0.8461538461538449
 40
0.8461538461538449
 40
0.8615384615384603
 40
0.8615384615384603
 40
0.8615384615384603
 40
0.8615384615384603
 40
0.8769230769230756
 40
0.8769230769230756
 40
0.8769230769230756
 40
0.8769230769230756
 40
0.8923076923076909
 40
0.8923076923076909
 40
0.8923076923076909
 40
0.8923076923076909
 40
0.9076923076923062
 40
0.9076923076923062
 40
0.9076923076923062
 40
0.9076923076923062
 40
0.9230769230769216
 40
0.9230769230769216
 40
0.9230769230769216
 40
0.9230769230769216
 40
0.9384615384615369
 40
0.9384615384615369
 40
0.9384615384615369
 40
0.9384615384615369
 40
0.9538461538461522
 40
0.9538461538461522
 40
0.9538461538461522
 40
0.9538461538461522
 40
0.9692307692307676
 40
0.9692307692307676
 40
0.9692307692307676
 40
0.9692307692307676
 40
0.9846153846153829
 40
0.9846153846153829
 40
0.9846153846153829
 40
0.9846153846153829
 40
1.0
 40
1.0
 40
1.0
 40
1.0
 10
42.768900000000002
 20
33.971200000000003
 30
0.0
 10
42.768900000000002
 20
33.971200000000003
 30
0.0
 10
38.816200000000002
 20
27.315999999999999
 30
0.0
 10
38.816200000000002
 20
27.315999999999999
 30
0.0
 10
38.816200000000002
 20
27.315999999999999
 30
0.0
 10
38.816200000000002
 20
27.315999999999999
 30
0.0
 10
38.5623
 20
24.106400000000001
 30
0.0
 10
38.5623
 20
24.106400000000001
 30
0.0
 10
38.5623
 20
24.106400000000001
 30
0.0
 10
38.5623
 20
24.106400000000001
 30
0.0
 10
38.308900000000001
 20
22.1389
 30
0.0
 10
38.308900000000001
 20
22.1389
 30
0.0
 10
38.308900000000001
 20
22.1389
 30
0.0
 10
38.308900000000001
 20
22.1389
 30
0.0
 10
36.848500000000001
 20
20.678599999999999
 30
0.0
 10
36.848500000000001
 20
20.678599999999999
 30
0.0
 10
36.848500000000001
 20
20.678599999999999
 30
0.0
 10
36.848500000000001
 20
20.678599999999999
 30
0.0
 10
34.364800000000002
 20
19.4191
 30
0.0
 10
34.364800000000002
 20
19.4191
 30
0.0
 10
34.364800000000002
 20
19.4191
 30
0.0
 10
34.364800000000002
 20
19.4191
 30
0.0
 10
33.385199999999998
 20
19.935099999999998
 30
0.0
 10
33.385199999999998
 20
19.935099999999998
 30
0.0
 10
33.385199999999998
 20
19.935099999999998
 30
0.0
 10
33.385199999999998
 20
19.935099999999998
 30
0.0
 10
32.161200000000001
 20
21.6492
 30
0.0
 10
32.161200000000001
 20
21.6492
 30
0.0
 10
32.161200000000001
 20
21.6492
 30
0.0
 10
32.161200000000001
 20
21.6492
 30
0.0
 10
29.931100000000001
 20
21.6492
 30
0.0
 10
29.931100000000001
 20
21.6492
 30
0.0
 10
29.931100000000001
 20
21.6492
 30
0.0
 10
29.931100000000001
 20
21.6492
 30
0.0
 10
27.954499999999999
 20
20.678599999999999
 30
0.0
 10
27.954499999999999
 20
20.678599999999999
 30
0.0
 10
27.954499999999999
 20
20.678599999999999
 30
0.0
 10
27.954499999999999
 20
20.678599999999999
 30
0.0
 10
25.986799999999999
 20
20.424800000000001
 30
0.0
 10
25.986799999999999
 20
20.424800000000001
 30
0.0
 10
25.986799999999999
 20
20.424800000000001
 30
0.0
 10
25.986799999999999
 20
20.424800000000001
 30
0.0
 10
24.010200000000001
 20
19.935099999999998
 30
0.0
 10
24.010200000000001
 20
19.935099999999998
 30
0.0
 10
24.010200000000001
 20
19.935099999999998
 30
0.0
 10
24.010200000000001
 20
19.935099999999998
 30
0.0
 10
22.523700000000002
 20
18.4482
 30
0.0
 10
22.523700000000002
 20
18.4482
 30
0.0
 10
22.523700000000002
 20
18.4482
 30
0.0
 10
22.523700000000002
 20
18.4482
 30
0.0
 10
19.323
 20
18.4482
 30
0.0
 10
19.323
 20
18.4482
 30
0.0
 10
19.323
 20
18.4482
 30
0.0
 10
19.323
 20
18.4482
 30
0.0
 10
18.3522
 20
19.935099999999998
 30
0.0
 10
18.3522
 20
19.935099999999998
 30
0.0
 10
18.3522
 20
19.935099999999998
 30
0.0
 10
18.3522
 20
19.935099999999998
 30
0.0
 10
17.608799999999999
 20
20.678599999999999
 30
0.0
 10
17.608799999999999
 20
20.678599999999999
 30
0.0
 10
17.608799999999999
 20
20.678599999999999
 30
0.0
 10
17.608799999999999
 20
20.678599999999999
 30
0.0
 10
13.6561
 20
20.424800000000001
 30
0.0
 10
13.6561
 20
20.424800000000001
 30
0.0
 10
13.6561
 20
20.424800000000001
 30
0.0
 10
13.6561
 20
20.424800000000001
 30
0.0
 10
12.178100000000001
 20
19.935099999999998
 30
0.0
 10
12.178100000000001
 20
19.935099999999998
 30
0.0
 10
12.178100000000001
 20
19.935099999999998
 30
0.0
 10
12.178100000000001
 20
19.935099999999998
 30
0.0
 10
11.434699999999999
 20
18.938199999999998
 30
0.0
 10
11.434699999999999
 20
18.938199999999998
 30
0.0
 10
11.434699999999999
 20
18.938199999999998
 30
0.0
 10
11.434699999999999
 20
18.938199999999998
 30
0.0
 10
11.198700000000001
 20
17.704999999999998
 30
0.0
 10
11.198700000000001
 20
17.704999999999998
 30
0.0
 10
11.198700000000001
 20
17.704999999999998
 30
0.0
 10
11.198700000000001
 20
17.704999999999998
 30
0.0
 10
9.4582999999999995
 20
17.704999999999998
 30
0.0
 10
9.4582999999999995
 20
17.704999999999998
 30
0.0
 10
9.4582999999999995
 20
17.704999999999998
 30
0.0
 10
9.4582999999999995
 20
17.704999999999998
 30
0.0
 10
8.2254000000000005
 20
19.191700000000001
 30
0.0
 10
8.2254000000000005
 20
19.191700000000001
 30
0.0
 10
8.2254000000000005
 20
19.191700000000001
 30
0.0
 10
8.2254000000000005
 20
19.191700000000001
 30
0.0
 10
7.9717000000000002
 20
20.678599999999999
 30
0.0
 10
7.9717000000000002
 20
20.678599999999999
 30
0.0
 10
7.9717000000000002
 20
20.678599999999999
 30
0.0
 10
7.9717000000000002
 20
20.678599999999999
 30
0.0
 10
7.2545999999999999
 20
21.167899999999999
 30
0.0
 10
7.2545999999999999
 20
21.167899999999999
 30
0.0
 10
7.2545999999999999
 20
21.167899999999999
 30
0.0
 10
7.2545999999999999
 20
21.167899999999999
 30
0.0
 10
4.5434999999999999
 20
20.9057
 30
0.0
 10
4.5434999999999999
 20
20.9057
 30
0.0
 10
4.5434999999999999
 20
20.9057
 30
0.0
 10
4.5434999999999999
 20
20.9057
 30
0.0
 10
1.8239000000000001
 20
20.424800000000001
 30
0.0
 10
1.8239000000000001
 20
20.424800000000001
 30
0.0
 10
1.8239000000000001
 20
20.424800000000001
 30
0.0
 10
1.8239000000000001
 20
20.424800000000001
 30
0.0
 10
1.0805
 20
20.424800000000001
 30
0.0
 10
1.0805
 20
20.424800000000001
 30
0.0
 10
1.0805
 20
20.424800000000001
 30
0.0
 10
1.0805
 20
20.424800000000001
 30
0.0
 10
-0.8959
 20
18.702100000000002
 30
0.0
 10
-0.8959
 20
18.702100000000002
 30
0.0
 10
-0.8959
 20
18.702100000000002
 30
0.0
 10
-0.8959
 20
18.702100000000002
 30
0.0
 10
-1.3772
 20
18.702100000000002
 30
0.0
 10
-1.3772
 20
18.702100000000002
 30
0.0
 10
-1.3772
 20
18.702100000000002
 30
0.0
 10
-1.3772
 20
18.702100000000002
 30
0.0
 10
-4.3502999999999998
 20
26.8261
 30
0.0
 10
-4.3502999999999998
 20
26.8261
 30
0.0
 10
-4.3502999999999998
 20
26.8261
 30
0.0
 10
-4.3502999999999998
 20
26.8261
 30
0.0
 10
-5.5833000000000004
 20
28.802800000000001
 30
0.0
 10
-5.5833000000000004
 20
28.802800000000001
 30
0.0
 10
-5.5833000000000004
 20
28.802800000000001
 30
0.0
 10
-5.5833000000000004
 20
28.802800000000001
 30
0.0
 10
-7.0700000000000003
 20
30.770499999999998
 30
0.0
 10
-7.0700000000000003
 20
30.770499999999998
 30
0.0
 10
-7.0700000000000003
 20
30.770499999999998
 30
0.0
 10
-7.0700000000000003
 20
30.770499999999998
 30
0.0
 10
-7.0700000000000003
 20
31.260100000000001
 30
0.0
 10
-7.0700000000000003
 20
31.260100000000001
 30
0.0
 10
-7.0700000000000003
 20
31.260100000000001
 30
0.0
 10
-7.0700000000000003
 20
31.260100000000001
 30
0.0
 10
-6.5541999999999998
 20
31.767399999999999
 30
0.0
 10
-6.5541999999999998
 20
31.767399999999999
 30
0.0
 10
-6.5541999999999998
 20
31.767399999999999
 30
0.0
 10
-6.5541999999999998
 20
31.767399999999999
 30
0.0
 10
-3.3534000000000002
 20
30.770499999999998
 30
0.0
 10
-3.3534000000000002
 20
30.770499999999998
 30
0.0
 10
-3.3534000000000002
 20
30.770499999999998
 30
0.0
 10
-3.3534000000000002
 20
30.770499999999998
 30
0.0
 10
-3.1172
 20
30.027000000000001
 30
0.0
 10
-3.1172
 20
30.027000000000001
 30
0.0
 10
-3.1172
 20
30.027000000000001
 30
0.0
 10
-3.1172
 20
30.027000000000001
 30
0.0
 10
0.3372
 20
27.569700000000001
 30
0.0
 10
0.3372
 20
27.569700000000001
 30
0.0
 10
0.3372
 20
27.569700000000001
 30
0.0
 10
0.3372
 20
27.569700000000001
 30
0.0
 10
0.5907
 20
25.112400000000001
 30
0.0
 10
0.5907
 20
25.112400000000001
 30
0.0
 10
0.5907
 20
25.112400000000001
 30
0.0
 10
0.5907
 20
25.112400000000001
 30
0.0
 10
1.0805
 20
24.369
 30
0.0
 10
1.0805
 20
24.369
 30
0.0
 10
1.0805
 20
24.369
 30
0.0
 10
1.0805
 20
24.369
 30
0.0
 10
2.7947000000000002
 20
24.106400000000001
 30
0.0
 10
2.7947000000000002
 20
24.106400000000001
 30
0.0
 10
2.7947000000000002
 20
24.106400000000001
 30
0.0
 10
2.7947000000000002
 20
24.106400000000001
 30
0.0
 10
3.5377999999999998
 20
24.106400000000001
 30
0.0
 10
3.5377999999999998
 20
24.106400000000001
 30
0.0
 10
3.5377999999999998
 20
24.106400000000001
 30
0.0
 10
3.5377999999999998
 20
24.106400000000001
 30
0.0
 10
4.2809999999999997
 20
24.849900000000002
 30
0.0
 10
4.2809999999999997
 20
24.849900000000002
 30
0.0
 10
4.2809999999999997
 20
24.849900000000002
 30
0.0
 10
4.2809999999999997
 20
24.849900000000002
 30
0.0
 10
4.5434999999999999
 20
26.599
 30
0.0
 10
4.5434999999999999
 20
26.599
 30
0.0
 10
4.5434999999999999
 20
26.599
 30
0.0
 10
4.5434999999999999
 20
26.599
 30
0.0
 10
7.2545999999999999
 20
27.079899999999999
 30
0.0
 10
7.2545999999999999
 20
27.079899999999999
 30
0.0
 10
7.2545999999999999
 20
27.079899999999999
 30
0.0
 10
7.2545999999999999
 20
27.079899999999999
 30
0.0
 10
9.2309999999999999
 20
28.0594
 30
0.0
 10
9.2309999999999999
 20
28.0594
 30
0.0
 10
9.2309999999999999
 20
28.0594
 30
0.0
 10
9.2309999999999999
 20
28.0594
 30
0.0
 10
10.6914
 20
28.0594
 30
0.0
 10
10.6914
 20
28.0594
 30
0.0
 10
10.6914
 20
28.0594
 30
0.0
 10
10.6914
 20
28.0594
 30
0.0
 10
10.9451
 20
26.082799999999999
 30
0.0
 10
10.9451
 20
26.082799999999999
 30
0.0
 10
10.9451
 20
26.082799999999999
 30
0.0
 10
10.9451
 20
26.082799999999999
 30
0.0
 10
11.434699999999999
 20
24.622499999999999
 30
0.0
 10
11.434699999999999
 20
24.622499999999999
 30
0.0
 10
11.434699999999999
 20
24.622499999999999
 30
0.0
 10
11.434699999999999
 20
24.622499999999999
 30
0.0
 10
15.632400000000001
 20
24.622499999999999
 30
0.0
 10
15.632400000000001
 20
24.622499999999999
 30
0.0
 10
15.632400000000001
 20
24.622499999999999
 30
0.0
 10
15.632400000000001
 20
24.622499999999999
 30
0.0
 10
16.375900000000001
 20
25.112400000000001
 30
0.0
 10
16.375900000000001
 20
25.112400000000001
 30
0.0
 10
16.375900000000001
 20
25.112400000000001
 30
0.0
 10
16.375900000000001
 20
25.112400000000001
 30
0.0
 10
17.346599999999999
 20
28.0594
 30
0.0
 10
17.346599999999999
 20
28.0594
 30
0.0
 10
17.346599999999999
 20
28.0594
 30
0.0
 10
17.346599999999999
 20
28.0594
 30
0.0
 10
22.523700000000002
 20
28.566700000000001
 30
0.0
 10
22.523700000000002
 20
28.566700000000001
 30
0.0
 10
22.523700000000002
 20
28.566700000000001
 30
0.0
 10
22.523700000000002
 20
28.566700000000001
 30
0.0
 10
23.520800000000001
 20
24.849900000000002
 30
0.0
 10
23.520800000000001
 20
24.849900000000002
 30
0.0
 10
23.520800000000001
 20
24.849900000000002
 30
0.0
 10
23.520800000000001
 20
24.849900000000002
 30
0.0
 10
23.520800000000001
 20
24.622499999999999
 30
0.0
 10
23.520800000000001
 20
24.622499999999999
 30
0.0
 10
23.520800000000001
 20
24.622499999999999
 30
0.0
 10
23.520800000000001
 20
24.622499999999999
 30
0.0
 10
27.954499999999999
 20
24.369
 30
0.0
 10
27.954499999999999
 20
24.369
 30
0.0
 10
27.954499999999999
 20
24.369
 30
0.0
 10
27.954499999999999
 20
24.369
 30
0.0
 10
28.444199999999999
 20
24.849900000000002
 30
0.0
 10
28.444199999999999
 20
24.849900000000002
 30
0.0
 10
28.444199999999999
 20
24.849900000000002
 30
0.0
 10
28.444199999999999
 20
24.849900000000002
 30
0.0
 10
28.697800000000001
 20
28.566700000000001
 30
0.0
 10
28.697800000000001
 20
28.566700000000001
 30
0.0
 10
28.697800000000001
 20
28.566700000000001
 30
0.0
 10
28.697800000000001
 20
28.566700000000001
 30
0.0
 10
31.898399999999999
 20
29.546299999999999
 30
0.0
 10
31.898399999999999
 20
29.546299999999999
 30
0.0
 10
31.898399999999999
 20
29.546299999999999
 30
0.0
 10
31.898399999999999
 20
29.546299999999999
 30
0.0
 10
32.904200000000003
 20
26.082799999999999
 30
0.0
 10
32.904200000000003
 20
26.082799999999999
 30
0.0
 10
32.904200000000003
 20
26.082799999999999
 30
0.0
 10
32.904200000000003
 20
26.082799999999999
 30
0.0
 10
34.8718
 20
25.855599999999999
 30
0.0
 10
34.8718
 20
25.855599999999999
 30
0.0
 10
34.8718
 20
25.855599999999999
 30
0.0
 10
34.8718
 20
25.855599999999999
 30
0.0
 10
35.589199999999998
 20
25.855599999999999
 30
0.0
 10
35.589199999999998
 20
25.855599999999999
 30
0.0
 10
35.589199999999998
 20
25.855599999999999
 30
0.0
 10
35.589199999999998
 20
25.855599999999999
 30
0.0
 10
36.104999999999997
 20
26.336400000000001
 30
0.0
 10
36.104999999999997
 20
26.336400000000001
 30
0.0
 10
36.104999999999997
 20
26.336400000000001
 30
0.0
 10
36.104999999999997
 20
26.336400000000001
 30
0.0
 10
35.851399999999998
 20
29.799600000000002
 30
0.0
 10
35.851399999999998
 20
29.799600000000002
 30
0.0
 10
35.851399999999998
 20
29.799600000000002
 30
0.0
 10
35.851399999999998
 20
29.799600000000002
 30
0.0
 10
40.792499999999997
 20
32.510599999999997
 30
0.0
 10
40.792499999999997
 20
32.510599999999997
 30
0.0
 10
40.792499999999997
 20
32.510599999999997
 30
0.0
 10
40.792499999999997
 20
32.510599999999997
 30
0.0
 10
42.253100000000003
 20
33.971200000000003
 30
0.0
 10
42.253100000000003
 20
33.971200000000003
 30
0.0
 10
42.253100000000003
 20
33.971200000000003
 30
0.0
 10
42.253100000000003
 20
33.971200000000003
 30
0.0
 10
42.768900000000002
 20
33.971200000000003
 30
0.0
 10
42.768900000000002
 20
33.971200000000003
 30
0.0
  0
SPLINE
  5
35
100
AcDbEntity
  8
RÚteg 1
 62
     7
100
AcDbSpline
210
0.0
220
0.0
230
1.0
 70
     1
 71
     3
 72
    20
 73
    16
 74
     0
 42
0.0000000001
 43
0.0000000001
 40
0.0
 40
0.0
 40
0.0
 40
0.0
 40
0.25
 40
0.25
 40
0.25
 40
0.25
 40
0.5
 40
0.5
 40
0.5
 40
0.5
 40
0.75
 40
0.75
 40
0.75
 40
0.75
 40
1.0
 40
1.0
 40
1.0
 40
1.0
 10
15.975
 20
82.585899999999995
 30
0.0
 10
17.7563
 20
82.585899999999995
 30
0.0
 10
19.200700000000001
 20
81.141400000000004
 30
0.0
 10
19.200700000000001
 20
79.360299999999995
 30
0.0
 10
19.200700000000001
 20
79.360299999999995
 30
0.0
 10
19.200700000000001
 20
77.578900000000004
 30
0.0
 10
17.7563
 20
76.134500000000003
 30
0.0
 10
15.975
 20
76.134500000000003
 30
0.0
 10
15.975
 20
76.134500000000003
 30
0.0
 10
14.1936
 20
76.134500000000003
 30
0.0
 10
12.7492
 20
77.578900000000004
 30
0.0
 10
12.7492
 20
79.360299999999995
 30
0.0
 10
12.7492
 20
79.360299999999995
 30
0.0
 10
12.7492
 20
81.141400000000004
 30
0.0
 10
14.1936
 20
82.585899999999995
 30
0.0
 10
15.975
 20
82.585899999999995
 30
0.0
  0
ENDSEC
  0
SECTION
  2
OBJECTS
  0
DICTIONARY
  5
19
100
AcDbDictionary
280
     0
281
     1
  3
ACAD_GROUP
350
1A
  3
ACAD_MLINESTYLE
350
1B
  3
ACAD_LAYOUT
350
1E
  3
ACAD_PLOTSETTINGS
350
22
  3
ACAD_PLOTSTYLENAME
350
1F
  3
ACAD_WIPEOUT_VARS
350
23
  0
DICTIONARY
  5
1A
102
{ACAD_REACTORS
330
19
102
}
100
AcDbDictionary
280
     0
281
     1
  0
DICTIONARY
  5
1B
102
{ACAD_REACTORS
330
19
102
}
100
AcDbDictionary
280
     0
281
     1
  3
Standard
350
1C
  0
MLINESTYLE
  5
1C
102
{ACAD_REACTORS
330
1B
102
}
100
AcDbMlineStyle
  2
Standard
 70
     0
  3

 62
     0
 51
90.0
 52
90.0
 71
     2
 49
0.5
 62
   256
  6
BYLAYER
 49
-0.5
 62
   256
  6
BYLAYER
  0
ACDBDICTIONARYWDFLT
  5
1F
102
{ACAD_REACTORS
330
19
102
}
100
AcDbDictionary
281
     1
  3
Normal
350
1D
100
AcDbDictionaryWithDefault
340
1D
  0
ACDBPLACEHOLDER
  5
1D
102
{ACAD_REACTORS
330
1F
102
}
  0
LAYOUT
  5
20
102
{ACAD_REACTORS
330
1E
102
}
100
AcDbPlotSettings
  1

  2

  4

  6

 40
0.0
 41
0.0
 42
0.0
 43
0.0
 44
0.0
 45
0.0
 46
0.0
 47
0.0
 48
0.0
 49
0.0
140
0.0
141
0.0
142
1.0
143
1.0
 70
  1024
 72
     0
 73
     0
 74
     0
  7

 75
     0
147
1.0
148
0.0
149
0.0
100
AcDbLayout
  1
Model
 70
     0
 71
     0
 10
0.0
 20
0.0
 11
0.0
 21
0.0
 12
0.0
 22
0.0
 32
0.0
 14
0.0
 24
0.0
 34
0.0
 15
0.0
 25
0.0
 35
0.0
146
0.0
 13
0.0
 23
0.0
 33
0.0
 16
0.0
 26
0.0
 36
0.0
 17
0.0
 27
0.0
 37
0.0
 76
     0
330
A
331
0
345
0
346
0
  0
LAYOUT
  5
21
102
{ACAD_REACTORS
330
1E
102
}
100
AcDbPlotSettings
  1

  2

  4

  6

 40
0.0
 41
0.0
 42
0.0
 43
0.0
 44
0.0
 45
0.0
 46
0.0
 47
0.0
 48
0.0
 49
0.0
140
0.0
141
0.0
142
1.0
143
1.0
 70
     0
 72
     0
 73
     0
 74
     0
  7

 75
     0
147
1.0
148
0.0
149
0.0
100
AcDbLayout
  1
Layout1
 70
     0
 71
     0
 10
0.0
 20
0.0
 11
0.0
 21
0.0
 12
0.0
 22
0.0
 32
0.0
 14
0.0
 24
0.0
 34
0.0
 15
0.0
 25
0.0
 35
0.0
146
0.0
 13
0.0
 23
0.0
 33
0.0
 16
0.0
 26
0.0
 36
0.0
 17
0.0
 27
0.0
 37
0.0
 76
     0
330
B
331
0
345
0
346
0
  0
DICTIONARY
  5
1E
102
{ACAD_REACTORS
330
19
102
}
100
AcDbDictionary
280
     0
281
     1
  3
Layout1
350
21
  3
Model
350
20
  0
DICTIONARY
  5
22
102
{ACAD_REACTORS
330
19
102
}
100
AcDbDictionary
280
     0
281
     1
  0
WIPEOUTVARIABLES
  5
23
100
AcDbWipeoutVariables
 70
     1
  0
ENDSEC
  0
EOF
