  0
SECTION
  2
HEADER
  9
$ACADVER
  1
AC1015
  9
$ACADMAINTVER
 70
     6
  9
$DWGCODEPAGE
  3
DOS850
  9
$INSBASE
 10
0.0
 20
0.0
 30
0.0
  9
$EXTMIN
 10
-76.2882
 20
8.5185
 30
1.000000E+20
  9
$EXTMAX
 10
-7.8618
 20
82.5821
 30
-1.000000E+20
  9
$LIMMIN
 10
0.0
 20
0.0
  9
$LIMMAX
 10
0.0
 20
0.0
  9
$ORTHOMODE
 70
     0
  9
$REGENMODE
 70
     1
  9
$FILLMODE
 70
     1
  9
$QTEXTMODE
 70
     0
  9
$MIRRTEXT
 70
     1
  9
$LTSCALE
 40
1.0
  9
$ATTMODE
 70
     1
  9
$TEXTSIZE
 40
0.2
  9
$TRACEWID
 40
0.05
  9
$TEXTSTYLE
  7
Standard
  9
$CLAYER
  8
0
  9
$CELTYPE
  6
Continuous
  9
$CECOLOR
 62
   256
  9
$CELTSCALE
 40
1.0
  9
$DISPSILH
 70
     0
  9
$DIMSCALE
 40
1.0
  9
$DIMASZ
 40
0.18
  9
$DIMEXO
 40
0.0625
  9
$DIMDLI
 40
0.38
  9
$DIMRND
 40
0.0
  9
$DIMDLE
 40
0.0
  9
$DIMEXE
 40
0.18
  9
$DIMTP
 40
0.0
  9
$DIMTM
 40
0.0
  9
$DIMTXT
 40
0.18
  9
$DIMCEN
 40
0.09
  9
$DIMTSZ
 40
0.0
  9
$DIMTOL
 70
     0
  9
$DIMLIM
 70
     0
  9
$DIMTIH
 70
     1
  9
$DIMTOH
 70
     1
  9
$DIMSE1
 70
     0
  9
$DIMSE2
 70
     0
  9
$DIMTAD
 70
     0
  9
$DIMZIN
 70
     0
  9
$DIMBLK
  1

  9
$DIMASO
 70
     1
  9
$DIMSHO
 70
     1
  9
$DIMPOST
  1

  9
$DIMAPOST
  1

  9
$DIMALT
 70
     0
  9
$DIMALTD
 70
     2
  9
$DIMALTF
 40
25.4
  9
$DIMLFAC
 40
1.0
  9
$DIMTOFL
 70
     0
  9
$DIMTVP
 40
0.0
  9
$DIMTIX
 70
     0
  9
$DIMSOXD
 70
     0
  9
$DIMSAH
 70
     0
  9
$DIMBLK1
  1

  9
$DIMBLK2
  1

  9
$DIMSTYLE
  2
Standard
  9
$DIMCLRD
 70
     0
  9
$DIMCLRE
 70
     0
  9
$DIMCLRT
 70
     0
  9
$DIMTFAC
 40
1.0
  9
$DIMGAP
 40
0.09
  9
$DIMJUST
 70
     0
  9
$DIMSD1
 70
     0
  9
$DIMSD2
 70
     0
  9
$DIMTOLJ
 70
     1
  9
$DIMTZIN
 70
     0
  9
$DIMALTZ
 70
     0
  9
$DIMALTTZ
 70
     0
  9
$DIMUPT
 70
     0
  9
$DIMDEC
 70
     4
  9
$DIMTDEC
 70
     4
  9
$DIMALTU
 70
     2
  9
$DIMALTTD
 70
     2
  9
$DIMTXSTY
  7
Standard
  9
$DIMAUNIT
 70
     0
  9
$DIMADEC
 70
     0
  9
$DIMALTRND
 40
0.0
  9
$DIMAZIN
 70
     0
  9
$DIMDSEP
 70
     0
  9
$DIMATFIT
 70
     3
  9
$DIMFRAC
 70
     0
  9
$DIMLDRBLK
  1

  9
$DIMLUNIT
 70
     2
  9
$DIMLWD
 70
     0
  9
$DIMLWE
 70
     0
  9
$DIMTMOVE
 70
     0
  9
$LUNITS
 70
     2
  9
$LUPREC
 70
     4
  9
$SKETCHINC
 40
0.1
  9
$FILLETRAD
 40
0.0
  9
$AUNITS
 70
     0
  9
$AUPREC
 70
     0
  9
$MENU
  1
acad
  9
$ELEVATION
 40
0.0
  9
$PELEVATION
 40
0.0
  9
$THICKNESS
 40
0.0
  9
$LIMCHECK
 70
     0
  9
$CHAMFERA
 40
0.0
  9
$CHAMFERB
 40
0.0
  9
$CHAMFERC
 40
0.0
  9
$CHAMFERD
 40
0.0
  9
$SKPOLY
 70
     0
  9
$TDCREATE
 40
0.000000000
  9
$TDUCREATE
 40
0.000000000
  9
$TDUPDATE
 40
0.000000000
  9
$TDUUPDATE
 40
0.000000000
  9
$TDINDWG
 40
0.0000000000
  9
$TDUSRTIMER
 40
0.0000000000
  9
$USRTIMER
 70
     1
  9
$ANGBASE
 50
0.0
  9
$ANGDIR
 70
     0
  9
$PDMODE
 70
     0
  9
$PDSIZE
 40
0.0
  9
$PLINEWID
 40
0.0
  9
$SPLFRAME
 70
     0
  9
$SPLINETYPE
 70
     6
  9
$SPLINESEGS
 70
     8
  9
$HANDSEED
  5
34
  9
$SURFTAB1
 70
     6
  9
$SURFTAB2
 70
     6
  9
$SURFTYPE
 70
     6
  9
$SURFU
 70
     6
  9
$SURFV
 70
     6
  9
$UCSBASE
  2

  9
$UCSNAME
  2

  9
$UCSORG
 10
0.0
 20
0.0
 30
0.0
  9
$UCSXDIR
 10
1.0
 20
0.0
 30
0.0
  9
$UCSYDIR
 10
0.0
 20
1.0
 30
0.0
  9
$UCSORTHOREF
  2

  9
$UCSORTHOVIEW
 70
     0
  9
$UCSORGTOP
 10
0.0
 20
0.0
 30
0.0
  9
$UCSORGBOTTOM
 10
0.0
 20
0.0
 30
0.0
  9
$UCSORGLEFT
 10
0.0
 20
0.0
 30
0.0
  9
$UCSORGRIGHT
 10
0.0
 20
0.0
 30
0.0
  9
$UCSORGFRONT
 10
0.0
 20
0.0
 30
0.0
  9
$UCSORGBACK
 10
0.0
 20
0.0
 30
0.0
  9
$PUCSBASE
  2

  9
$PUCSNAME
  2

  9
$PUCSORG
 10
0.0
 20
0.0
 30
0.0
  9
$PUCSXDIR
 10
1.0
 20
0.0
 30
0.0
  9
$PUCSYDIR
 10
0.0
 20
1.0
 30
0.0
  9
$PUCSORTHOREF
  2

  9
$PUCSORTHOVIEW
 70
     0
  9
$PUCSORGTOP
 10
0.0
 20
0.0
 30
0.0
  9
$PUCSORGBOTTOM
 10
0.0
 20
0.0
 30
0.0
  9
$PUCSORGLEFT
 10
0.0
 20
0.0
 30
0.0
  9
$PUCSORGRIGHT
 10
0.0
 20
0.0
 30
0.0
  9
$PUCSORGFRONT
 10
0.0
 20
0.0
 30
0.0
  9
$PUCSORGBACK
 10
0.0
 20
0.0
 30
0.0
  9
$USERI1
 70
     0
  9
$USERI2
 70
     0
  9
$USERI3
 70
     0
  9
$USERI4
 70
     0
  9
$USERI5
 70
     0
  9
$USERR1
 40
0.0
  9
$USERR2
 40
0.0
  9
$USERR3
 40
0.0
  9
$USERR4
 40
0.0
  9
$USERR5
 40
0.0
  9
$WORLDVIEW
 70
     1
  9
$SHADEDGE
 70
     3
  9
$SHADEDIF
 70
    70
  9
$TILEMODE
 70
     1
  9
$MAXACTVP
 70
    16
  9
$PINSBASE
 10
0.0
 20
0.0
 30
0.0
  9
$PLIMCHECK
 70
     0
  9
$PEXTMIN
 10
1.000000E+20
 20
1.000000E+20
 30
1.000000E+20
  9
$PEXTMAX
 10
-1.000000E+20
 20
-1.000000E+20
 30
-1.000000E+20
  9
$PLIMMIN
 10
0.0
 20
0.0
  9
$PLIMMAX
 10
12.0
 20
9.0
  9
$UNITMODE
 70
     0
  9
$VISRETAIN
 70
     0
  9
$PLINEGEN
 70
     1
  9
$PSLTSCALE
 70
     0
  9
$TREEDEPTH
 70
  3020
  9
$CMLSTYLE
  2
Standard
  9
$CMLJUST
 70
     0
  9
$CMLSCALE
 40
1.0
  9
$PROXYGRAPHICS
 70
     0
  9
$MEASUREMENT
 70
     0
  9
$CELWEIGHT
370
     0
  9
$ENDCAPS
280
     0
  9
$JOINSTYLE
280
     0
  9
$LWDISPLAY
290
     0
  9
$INSUNITS
 70
     4
  9
$HYPERLINKBASE
  1

  9
$XEDIT
290
     1
  9
$CEPSNTYPE
380
     0
  9
$PSTYLEMODE
290
     1
  9
$FINGERPRINTGUID
  2

  9
$VERSIONGUID
  2

  9
$EXTNAMES
290
     1
  9
$PSVPSCALE
 40
0.0
  0
ENDSEC
  0
SECTION
  2
CLASSES
  0
CLASS
  1
LWPOLYLINE
  2
AcDbPolyline
  3
AutoCAD 2000
 90
    32768
280
     0
281
     1
  0
CLASS
  1
IMAGE
  2
AcDbRasterImage
  3
ISM
 90
    32895
280
     0
281
     1
  0
CLASS
  1
OLE2FRAME
  2
AcDbOle2Frame
  3
AutoCAD 2000
 90
    32768
280
     0
281
     1
  0
CLASS
  1
HATCH
  2
AcDbHatch
  3
AutoCAD 2000
 90
    32768
280
     0
281
     1
  0
CLASS
  1
DICTIONARYVAR
  2
AcDbDictionaryVar
  3
AutoCAD 2000
 90
    32768
280
     0
281
     0
  0
CLASS
  1
RASTERVARIABLES
  2
AcDbRasterVariables
  3
ISM
 90
    32768
280
     0
281
     0
  0
CLASS
  1
IMAGEDEF
  2
AcDbRasterImageDef
  3
ISM
 90
    32768
280
     0
281
     0
  0
CLASS
  1
IMAGEDEF_REACTOR
  2
AcDbRasterImageDefReactor
  3
ISM
 90
    32769
280
     0
281
     0
  0
CLASS
  1
IDBUFFER
  2
AcDbIdBuffer
  3
AutoCAD 2000
 90
    32768
280
     0
281
     0
  0
CLASS
  1
SPATIAL_FILTER
  2
AcDbSpatialFilter
  3
AutoCAD 2000
 90
    32768
280
     0
281
     0
  0
CLASS
  1
XRECORD
  2
AcDbXrecord
  3
AutoCAD 2000
 90
    32768
280
     0
281
     0
  0
CLASS
  1
SORTENTSTABLE
  2
AcDbSortentsTable
  3
AutoCAD 2000
 90
    32768
280
     0
281
     0
  0
CLASS
  1
LAYER_INDEX
  2
AcDbLayerIndex
  3
AutoCAD 2000
 90
    32768
280
     0
281
     0
  0
CLASS
  1
SPATIAL_INDEX
  2
AcDbSpatialIndex
  3
AutoCAD 2000
 90
    32768
280
     0
281
     0
  0
CLASS
  1
OBJECT_PTR
  2
CAseDLPNTableRecord
  3
"ASE-LPNTableRecord"
 90
    32769
280
     0
281
     0
  0
CLASS
  1
LAYOUT
  2
AcDbLayout
  3
AutoCAD 2000
 90
        0
280
     0
281
     0
  0
CLASS
  1
PLOTSETTINGS
  2
AcDbPlotSettings
  3
AutoCAD 2000
 90
    32768
280
     0
281
     0
  0
CLASS
  1
ACDBDICTIONARYWDFLT
  2
AcDbDictionaryWithDefault
  3
AutoCAD 2000
 90
        0
280
     0
281
     0
  0
CLASS
  1
ACDBPLACEHOLDER
  2
AcDbPlaceHolder
  3
AutoCAD 2000
 90
        0
280
     0
281
     0
  0
CLASS
  1
VBA_PROJECT
  2
AcDbVbaProject
  3
acadvba
 90
    32768
280
     0
281
     0
  0
CLASS
  1
WIPEOUT
  2
AcDbWipeout
  3
WipeOut|AutoCAD Express Tool|expresstools@autodesk.com
 90
    32895
280
     0
281
     1
  0
CLASS
  1
WIPEOUTVARIABLES
  2
AcDbWipeoutVariables
  3
WipeOut|AutoCAD Express Tool|expresstools@autodesk.com
 90
        0
280
     0
281
     0
  0
CLASS
  1
RTEXT
  2
RText
  3
RText|AutoCAD Express Tool|expresstools@autodesk.com
 90
    32768
280
     0
281
     1
  0
CLASS
  1
ARCALIGNEDTEXT
  2
AcDbArcAlignedText
  3
ATEXT|AutoCAD Express Tool|expresstools@autodesk.com
 90
    32768
280
     0
281
     1
  0
ENDSEC
  0
SECTION
  2
TABLES
  0
TABLE
  2
VPORT
  5
7
100
AcDbSymbolTable
 70
     1
  0
VPORT
  5
15
100
AcDbSymbolTableRecord
100
AcDbViewportTableRecord
  2
*ACTIVE
 70
     0
 10
0.0
 20
0.0
 11
1.0
 21
1.0
 12
6.591288
 22
4.579184
 13
0.0
 23
0.0
 14
1.0
 24
1.0
 15
0.0
 25
0.0
 16
0.0
 26
0.0
 36
1.0
 17
0.0
 27
0.0
 37
0.0
 40
9.158369
 41
0.688564
 42
50.0
 43
0.0
 44
0.0
 50
0.0
 51
0.0
 71
     0
 72
   100
 73
     1
 74
     1
 75
     0
 76
     0
 77
     0
 78
     0
281
     0
 65
     0
110
0.0
120
0.0
130
0.0
111
1.0
121
0.0
131
0.0
112
0.0
122
1.0
132
0.0
345
0
346
0
 79
     0
146
0.0
  0
ENDTAB
  0
TABLE
  2
LTYPE
  5
4
100
AcDbSymbolTable
 70
     3
  0
LTYPE
  5
11
100
AcDbSymbolTableRecord
100
AcDbLinetypeTableRecord
  2
ByBlock
 70
    64
  3

 72
    65
 73
     0
 40
0.0
  0
LTYPE
  5
12
100
AcDbSymbolTableRecord
100
AcDbLinetypeTableRecord
  2
ByLayer
 70
    64
  3

 72
    65
 73
     0
 40
0.0
  0
LTYPE
  5
13
100
AcDbSymbolTableRecord
100
AcDbLinetypeTableRecord
  2
Continuous
 70
    64
  3
Solid line
 72
    65
 73
     0
 40
0.0
  0
ENDTAB
  0
TABLE
  2
LAYER
  5
2
100
AcDbSymbolTable
 70
     2
  0
LAYER
  5
14
100
AcDbSymbolTableRecord
100
AcDbLayerTableRecord
  2
0
 70
     0
 62
     7
  6
Continuous
290
     1
370
    -3
390
1D
  0
LAYER
  5
24
100
AcDbSymbolTableRecord
100
AcDbLayerTableRecord
  2
RÚteg 1
 70
     0
 62
     7
  6
Continuous
290
     1
370
    -3
390
1F
  0
ENDTAB
  0
TABLE
  2
STYLE
  5
3
100
AcDbSymbolTable
 70
     1
  0
STYLE
  5
17
100
AcDbSymbolTableRecord
100
AcDbTextStyleTableRecord
  2
Standard
 70
     0
 40
0.0
 41
1.0
 50
0.0
 71
     0
 42
0.0
  3
txt
  4

  0
ENDTAB
  0
TABLE
  2
VIEW
  5
5
100
AcDbSymbolTable
 70
     0
  0
ENDTAB
  0
TABLE
  2
UCS
  5
6
100
AcDbSymbolTable
 70
     0
  0
ENDTAB
  0
TABLE
  2
APPID
  5
8
100
AcDbSymbolTable
 70
     1
  0
APPID
  5
16
100
AcDbSymbolTableRecord
100
AcDbRegAppTableRecord
  2
ACAD
 70
     0
  0
ENDTAB
  0
TABLE
  2
DIMSTYLE
  5
9
100
AcDbSymbolTable
 70
     1
100
AcDbDimStyleTable
 71
     0
  0
DIMSTYLE
105
18
100
AcDbSymbolTableRecord
100
AcDbDimStyleTableRecord
  2
Standard
 70
     0
  3

  4

 40
1.0
 41
0.18
 42
0.0625
 43
0.38
 44
0.18
 45
0.0
 46
0.0
 47
0.0
 48
0.0
 71
     0
 72
     0
 73
     1
 74
     1
 75
     0
 76
     0
 77
     0
 78
     0
 79
     0
140
0.18
141
0.09
142
0.0
143
25.4
144
1.0
145
0.0
146
1.0
147
0.09
148
0.0
170
     0
171
     2
172
     0
173
     0
174
     0
175
     0
176
     0
177
     0
178
     0
179
     0
271
     4
272
     4
273
     2
274
     2
275
     0
276
     0
277
     2
278
    46
279
     0
280
     0
281
     0
282
     0
283
     1
284
     0
285
     0
286
     0
288
     0
340
17
341
0
342
0
343
0
344
0
371
    -2
372
    -2
  0
ENDTAB
  0
TABLE
  2
BLOCK_RECORD
  5
1
100
AcDbSymbolTable
 70
     0
  0
BLOCK_RECORD
  5
A
100
AcDbSymbolTableRecord
100
AcDbBlockTableRecord
  2
*MODEL_SPACE
340
20
  0
BLOCK_RECORD
  5
B
100
AcDbSymbolTableRecord
100
AcDbBlockTableRecord
  2
*PAPER_SPACE
340
21
  0
ENDTAB
  0
ENDSEC
  0
SECTION
  2
BLOCKS
  0
BLOCK
  5
D
100
AcDbEntity
  8
0
100
AcDbBlockBegin
  2
*MODEL_SPACE
 70
     0
 10
0.0
 20
0.0
 30
0.0
  3
*MODEL_SPACE
  1

  0
ENDBLK
  5
E
100
AcDbEntity
  8
0
100
AcDbBlockEnd
  0
BLOCK
  5
F
100
AcDbEntity
 67
     1
  8
0
100
AcDbBlockBegin
  2
*PAPER_SPACE
 70
     0
 10
0.0
 20
0.0
 30
0.0
  3
*PAPER_SPACE
  1

  0
ENDBLK
  5
10
100
AcDbEntity
 67
     1
  8
0
100
AcDbBlockEnd
  0
ENDSEC
  0
SECTION
  2
ENTITIES
  0
SPLINE
  5
25
100
AcDbEntity
  8
RÚteg 1
 62
     7
100
AcDbSpline
210
0.0
220
0.0
230
1.0
 70
     1
 71
     3
 72
    28
 73
    24
 74
     0
 42
0.0000000001
 43
0.0000000001
 40
0.0
 40
0.0
 40
0.0
 40
0.0
 40
0.1666666666666667
 40
0.1666666666666667
 40
0.1666666666666667
 40
0.1666666666666667
 40
0.3333333333333333
 40
0.3333333333333333
 40
0.3333333333333333
 40
0.3333333333333333
 40
0.5
 40
0.5
 40
0.5
 40
0.5
 40
0.6666666666666666
 40
0.6666666666666666
 40
0.6666666666666666
 40
0.6666666666666666
 40
0.8333333333333333
 40
0.8333333333333333
 40
0.8333333333333333
 40
0.8333333333333333
 40
1.0
 40
1.0
 40
1.0
 40
1.0
 10
-29.4253
 20
26.256799999999998
 30
0.0
 10
-29.4253
 20
27.282399999999999
 30
0.0
 10
-28.765799999999999
 20
28.3764
 30
0.0
 10
-27.835699999999999
 20
28.3764
 30
0.0
 10
-27.835699999999999
 20
28.3764
 30
0.0
 10
-27.835699999999999
 20
28.3764
 30
0.0
 10
-26.987500000000001
 20
28.3764
 30
0.0
 10
-26.987500000000001
 20
28.3764
 30
0.0
 10
-26.987500000000001
 20
28.3764
 30
0.0
 10
-26.3127
 20
28.3764
 30
0.0
 10
-25.3978
 20
27.461400000000001
 30
0.0
 10
-25.3978
 20
26.7864
 30
0.0
 10
-25.3978
 20
26.7864
 30
0.0
 10
-25.3978
 20
26.7864
 30
0.0
 10
-25.3978
 20
19.897099999999998
 30
0.0
 10
-25.3978
 20
19.897099999999998
 30
0.0
 10
-25.3978
 20
19.897099999999998
 30
0.0
 10
-25.3978
 20
19.897099999999998
 30
0.0
 10
-29.4253
 20
19.897099999999998
 30
0.0
 10
-29.4253
 20
19.897099999999998
 30
0.0
 10
-29.4253
 20
19.897099999999998
 30
0.0
 10
-29.4253
 20
19.897099999999998
 30
0.0
 10
-29.4253
 20
26.256799999999998
 30
0.0
 10
-29.4253
 20
26.256799999999998
 30
0.0
  0
SPLINE
  5
26
100
AcDbEntity
  8
RÚteg 1
 62
     7
100
AcDbSpline
210
0.0
220
0.0
230
1.0
 70
     1
 71
     3
 72
   184
 73
   180
 74
     0
 42
0.0000000001
 43
0.0000000001
 40
0.0
 40
0.0
 40
0.0
 40
0.0
 40
0.0222222222222222
 40
0.0222222222222222
 40
0.0222222222222222
 40
0.0222222222222222
 40
0.0444444444444444
 40
0.0444444444444444
 40
0.0444444444444444
 40
0.0444444444444444
 40
0.0666666666666667
 40
0.0666666666666667
 40
0.0666666666666667
 40
0.0666666666666667
 40
0.0888888888888889
 40
0.0888888888888889
 40
0.0888888888888889
 40
0.0888888888888889
 40
0.1111111111111111
 40
0.1111111111111111
 40
0.1111111111111111
 40
0.1111111111111111
 40
0.1333333333333333
 40
0.1333333333333333
 40
0.1333333333333333
 40
0.1333333333333333
 40
0.1555555555555556
 40
0.1555555555555556
 40
0.1555555555555556
 40
0.1555555555555556
 40
0.1777777777777778
 40
0.1777777777777778
 40
0.1777777777777778
 40
0.1777777777777778
 40
0.2
 40
0.2
 40
0.2
 40
0.2
 40
0.2222222222222222
 40
0.2222222222222222
 40
0.2222222222222222
 40
0.2222222222222222
 40
0.2444444444444445
 40
0.2444444444444445
 40
0.2444444444444445
 40
0.2444444444444445
 40
0.2666666666666667
 40
0.2666666666666667
 40
0.2666666666666667
 40
0.2666666666666667
 40
0.2888888888888889
 40
0.2888888888888889
 40
0.2888888888888889
 40
0.2888888888888889
 40
0.3111111111111111
 40
0.3111111111111111
 40
0.3111111111111111
 40
0.3111111111111111
 40
0.3333333333333333
 40
0.3333333333333333
 40
0.3333333333333333
 40
0.3333333333333333
 40
0.3555555555555555
 40
0.3555555555555555
 40
0.3555555555555555
 40
0.3555555555555555
 40
0.3777777777777777
 40
0.3777777777777777
 40
0.3777777777777777
 40
0.3777777777777777
 40
0.3999999999999999
 40
0.3999999999999999
 40
0.3999999999999999
 40
0.3999999999999999
 40
0.4222222222222221
 40
0.4222222222222221
 40
0.4222222222222221
 40
0.4222222222222221
 40
0.4444444444444443
 40
0.4444444444444443
 40
0.4444444444444443
 40
0.4444444444444443
 40
0.4666666666666665
 40
0.4666666666666665
 40
0.4666666666666665
 40
0.4666666666666665
 40
0.4888888888888887
 40
0.4888888888888887
 40
0.4888888888888887
 40
0.4888888888888887
 40
0.5111111111111109
 40
0.5111111111111109
 40
0.5111111111111109
 40
0.5111111111111109
 40
0.5333333333333331
 40
0.5333333333333331
 40
0.5333333333333331
 40
0.5333333333333331
 40
0.5555555555555554
 40
0.5555555555555554
 40
0.5555555555555554
 40
0.5555555555555554
 40
0.5777777777777776
 40
0.5777777777777776
 40
0.5777777777777776
 40
0.5777777777777776
 40
0.5999999999999999
 40
0.5999999999999999
 40
0.5999999999999999
 40
0.5999999999999999
 40
0.6222222222222221
 40
0.6222222222222221
 40
0.6222222222222221
 40
0.6222222222222221
 40
0.6444444444444444
 40
0.6444444444444444
 40
0.6444444444444444
 40
0.6444444444444444
 40
0.6666666666666666
 40
0.6666666666666666
 40
0.6666666666666666
 40
0.6666666666666666
 40
0.6888888888888889
 40
0.6888888888888889
 40
0.6888888888888889
 40
0.6888888888888889
 40
0.7111111111111111
 40
0.7111111111111111
 40
0.7111111111111111
 40
0.7111111111111111
 40
0.7333333333333334
 40
0.7333333333333334
 40
0.7333333333333334
 40
0.7333333333333334
 40
0.7555555555555557
 40
0.7555555555555557
 40
0.7555555555555557
 40
0.7555555555555557
 40
0.7777777777777779
 40
0.7777777777777779
 40
0.7777777777777779
 40
0.7777777777777779
 40
0.8000000000000002
 40
0.8000000000000002
 40
0.8000000000000002
 40
0.8000000000000002
 40
0.8222222222222224
 40
0.8222222222222224
 40
0.8222222222222224
 40
0.8222222222222224
 40
0.8444444444444447
 40
0.8444444444444447
 40
0.8444444444444447
 40
0.8444444444444447
 40
0.8666666666666669
 40
0.8666666666666669
 40
0.8666666666666669
 40
0.8666666666666669
 40
0.8888888888888892
 40
0.8888888888888892
 40
0.8888888888888892
 40
0.8888888888888892
 40
0.9111111111111114
 40
0.9111111111111114
 40
0.9111111111111114
 40
0.9111111111111114
 40
0.9333333333333337
 40
0.9333333333333337
 40
0.9333333333333337
 40
0.9333333333333337
 40
0.9555555555555559
 40
0.9555555555555559
 40
0.9555555555555559
 40
0.9555555555555559
 40
0.9777777777777782
 40
0.9777777777777782
 40
0.9777777777777782
 40
0.9777777777777782
 40
1.0
 40
1.0
 40
1.0
 40
1.0
 10
-33.806399999999996
 20
63.548299999999998
 30
0.0
 10
-33.806399999999996
 20
63.548299999999998
 30
0.0
 10
-33.730499999999999
 20
63.624000000000002
 30
0.0
 10
-33.730499999999999
 20
63.624000000000002
 30
0.0
 10
-33.730499999999999
 20
63.624000000000002
 30
0.0
 10
-33.496000000000002
 20
63.780999999999999
 30
0.0
 10
-33.197800000000001
 20
64.079300000000003
 30
0.0
 10
-32.8202
 20
64.079300000000003
 30
0.0
 10
-32.8202
 20
64.079300000000003
 30
0.0
 10
-32.8202
 20
64.079300000000003
 30
0.0
 10
-32.744500000000002
 20
64.079300000000003
 30
0.0
 10
-32.744500000000002
 20
64.079300000000003
 30
0.0
 10
-32.744500000000002
 20
64.079300000000003
 30
0.0
 10
-32.3476
 20
64.079300000000003
 30
0.0
 10
-32.168500000000002
 20
63.845799999999997
 30
0.0
 10
-32.1374
 20
63.472200000000001
 30
0.0
 10
-32.1374
 20
63.472200000000001
 30
0.0
 10
-31.732800000000001
 20
63.580399999999997
 30
0.0
 10
-31.519100000000002
 20
63.927599999999998
 30
0.0
 10
-30.923999999999999
 20
63.927599999999998
 30
0.0
 10
-30.923999999999999
 20
63.927599999999998
 30
0.0
 10
-30.648299999999999
 20
63.927599999999998
 30
0.0
 10
-30.657699999999998
 20
63.837499999999999
 30
0.0
 10
-30.392700000000001
 20
63.7759
 30
0.0
 10
-30.392700000000001
 20
63.7759
 30
0.0
 10
-30.392700000000001
 20
63.7759
 30
0.0
 10
-30.392700000000001
 20
63.472200000000001
 30
0.0
 10
-30.392700000000001
 20
63.472200000000001
 30
0.0
 10
-30.392700000000001
 20
63.472200000000001
 30
0.0
 10
-29.943899999999999
 20
63.576999999999998
 30
0.0
 10
-29.708500000000001
 20
64.003200000000007
 30
0.0
 10
-29.255400000000002
 20
64.003200000000007
 30
0.0
 10
-29.255400000000002
 20
64.003200000000007
 30
0.0
 10
-28.996300000000002
 20
64.003200000000007
 30
0.0
 10
-28.852499999999999
 20
63.696899999999999
 30
0.0
 10
-28.799900000000001
 20
63.472200000000001
 30
0.0
 10
-28.799900000000001
 20
63.472200000000001
 30
0.0
 10
-28.799900000000001
 20
63.472200000000001
 30
0.0
 10
-28.572600000000001
 20
63.472200000000001
 30
0.0
 10
-28.572600000000001
 20
63.472200000000001
 30
0.0
 10
-28.572600000000001
 20
63.472200000000001
 30
0.0
 10
-28.513999999999999
 20
63.692
 30
0.0
 10
-28.377800000000001
 20
63.851399999999998
 30
0.0
 10
-28.1174
 20
63.851399999999998
 30
0.0
 10
-28.1174
 20
63.851399999999998
 30
0.0
 10
-27.7818
 20
63.851399999999998
 30
0.0
 10
-27.523599999999998
 20
63.5809
 30
0.0
 10
-27.138000000000002
 20
63.546100000000003
 30
0.0
 10
-27.138000000000002
 20
63.546100000000003
 30
0.0
 10
-27.138000000000002
 20
63.546100000000003
 30
0.0
 10
-27.358699999999999
 20
64.230800000000002
 30
0.0
 10
-27.358699999999999
 20
64.230800000000002
 30
0.0
 10
-27.358699999999999
 20
64.230800000000002
 30
0.0
 10
-27.358699999999999
 20
64.230800000000002
 30
0.0
 10
-28.1174
 20
65.065200000000004
 30
0.0
 10
-28.1174
 20
65.065200000000004
 30
0.0
 10
-28.1174
 20
65.065200000000004
 30
0.0
 10
-28.679300000000001
 20
65.362399999999994
 30
0.0
 10
-29.309699999999999
 20
65.672200000000004
 30
0.0
 10
-30.165500000000002
 20
65.672200000000004
 30
0.0
 10
-30.165500000000002
 20
65.672200000000004
 30
0.0
 10
-30.165500000000002
 20
65.672200000000004
 30
0.0
 10
-30.351199999999999
 20
66.035300000000007
 30
0.0
 10
-30.351199999999999
 20
66.035300000000007
 30
0.0
 10
-30.351199999999999
 20
66.035300000000007
 30
0.0
 10
-30.351199999999999
 20
66.035300000000007
 30
0.0
 10
-30.923999999999999
 20
65.899699999999996
 30
0.0
 10
-30.923999999999999
 20
65.899699999999996
 30
0.0
 10
-30.923999999999999
 20
65.899699999999996
 30
0.0
 10
-31.502300000000002
 20
65.497600000000006
 30
0.0
 10
-32.0212
 20
64.761799999999994
 30
0.0
 10
-32.8202
 20
64.761799999999994
 30
0.0
 10
-32.8202
 20
64.761799999999994
 30
0.0
 10
-32.715699999999998
 20
64.918099999999995
 30
0.0
 10
-32.593000000000004
 20
64.958399999999997
 30
0.0
 10
-32.593000000000004
 20
65.141099999999994
 30
0.0
 10
-32.593000000000004
 20
65.141099999999994
 30
0.0
 10
-32.593000000000004
 20
65.287599999999998
 30
0.0
 10
-32.616500000000002
 20
65.276200000000003
 30
0.0
 10
-32.668399999999998
 20
65.368799999999993
 30
0.0
 10
-32.668399999999998
 20
65.368799999999993
 30
0.0
 10
-32.668399999999998
 20
65.368799999999993
 30
0.0
 10
-33.175600000000003
 20
65.033699999999996
 30
0.0
 10
-33.175600000000003
 20
65.033699999999996
 30
0.0
 10
-33.175600000000003
 20
65.033699999999996
 30
0.0
 10
-33.221200000000003
 20
65.325800000000001
 30
0.0
 10
-33.309399999999997
 20
65.5959
 30
0.0
 10
-33.578800000000001
 20
65.5959
 30
0.0
 10
-33.578800000000001
 20
65.5959
 30
0.0
 10
-33.829300000000003
 20
65.5959
 30
0.0
 10
-33.6601
 20
65.227099999999993
 30
0.0
 10
-33.654699999999998
 20
64.989500000000007
 30
0.0
 10
-33.654699999999998
 20
64.989500000000007
 30
0.0
 10
-33.654699999999998
 20
64.989500000000007
 30
0.0
 10
-33.806399999999996
 20
64.989500000000007
 30
0.0
 10
-33.806399999999996
 20
64.989500000000007
 30
0.0
 10
-33.806399999999996
 20
64.989500000000007
 30
0.0
 10
-33.824100000000001
 20
65.204300000000003
 30
0.0
 10
-34.130000000000003
 20
66.940600000000003
 30
0.0
 10
-34.214599999999997
 20
67.311899999999994
 30
0.0
 10
-34.214599999999997
 20
67.311899999999994
 30
0.0
 10
-34.337800000000001
 20
67.851100000000002
 30
0.0
 10
-34.8245
 20
68.769300000000001
 30
0.0
 10
-35.3994
 20
68.781999999999996
 30
0.0
 10
-35.3994
 20
68.781999999999996
 30
0.0
 10
-35.354300000000002
 20
68.588800000000006
 30
0.0
 10
-35.243200000000002
 20
68.402699999999996
 30
0.0
 10
-35.550899999999999
 20
68.402699999999996
 30
0.0
 10
-35.550899999999999
 20
68.402699999999996
 30
0.0
 10
-35.589500000000001
 20
68.402699999999996
 30
0.0
 10
-36.732999999999997
 20
68.797600000000003
 30
0.0
 10
-36.9923
 20
68.858099999999993
 30
0.0
 10
-36.9923
 20
68.858099999999993
 30
0.0
 10
-36.9923
 20
68.858099999999993
 30
0.0
 10
-37.068100000000001
 20
68.933700000000002
 30
0.0
 10
-37.068100000000001
 20
68.933700000000002
 30
0.0
 10
-37.068100000000001
 20
68.933700000000002
 30
0.0
 10
-37.924599999999998
 20
68.933700000000002
 30
0.0
 10
-39.249400000000001
 20
68.963800000000006
 30
0.0
 10
-39.419600000000003
 20
68.327100000000002
 30
0.0
 10
-39.419600000000003
 20
68.327100000000002
 30
0.0
 10
-38.571899999999999
 20
68.327100000000002
 30
0.0
 10
-37.897599999999997
 20
68.057100000000005
 30
0.0
 10
-37.615200000000002
 20
67.511899999999997
 30
0.0
 10
-37.615200000000002
 20
67.511899999999997
 30
0.0
 10
-37.615200000000002
 20
67.511899999999997
 30
0.0
 10
-37.8264
 20
67.265100000000004
 30
0.0
 10
-37.8264
 20
67.265100000000004
 30
0.0
 10
-37.8264
 20
67.265100000000004
 30
0.0
 10
-37.8264
 20
67.265100000000004
 30
0.0
 10
-37.5989
 20
67.265100000000004
 30
0.0
 10
-37.5989
 20
67.265100000000004
 30
0.0
 10
-37.5989
 20
67.265100000000004
 30
0.0
 10
-37.264400000000002
 20
67.265100000000004
 30
0.0
 10
-37.090400000000002
 20
67.391099999999994
 30
0.0
 10
-36.7455
 20
67.132400000000004
 30
0.0
 10
-36.7455
 20
67.132400000000004
 30
0.0
 10
-36.633899999999997
 20
67.048500000000004
 30
0.0
 10
-36.309600000000003
 20
66.565100000000001
 30
0.0
 10
-36.309600000000003
 20
66.430599999999998
 30
0.0
 10
-36.309600000000003
 20
66.430599999999998
 30
0.0
 10
-36.309600000000003
 20
66.430599999999998
 30
0.0
 10
-36.309600000000003
 20
66.051500000000004
 30
0.0
 10
-36.309600000000003
 20
66.051500000000004
 30
0.0
 10
-36.309600000000003
 20
66.051500000000004
 30
0.0
 10
-35.776299999999999
 20
66.051500000000004
 30
0.0
 10
-35.323300000000003
 20
65.636600000000001
 30
0.0
 10
-35.323300000000003
 20
65.216899999999995
 30
0.0
 10
-35.323300000000003
 20
65.216899999999995
 30
0.0
 10
-35.323300000000003
 20
65.171599999999998
 30
0.0
 10
-35.428199999999997
 20
65.059600000000003
 30
0.0
 10
-35.475000000000001
 20
64.989500000000007
 30
0.0
 10
-35.475000000000001
 20
64.989500000000007
 30
0.0
 10
-35.1509
 20
64.989500000000007
 30
0.0
 10
-34.792299999999997
 20
65.003500000000003
 30
0.0
 10
-34.792299999999997
 20
64.685900000000004
 30
0.0
 10
-34.792299999999997
 20
64.685900000000004
 30
0.0
 10
-34.792299999999997
 20
64.206699999999998
 30
0.0
 10
-35.292200000000001
 20
63.8474
 30
0.0
 10
-35.323300000000003
 20
63.472200000000001
 30
0.0
 10
-35.323300000000003
 20
63.472200000000001
 30
0.0
 10
-35.150700000000001
 20
63.563699999999997
 30
0.0
 10
-34.659999999999997
 20
63.7759
 30
0.0
 10
-34.4131
 20
63.7759
 30
0.0
 10
-34.4131
 20
63.7759
 30
0.0
 10
-34.242100000000001
 20
63.7759
 30
0.0
 10
-34.448300000000003
 20
63.8048
 30
0.0
 10
-34.239100000000001
 20
63.6706
 30
0.0
 10
-34.239100000000001
 20
63.6706
 30
0.0
 10
-34.239100000000001
 20
63.6706
 30
0.0
 10
-34.5533
 20
63.477800000000002
 30
0.0
 10
-34.5533
 20
63.477800000000002
 30
0.0
 10
-34.5533
 20
63.477800000000002
 30
0.0
 10
-34.5533
 20
63.477800000000002
 30
0.0
 10
-34.421799999999998
 20
63.1036
 30
0.0
 10
-34.421799999999998
 20
63.1036
 30
0.0
 10
-34.421799999999998
 20
63.1036
 30
0.0
 10
-34.421799999999998
 20
63.1036
 30
0.0
 10
-33.806399999999996
 20
63.548299999999998
 30
0.0
 10
-33.806399999999996
 20
63.548299999999998
 30
0.0
  0
SPLINE
  5
27
100
AcDbEntity
  8
RÚteg 1
 62
     7
100
AcDbSpline
210
0.0
220
0.0
230
1.0
 70
     1
 71
     3
 72
   208
 73
   204
 74
     0
 42
0.0000000001
 43
0.0000000001
 40
0.0
 40
0.0
 40
0.0
 40
0.0
 40
0.0196078431372549
 40
0.0196078431372549
 40
0.0196078431372549
 40
0.0196078431372549
 40
0.0392156862745098
 40
0.0392156862745098
 40
0.0392156862745098
 40
0.0392156862745098
 40
0.0588235294117647
 40
0.0588235294117647
 40
0.0588235294117647
 40
0.0588235294117647
 40
0.0784313725490196
 40
0.0784313725490196
 40
0.0784313725490196
 40
0.0784313725490196
 40
0.0980392156862745
 40
0.0980392156862745
 40
0.0980392156862745
 40
0.0980392156862745
 40
0.1176470588235294
 40
0.1176470588235294
 40
0.1176470588235294
 40
0.1176470588235294
 40
0.1372549019607843
 40
0.1372549019607843
 40
0.1372549019607843
 40
0.1372549019607843
 40
0.1568627450980392
 40
0.1568627450980392
 40
0.1568627450980392
 40
0.1568627450980392
 40
0.1764705882352941
 40
0.1764705882352941
 40
0.1764705882352941
 40
0.1764705882352941
 40
0.196078431372549
 40
0.196078431372549
 40
0.196078431372549
 40
0.196078431372549
 40
0.2156862745098039
 40
0.2156862745098039
 40
0.2156862745098039
 40
0.2156862745098039
 40
0.2352941176470588
 40
0.2352941176470588
 40
0.2352941176470588
 40
0.2352941176470588
 40
0.2549019607843137
 40
0.2549019607843137
 40
0.2549019607843137
 40
0.2549019607843137
 40
0.2745098039215685
 40
0.2745098039215685
 40
0.2745098039215685
 40
0.2745098039215685
 40
0.2941176470588234
 40
0.2941176470588234
 40
0.2941176470588234
 40
0.2941176470588234
 40
0.3137254901960783
 40
0.3137254901960783
 40
0.3137254901960783
 40
0.3137254901960783
 40
0.3333333333333332
 40
0.3333333333333332
 40
0.3333333333333332
 40
0.3333333333333332
 40
0.3529411764705881
 40
0.3529411764705881
 40
0.3529411764705881
 40
0.3529411764705881
 40
0.372549019607843
 40
0.372549019607843
 40
0.372549019607843
 40
0.372549019607843
 40
0.3921568627450979
 40
0.3921568627450979
 40
0.3921568627450979
 40
0.3921568627450979
 40
0.4117647058823528
 40
0.4117647058823528
 40
0.4117647058823528
 40
0.4117647058823528
 40
0.4313725490196076
 40
0.4313725490196076
 40
0.4313725490196076
 40
0.4313725490196076
 40
0.4509803921568625
 40
0.4509803921568625
 40
0.4509803921568625
 40
0.4509803921568625
 40
0.4705882352941174
 40
0.4705882352941174
 40
0.4705882352941174
 40
0.4705882352941174
 40
0.4901960784313723
 40
0.4901960784313723
 40
0.4901960784313723
 40
0.4901960784313723
 40
0.5098039215686272
 40
0.5098039215686272
 40
0.5098039215686272
 40
0.5098039215686272
 40
0.5294117647058821
 40
0.5294117647058821
 40
0.5294117647058821
 40
0.5294117647058821
 40
0.5490196078431371
 40
0.5490196078431371
 40
0.5490196078431371
 40
0.5490196078431371
 40
0.568627450980392
 40
0.568627450980392
 40
0.568627450980392
 40
0.568627450980392
 40
0.588235294117647
 40
0.588235294117647
 40
0.588235294117647
 40
0.588235294117647
 40
0.6078431372549019
 40
0.6078431372549019
 40
0.6078431372549019
 40
0.6078431372549019
 40
0.6274509803921569
 40
0.6274509803921569
 40
0.6274509803921569
 40
0.6274509803921569
 40
0.6470588235294118
 40
0.6470588235294118
 40
0.6470588235294118
 40
0.6470588235294118
 40
0.6666666666666667
 40
0.6666666666666667
 40
0.6666666666666667
 40
0.6666666666666667
 40
0.6862745098039217
 40
0.6862745098039217
 40
0.6862745098039217
 40
0.6862745098039217
 40
0.7058823529411766
 40
0.7058823529411766
 40
0.7058823529411766
 40
0.7058823529411766
 40
0.7254901960784316
 40
0.7254901960784316
 40
0.7254901960784316
 40
0.7254901960784316
 40
0.7450980392156865
 40
0.7450980392156865
 40
0.7450980392156865
 40
0.7450980392156865
 40
0.7647058823529415
 40
0.7647058823529415
 40
0.7647058823529415
 40
0.7647058823529415
 40
0.7843137254901964
 40
0.7843137254901964
 40
0.7843137254901964
 40
0.7843137254901964
 40
0.8039215686274513
 40
0.8039215686274513
 40
0.8039215686274513
 40
0.8039215686274513
 40
0.8235294117647063
 40
0.8235294117647063
 40
0.8235294117647063
 40
0.8235294117647063
 40
0.8431372549019612
 40
0.8431372549019612
 40
0.8431372549019612
 40
0.8431372549019612
 40
0.8627450980392162
 40
0.8627450980392162
 40
0.8627450980392162
 40
0.8627450980392162
 40
0.8823529411764711
 40
0.8823529411764711
 40
0.8823529411764711
 40
0.8823529411764711
 40
0.9019607843137261
 40
0.9019607843137261
 40
0.9019607843137261
 40
0.9019607843137261
 40
0.921568627450981
 40
0.921568627450981
 40
0.921568627450981
 40
0.921568627450981
 40
0.941176470588236
 40
0.941176470588236
 40
0.941176470588236
 40
0.941176470588236
 40
0.9607843137254909
 40
0.9607843137254909
 40
0.9607843137254909
 40
0.9607843137254909
 40
0.9803921568627458
 40
0.9803921568627458
 40
0.9803921568627458
 40
0.9803921568627458
 40
1.0
 40
1.0
 40
1.0
 40
1.0
 10
-27.938700000000001
 20
70.641400000000004
 30
0.0
 10
-26.7179
 20
69.264799999999994
 30
0.0
 10
-25.976099999999999
 20
67.453599999999994
 30
0.0
 10
-25.976099999999999
 20
65.469099999999997
 30
0.0
 10
-25.976099999999999
 20
65.469099999999997
 30
0.0
 10
-25.976099999999999
 20
61.161999999999999
 30
0.0
 10
-29.4693
 20
57.668799999999997
 30
0.0
 10
-33.776499999999999
 20
57.668799999999997
 30
0.0
 10
-33.776499999999999
 20
57.668799999999997
 30
0.0
 10
-38.084099999999999
 20
57.668799999999997
 30
0.0
 10
-41.577199999999998
 20
61.161999999999999
 30
0.0
 10
-41.577199999999998
 20
65.469099999999997
 30
0.0
 10
-41.577199999999998
 20
65.469099999999997
 30
0.0
 10
-41.577199999999998
 20
69.391099999999994
 30
0.0
 10
-38.680900000000001
 20
72.637900000000002
 30
0.0
 10
-34.910899999999998
 20
73.187100000000001
 30
0.0
 10
-34.910899999999998
 20
73.187100000000001
 30
0.0
 10
-37.211799999999997
 20
73.727000000000004
 30
0.0
 10
-39.610100000000003
 20
74.012900000000002
 30
0.0
 10
-42.075000000000003
 20
74.012900000000002
 30
0.0
 10
-42.075000000000003
 20
74.012900000000002
 30
0.0
 10
-59.348300000000002
 20
74.012900000000002
 30
0.0
 10
-73.356300000000005
 20
60.004899999999999
 30
0.0
 10
-73.356300000000005
 20
42.731699999999996
 30
0.0
 10
-73.356300000000005
 20
42.731699999999996
 30
0.0
 10
-73.356300000000005
 20
33.885300000000001
 30
0.0
 10
-69.681100000000001
 20
25.896599999999999
 30
0.0
 10
-63.776200000000003
 20
20.206299999999999
 30
0.0
 10
-63.776200000000003
 20
20.206299999999999
 30
0.0
 10
-63.776200000000003
 20
20.206299999999999
 30
0.0
 10
-64.932699999999997
 20
40.777700000000003
 30
0.0
 10
-64.932699999999997
 20
40.777700000000003
 30
0.0
 10
-64.932699999999997
 20
40.777700000000003
 30
0.0
 10
-64.932699999999997
 20
40.777700000000003
 30
0.0
 10
-69.808499999999995
 20
40.777700000000003
 30
0.0
 10
-69.808499999999995
 20
40.777700000000003
 30
0.0
 10
-69.808499999999995
 20
40.777700000000003
 30
0.0
 10
-69.633399999999995
 20
40.930100000000003
 30
0.0
 10
-68.382499999999993
 20
41.332000000000001
 30
0.0
 10
-68.006399999999999
 20
41.5197
 30
0.0
 10
-68.006399999999999
 20
41.5197
 30
0.0
 10
-67.443899999999999
 20
41.799599999999998
 30
0.0
 10
-66.887699999999995
 20
42.176900000000003
 30
0.0
 10
-66.441000000000003
 20
42.603700000000003
 30
0.0
 10
-66.441000000000003
 20
42.603700000000003
 30
0.0
 10
-65.477599999999995
 20
43.523000000000003
 30
0.0
 10
-64.867400000000004
 20
44.326300000000003
 30
0.0
 10
-64.147999999999996
 20
45.504199999999997
 30
0.0
 10
-64.147999999999996
 20
45.504199999999997
 30
0.0
 10
-63.4621
 20
46.627000000000002
 30
0.0
 10
-62.978400000000001
 20
47.7346
 30
0.0
 10
-62.462000000000003
 20
49.012300000000003
 30
0.0
 10
-62.462000000000003
 20
49.012300000000003
 30
0.0
 10
-62.0959
 20
49.917000000000002
 30
0.0
 10
-61.532600000000002
 20
52.2286
 30
0.0
 10
-60.905099999999997
 20
52.648899999999998
 30
0.0
 10
-60.905099999999997
 20
52.648899999999998
 30
0.0
 10
-60.1158
 20
51.469900000000003
 30
0.0
 10
-60.145800000000001
 20
44.699399999999997
 30
0.0
 10
-58.255000000000003
 20
44.699399999999997
 30
0.0
 10
-58.255000000000003
 20
44.699399999999997
 30
0.0
 10
-56.170200000000001
 20
44.699399999999997
 30
0.0
 10
-56.450800000000001
 20
52.900599999999997
 30
0.0
 10
-55.605600000000003
 20
54.662599999999998
 30
0.0
 10
-55.605600000000003
 20
54.662599999999998
 30
0.0
 10
-55.605600000000003
 20
54.662599999999998
 30
0.0
 10
-60.0381
 20
54.656500000000001
 30
0.0
 10
-60.0381
 20
54.656500000000001
 30
0.0
 10
-60.0381
 20
54.656500000000001
 30
0.0
 10
-60.0381
 20
54.656500000000001
 30
0.0
 10
-57.366100000000003
 20
62.858199999999997
 30
0.0
 10
-57.366100000000003
 20
62.858199999999997
 30
0.0
 10
-57.366100000000003
 20
62.858199999999997
 30
0.0
 10
-57.366100000000003
 20
62.858199999999997
 30
0.0
 10
-54.924700000000001
 20
60.060400000000001
 30
0.0
 10
-54.924700000000001
 20
60.060400000000001
 30
0.0
 10
-54.924700000000001
 20
60.060400000000001
 30
0.0
 10
-54.924700000000001
 20
60.060400000000001
 30
0.0
 10
-53.909599999999998
 20
65.897800000000004
 30
0.0
 10
-53.909599999999998
 20
65.897800000000004
 30
0.0
 10
-53.909599999999998
 20
65.897800000000004
 30
0.0
 10
-53.909599999999998
 20
65.897800000000004
 30
0.0
 10
-56.297800000000002
 20
65.936899999999994
 30
0.0
 10
-56.297800000000002
 20
65.936899999999994
 30
0.0
 10
-56.297800000000002
 20
65.936899999999994
 30
0.0
 10
-56.297800000000002
 20
65.936899999999994
 30
0.0
 10
-52.4754
 20
71.444000000000003
 30
0.0
 10
-52.4754
 20
71.444000000000003
 30
0.0
 10
-52.4754
 20
71.444000000000003
 30
0.0
 10
-52.4754
 20
71.444000000000003
 30
0.0
 10
-48.292099999999998
 20
65.685900000000004
 30
0.0
 10
-48.292099999999998
 20
65.685900000000004
 30
0.0
 10
-48.292099999999998
 20
65.685900000000004
 30
0.0
 10
-48.292099999999998
 20
65.685900000000004
 30
0.0
 10
-50.984699999999997
 20
65.680800000000005
 30
0.0
 10
-50.984699999999997
 20
65.680800000000005
 30
0.0
 10
-50.984699999999997
 20
65.680800000000005
 30
0.0
 10
-50.984699999999997
 20
65.680800000000005
 30
0.0
 10
-50.261600000000001
 20
59.822000000000003
 30
0.0
 10
-50.261600000000001
 20
59.822000000000003
 30
0.0
 10
-50.261600000000001
 20
59.822000000000003
 30
0.0
 10
-50.261600000000001
 20
59.822000000000003
 30
0.0
 10
-47.863300000000002
 20
62.825699999999998
 30
0.0
 10
-47.863300000000002
 20
62.825699999999998
 30
0.0
 10
-47.863300000000002
 20
62.825699999999998
 30
0.0
 10
-47.863300000000002
 20
62.825699999999998
 30
0.0
 10
-45.2181
 20
54.238799999999998
 30
0.0
 10
-45.2181
 20
54.238799999999998
 30
0.0
 10
-45.2181
 20
54.238799999999998
 30
0.0
 10
-45.2181
 20
54.238799999999998
 30
0.0
 10
-50.093899999999998
 20
54.238799999999998
 30
0.0
 10
-50.093899999999998
 20
54.238799999999998
 30
0.0
 10
-50.093899999999998
 20
54.238799999999998
 30
0.0
 10
-50.093899999999998
 20
54.238799999999998
 30
0.0
 10
-50.090800000000002
 20
43.342399999999998
 30
0.0
 10
-50.090800000000002
 20
43.342399999999998
 30
0.0
 10
-50.090800000000002
 20
43.342399999999998
 30
0.0
 10
-50.090800000000002
 20
43.342399999999998
 30
0.0
 10
-47.0199
 20
42.897500000000001
 30
0.0
 10
-47.0199
 20
42.897500000000001
 30
0.0
 10
-47.0199
 20
42.897500000000001
 30
0.0
 10
-47.0199
 20
42.897500000000001
 30
0.0
 10
-47.0199
 20
45.759399999999999
 30
0.0
 10
-47.0199
 20
45.759399999999999
 30
0.0
 10
-47.0199
 20
45.759399999999999
 30
0.0
 10
-47.0199
 20
45.759399999999999
 30
0.0
 10
-42.780299999999997
 20
45.759399999999999
 30
0.0
 10
-42.780299999999997
 20
45.759399999999999
 30
0.0
 10
-42.780299999999997
 20
45.759399999999999
 30
0.0
 10
-42.780299999999997
 20
45.759399999999999
 30
0.0
 10
-42.780299999999997
 20
42.473599999999998
 30
0.0
 10
-42.780299999999997
 20
42.473599999999998
 30
0.0
 10
-42.780299999999997
 20
42.473599999999998
 30
0.0
 10
-42.780299999999997
 20
42.473599999999998
 30
0.0
 10
-33.559100000000001
 20
42.473599999999998
 30
0.0
 10
-33.559100000000001
 20
42.473599999999998
 30
0.0
 10
-33.559100000000001
 20
42.473599999999998
 30
0.0
 10
-33.559100000000001
 20
42.473599999999998
 30
0.0
 10
-33.559100000000001
 20
47.8795
 30
0.0
 10
-33.559100000000001
 20
47.8795
 30
0.0
 10
-33.559100000000001
 20
47.8795
 30
0.0
 10
-33.559100000000001
 20
47.8795
 30
0.0
 10
-38.010899999999999
 20
47.8795
 30
0.0
 10
-38.010899999999999
 20
47.8795
 30
0.0
 10
-38.010899999999999
 20
47.8795
 30
0.0
 10
-37.475700000000003
 20
48.343899999999998
 30
0.0
 10
-36.393500000000003
 20
48.499000000000002
 30
0.0
 10
-35.439399999999999
 20
49.441499999999998
 30
0.0
 10
-35.439399999999999
 20
49.441499999999998
 30
0.0
 10
-34.647399999999998
 20
50.224200000000003
 30
0.0
 10
-34.1066
 20
50.7667
 30
0.0
 10
-33.473700000000001
 20
51.715299999999999
 30
0.0
 10
-33.473700000000001
 20
51.715299999999999
 30
0.0
 10
-32.855200000000004
 20
52.642099999999999
 30
0.0
 10
-32.4497
 20
53.361400000000003
 30
0.0
 10
-31.931799999999999
 20
54.413499999999999
 30
0.0
 10
-31.931799999999999
 20
54.413499999999999
 30
0.0
 10
-31.6386
 20
55.009500000000003
 30
0.0
 10
-30.9344
 20
57.145600000000002
 30
0.0
 10
-30.696999999999999
 20
57.418399999999998
 30
0.0
 10
-30.696999999999999
 20
57.418399999999998
 30
0.0
 10
-30.696999999999999
 20
55.288400000000003
 30
0.0
 10
-28.8186
 20
52.7209
 30
0.0
 10
-27.703900000000001
 20
51.614400000000003
 30
0.0
 10
-27.703900000000001
 20
51.614400000000003
 30
0.0
 10
-26.955300000000001
 20
50.871299999999998
 30
0.0
 10
-26.256499999999999
 20
50.174500000000002
 30
0.0
 10
-25.3993
 20
49.573399999999999
 30
0.0
 10
-25.3993
 20
49.573399999999999
 30
0.0
 10
-24.724699999999999
 20
49.100900000000003
 30
0.0
 10
-23.1097
 20
48.285899999999998
 30
0.0
 10
-22.642499999999998
 20
47.8553
 30
0.0
 10
-22.642499999999998
 20
47.8553
 30
0.0
 10
-22.642499999999998
 20
47.8553
 30
0.0
 10
-27.799199999999999
 20
47.984699999999997
 30
0.0
 10
-27.799199999999999
 20
47.984699999999997
 30
0.0
 10
-27.799199999999999
 20
47.984699999999997
 30
0.0
 10
-27.799199999999999
 20
47.984699999999997
 30
0.0
 10
-28.0473
 20
30.814499999999999
 30
0.0
 10
-28.0473
 20
30.814499999999999
 30
0.0
 10
-28.0473
 20
30.814499999999999
 30
0.0
 10
-27.4862
 20
31.111499999999999
 30
0.0
 10
-24.1173
 20
33.888100000000001
 30
0.0
 10
-24.0197
 20
33.888100000000001
 30
0.0
 10
-24.0197
 20
33.888100000000001
 30
0.0
 10
-23.680900000000001
 20
33.888100000000001
 30
0.0
 10
-20.326899999999998
 20
28.797699999999999
 30
0.0
 10
-19.992100000000001
 20
28.1646
 30
0.0
 10
-19.992100000000001
 20
28.1646
 30
0.0
 10
-20.377199999999998
 20
27.960799999999999
 30
0.0
 10
-22.217700000000001
 20
27.706299999999999
 30
0.0
 10
-22.217700000000001
 20
27.2105
 30
0.0
 10
-22.217700000000001
 20
27.2105
 30
0.0
 10
-22.217700000000001
 20
27.2105
 30
0.0
 10
-22.217700000000001
 20
18.5624
 30
0.0
 10
-22.217700000000001
 20
18.5624
 30
0.0
 10
-22.217700000000001
 20
18.5624
 30
0.0
 10
-15.242900000000001
 20
24.3003
 30
0.0
 10
-10.793799999999999
 20
32.997199999999999
 30
0.0
 10
-10.793799999999999
 20
42.731699999999996
 30
0.0
 10
-10.793799999999999
 20
42.731699999999996
 30
0.0
 10
-10.793799999999999
 20
54.9178
 30
0.0
 10
-17.7666
 20
65.478099999999998
 30
0.0
 10
-27.938700000000001
 20
70.641400000000004
 30
0.0
  0
SPLINE
  5
28
100
AcDbEntity
  8
RÚteg 1
 62
     7
100
AcDbSpline
210
0.0
220
0.0
230
1.0
 70
     1
 71
     3
 72
    36
 73
    32
 74
     0
 42
0.0000000001
 43
0.0000000001
 40
0.0
 40
0.0
 40
0.0
 40
0.0
 40
0.125
 40
0.125
 40
0.125
 40
0.125
 40
0.25
 40
0.25
 40
0.25
 40
0.25
 40
0.375
 40
0.375
 40
0.375
 40
0.375
 40
0.5
 40
0.5
 40
0.5
 40
0.5
 40
0.625
 40
0.625
 40
0.625
 40
0.625
 40
0.75
 40
0.75
 40
0.75
 40
0.75
 40
0.875
 40
0.875
 40
0.875
 40
0.875
 40
1.0
 40
1.0
 40
1.0
 40
1.0
 10
-47.762099999999997
 20
17.7149
 30
0.0
 10
-47.762099999999997
 20
17.7149
 30
0.0
 10
-47.338000000000001
 20
17.706499999999998
 30
0.0
 10
-47.338000000000001
 20
17.706499999999998
 30
0.0
 10
-47.338000000000001
 20
17.706499999999998
 30
0.0
 10
-47.338000000000001
 20
17.706499999999998
 30
0.0
 10
-47.338000000000001
 20
24.666799999999999
 30
0.0
 10
-47.338000000000001
 20
24.666799999999999
 30
0.0
 10
-47.338000000000001
 20
24.666799999999999
 30
0.0
 10
-47.338000000000001
 20
24.666799999999999
 30
0.0
 10
-40.237000000000002
 20
24.666799999999999
 30
0.0
 10
-40.237000000000002
 20
24.666799999999999
 30
0.0
 10
-40.237000000000002
 20
24.666799999999999
 30
0.0
 10
-40.237000000000002
 20
24.666799999999999
 30
0.0
 10
-40.237000000000002
 20
25.302700000000002
 30
0.0
 10
-40.237000000000002
 20
25.302700000000002
 30
0.0
 10
-40.237000000000002
 20
25.302700000000002
 30
0.0
 10
-40.237000000000002
 20
26.397400000000001
 30
0.0
 10
-42.106400000000001
 20
27.422599999999999
 30
0.0
 10
-43.310400000000001
 20
27.422599999999999
 30
0.0
 10
-43.310400000000001
 20
27.422599999999999
 30
0.0
 10
-43.310400000000001
 20
27.422599999999999
 30
0.0
 10
-44.688200000000002
 20
27.422599999999999
 30
0.0
 10
-44.688200000000002
 20
27.422599999999999
 30
0.0
 10
-44.688200000000002
 20
27.422599999999999
 30
0.0
 10
-46.057099999999998
 20
27.422599999999999
 30
0.0
 10
-47.762099999999997
 20
26.328900000000001
 30
0.0
 10
-47.762099999999997
 20
24.9847
 30
0.0
 10
-47.762099999999997
 20
24.9847
 30
0.0
 10
-47.762099999999997
 20
24.9847
 30
0.0
 10
-47.762099999999997
 20
17.7149
 30
0.0
 10
-47.762099999999997
 20
17.7149
 30
0.0
  0
SPLINE
  5
29
100
AcDbEntity
  8
RÚteg 1
 62
     7
100
AcDbSpline
210
0.0
220
0.0
230
1.0
 70
     1
 71
     3
 72
    28
 73
    24
 74
     0
 42
0.0000000001
 43
0.0000000001
 40
0.0
 40
0.0
 40
0.0
 40
0.0
 40
0.1666666666666667
 40
0.1666666666666667
 40
0.1666666666666667
 40
0.1666666666666667
 40
0.3333333333333333
 40
0.3333333333333333
 40
0.3333333333333333
 40
0.3333333333333333
 40
0.5
 40
0.5
 40
0.5
 40
0.5
 40
0.6666666666666666
 40
0.6666666666666666
 40
0.6666666666666666
 40
0.6666666666666666
 40
0.8333333333333333
 40
0.8333333333333333
 40
0.8333333333333333
 40
0.8333333333333333
 40
1.0
 40
1.0
 40
1.0
 40
1.0
 10
-42.075000000000003
 20
76.856700000000004
 30
0.0
 10
-41.726999999999997
 20
76.856700000000004
 30
0.0
 10
-41.380600000000001
 20
76.850200000000001
 30
0.0
 10
-41.034999999999997
 20
76.839500000000001
 30
0.0
 10
-41.034999999999997
 20
76.839500000000001
 30
0.0
 10
-40.395699999999998
 20
77.202200000000005
 30
0.0
 10
-39.963999999999999
 20
77.889300000000006
 30
0.0
 10
-39.963999999999999
 20
78.676599999999993
 30
0.0
 10
-39.963999999999999
 20
78.676599999999993
 30
0.0
 10
-39.963999999999999
 20
79.842399999999998
 30
0.0
 10
-40.909399999999998
 20
80.787700000000001
 30
0.0
 10
-42.075000000000003
 20
80.787700000000001
 30
0.0
 10
-42.075000000000003
 20
80.787700000000001
 30
0.0
 10
-43.240600000000001
 20
80.787700000000001
 30
0.0
 10
-44.186
 20
79.842399999999998
 30
0.0
 10
-44.186
 20
78.676599999999993
 30
0.0
 10
-44.186
 20
78.676599999999993
 30
0.0
 10
-44.186
 20
77.889300000000006
 30
0.0
 10
-43.754300000000001
 20
77.202200000000005
 30
0.0
 10
-43.115000000000002
 20
76.839500000000001
 30
0.0
 10
-43.115000000000002
 20
76.839500000000001
 30
0.0
 10
-42.769399999999997
 20
76.850200000000001
 30
0.0
 10
-42.423000000000002
 20
76.856700000000004
 30
0.0
 10
-42.075000000000003
 20
76.856700000000004
 30
0.0
  0
SPLINE
  5
2A
100
AcDbEntity
  8
RÚteg 1
 62
     7
100
AcDbSpline
210
0.0
220
0.0
230
1.0
 70
     1
 71
     3
 72
    36
 73
    32
 74
     0
 42
0.0000000001
 43
0.0000000001
 40
0.0
 40
0.0
 40
0.0
 40
0.0
 40
0.125
 40
0.125
 40
0.125
 40
0.125
 40
0.25
 40
0.25
 40
0.25
 40
0.25
 40
0.375
 40
0.375
 40
0.375
 40
0.375
 40
0.5
 40
0.5
 40
0.5
 40
0.5
 40
0.625
 40
0.625
 40
0.625
 40
0.625
 40
0.75
 40
0.75
 40
0.75
 40
0.75
 40
0.875
 40
0.875
 40
0.875
 40
0.875
 40
1.0
 40
1.0
 40
1.0
 40
1.0
 10
-38.808799999999998
 20
76.700000000000003
 30
0.0
 10
-21.497
 20
75.055400000000006
 30
0.0
 10
-7.9500000000000002
 20
60.473300000000002
 30
0.0
 10
-7.9500000000000002
 20
42.731699999999996
 30
0.0
 10
-7.9500000000000002
 20
42.731699999999996
 30
0.0
 10
-7.9500000000000002
 20
23.888200000000001
 30
0.0
 10
-23.2316
 20
8.6067
 30
0.0
 10
-42.075000000000003
 20
8.6067
 30
0.0
 10
-42.075000000000003
 20
8.6067
 30
0.0
 10
-60.918399999999998
 20
8.6067
 30
0.0
 10
-76.200000000000003
 20
23.888200000000001
 30
0.0
 10
-76.200000000000003
 20
42.731699999999996
 30
0.0
 10
-76.200000000000003
 20
42.731699999999996
 30
0.0
 10
-76.200000000000003
 20
60.473300000000002
 30
0.0
 10
-62.652999999999999
 20
75.055400000000006
 30
0.0
 10
-45.341200000000001
 20
76.700000000000003
 30
0.0
 10
-45.341200000000001
 20
76.700000000000003
 30
0.0
 10
-45.690899999999999
 20
77.276600000000002
 30
0.0
 10
-45.892299999999999
 20
77.953299999999999
 30
0.0
 10
-45.892299999999999
 20
78.676599999999993
 30
0.0
 10
-45.892299999999999
 20
78.676599999999993
 30
0.0
 10
-45.892299999999999
 20
80.784400000000005
 30
0.0
 10
-44.183
 20
82.493899999999996
 30
0.0
 10
-42.075000000000003
 20
82.493899999999996
 30
0.0
 10
-42.075000000000003
 20
82.493899999999996
 30
0.0
 10
-39.966999999999999
 20
82.493899999999996
 30
0.0
 10
-38.2577
 20
80.784400000000005
 30
0.0
 10
-38.2577
 20
78.676599999999993
 30
0.0
 10
-38.2577
 20
78.676599999999993
 30
0.0
 10
-38.2577
 20
77.953299999999999
 30
0.0
 10
-38.459099999999999
 20
77.276600000000002
 30
0.0
 10
-38.808799999999998
 20
76.700000000000003
 30
0.0
  0
SPLINE
  5
2B
100
AcDbEntity
  8
RÚteg 1
 62
     7
100
AcDbSpline
210
0.0
220
0.0
230
1.0
 70
     1
 71
     3
 72
    28
 73
    24
 74
     0
 42
0.0000000001
 43
0.0000000001
 40
0.0
 40
0.0
 40
0.0
 40
0.0
 40
0.1666666666666667
 40
0.1666666666666667
 40
0.1666666666666667
 40
0.1666666666666667
 40
0.3333333333333333
 40
0.3333333333333333
 40
0.3333333333333333
 40
0.3333333333333333
 40
0.5
 40
0.5
 40
0.5
 40
0.5
 40
0.6666666666666666
 40
0.6666666666666666
 40
0.6666666666666666
 40
0.6666666666666666
 40
0.8333333333333333
 40
0.8333333333333333
 40
0.8333333333333333
 40
0.8333333333333333
 40
1.0
 40
1.0
 40
1.0
 40
1.0
 10
-37.056899999999999
 20
26.7864
 30
0.0
 10
-37.056899999999999
 20
27.461400000000001
 30
0.0
 10
-36.1417
 20
28.3764
 30
0.0
 10
-35.466999999999999
 20
28.3764
 30
0.0
 10
-35.466999999999999
 20
28.3764
 30
0.0
 10
-35.466999999999999
 20
28.3764
 30
0.0
 10
-34.619
 20
28.3764
 30
0.0
 10
-34.619
 20
28.3764
 30
0.0
 10
-34.619
 20
28.3764
 30
0.0
 10
-33.7898
 20
28.3764
 30
0.0
 10
-33.029200000000003
 20
27.3415
 30
0.0
 10
-33.029200000000003
 20
26.468599999999999
 30
0.0
 10
-33.029200000000003
 20
26.468599999999999
 30
0.0
 10
-33.029200000000003
 20
26.468599999999999
 30
0.0
 10
-33.029200000000003
 20
19.897099999999998
 30
0.0
 10
-33.029200000000003
 20
19.897099999999998
 30
0.0
 10
-33.029200000000003
 20
19.897099999999998
 30
0.0
 10
-33.029200000000003
 20
19.897099999999998
 30
0.0
 10
-37.056899999999999
 20
19.897099999999998
 30
0.0
 10
-37.056899999999999
 20
19.897099999999998
 30
0.0
 10
-37.056899999999999
 20
19.897099999999998
 30
0.0
 10
-37.056899999999999
 20
19.897099999999998
 30
0.0
 10
-37.056899999999999
 20
26.7864
 30
0.0
 10
-37.056899999999999
 20
26.7864
 30
0.0
  0
SPLINE
  5
2C
100
AcDbEntity
  8
RÚteg 1
 62
     7
100
AcDbSpline
210
0.0
220
0.0
230
1.0
 70
     1
 71
     3
 72
    28
 73
    24
 74
     0
 42
0.0000000001
 43
0.0000000001
 40
0.0
 40
0.0
 40
0.0
 40
0.0
 40
0.1666666666666667
 40
0.1666666666666667
 40
0.1666666666666667
 40
0.1666666666666667
 40
0.3333333333333333
 40
0.3333333333333333
 40
0.3333333333333333
 40
0.3333333333333333
 40
0.5
 40
0.5
 40
0.5
 40
0.5
 40
0.6666666666666666
 40
0.6666666666666666
 40
0.6666666666666666
 40
0.6666666666666666
 40
0.8333333333333333
 40
0.8333333333333333
 40
0.8333333333333333
 40
0.8333333333333333
 40
1.0
 40
1.0
 40
1.0
 40
1.0
 10
-54.439799999999998
 20
26.5748
 30
0.0
 10
-54.439799999999998
 20
27.5045
 30
0.0
 10
-53.696800000000003
 20
28.3764
 30
0.0
 10
-52.743600000000001
 20
28.3764
 30
0.0
 10
-52.743600000000001
 20
28.3764
 30
0.0
 10
-52.743600000000001
 20
28.3764
 30
0.0
 10
-52.213700000000003
 20
28.3764
 30
0.0
 10
-52.213700000000003
 20
28.3764
 30
0.0
 10
-52.213700000000003
 20
28.3764
 30
0.0
 10
-51.260800000000003
 20
28.3764
 30
0.0
 10
-50.517899999999997
 20
27.5045
 30
0.0
 10
-50.517899999999997
 20
26.5748
 30
0.0
 10
-50.517899999999997
 20
26.5748
 30
0.0
 10
-50.517899999999997
 20
26.5748
 30
0.0
 10
-50.517899999999997
 20
19.897099999999998
 30
0.0
 10
-50.517899999999997
 20
19.897099999999998
 30
0.0
 10
-50.517899999999997
 20
19.897099999999998
 30
0.0
 10
-50.517899999999997
 20
19.897099999999998
 30
0.0
 10
-54.439799999999998
 20
19.897099999999998
 30
0.0
 10
-54.439799999999998
 20
19.897099999999998
 30
0.0
 10
-54.439799999999998
 20
19.897099999999998
 30
0.0
 10
-54.439799999999998
 20
19.897099999999998
 30
0.0
 10
-54.439799999999998
 20
26.5748
 30
0.0
 10
-54.439799999999998
 20
26.5748
 30
0.0
  0
SPLINE
  5
2D
100
AcDbEntity
  8
RÚteg 1
 62
     7
100
AcDbSpline
210
0.0
220
0.0
230
1.0
 70
     1
 71
     3
 72
    28
 73
    24
 74
     0
 42
0.0000000001
 43
0.0000000001
 40
0.0
 40
0.0
 40
0.0
 40
0.0
 40
0.1666666666666667
 40
0.1666666666666667
 40
0.1666666666666667
 40
0.1666666666666667
 40
0.3333333333333333
 40
0.3333333333333333
 40
0.3333333333333333
 40
0.3333333333333333
 40
0.5
 40
0.5
 40
0.5
 40
0.5
 40
0.6666666666666666
 40
0.6666666666666666
 40
0.6666666666666666
 40
0.6666666666666666
 40
0.8333333333333333
 40
0.8333333333333333
 40
0.8333333333333333
 40
0.8333333333333333
 40
1.0
 40
1.0
 40
1.0
 40
1.0
 10
-60.269399999999997
 20
26.680900000000001
 30
0.0
 10
-60.269399999999997
 20
27.377099999999999
 30
0.0
 10
-59.407899999999998
 20
28.3764
 30
0.0
 10
-58.679499999999997
 20
28.3764
 30
0.0
 10
-58.679499999999997
 20
28.3764
 30
0.0
 10
-58.679499999999997
 20
28.3764
 30
0.0
 10
-57.831499999999998
 20
28.3764
 30
0.0
 10
-57.831499999999998
 20
28.3764
 30
0.0
 10
-57.831499999999998
 20
28.3764
 30
0.0
 10
-57.057200000000002
 20
28.3764
 30
0.0
 10
-56.347499999999997
 20
27.488
 30
0.0
 10
-56.347499999999997
 20
26.680900000000001
 30
0.0
 10
-56.347499999999997
 20
26.680900000000001
 30
0.0
 10
-56.347499999999997
 20
26.680900000000001
 30
0.0
 10
-56.347499999999997
 20
19.897099999999998
 30
0.0
 10
-56.347499999999997
 20
19.897099999999998
 30
0.0
 10
-56.347499999999997
 20
19.897099999999998
 30
0.0
 10
-56.347499999999997
 20
19.897099999999998
 30
0.0
 10
-60.269399999999997
 20
19.897099999999998
 30
0.0
 10
-60.269399999999997
 20
19.897099999999998
 30
0.0
 10
-60.269399999999997
 20
19.897099999999998
 30
0.0
 10
-60.269399999999997
 20
19.897099999999998
 30
0.0
 10
-60.269399999999997
 20
26.680900000000001
 30
0.0
 10
-60.269399999999997
 20
26.680900000000001
 30
0.0
  0
SPLINE
  5
2E
100
AcDbEntity
  8
RÚteg 1
 62
     7
100
AcDbSpline
210
0.0
220
0.0
230
1.0
 70
     1
 71
     3
 72
    28
 73
    24
 74
     0
 42
0.0000000001
 43
0.0000000001
 40
0.0
 40
0.0
 40
0.0
 40
0.0
 40
0.1666666666666667
 40
0.1666666666666667
 40
0.1666666666666667
 40
0.1666666666666667
 40
0.3333333333333333
 40
0.3333333333333333
 40
0.3333333333333333
 40
0.3333333333333333
 40
0.5
 40
0.5
 40
0.5
 40
0.5
 40
0.6666666666666666
 40
0.6666666666666666
 40
0.6666666666666666
 40
0.6666666666666666
 40
0.8333333333333333
 40
0.8333333333333333
 40
0.8333333333333333
 40
0.8333333333333333
 40
1.0
 40
1.0
 40
1.0
 40
1.0
 10
-35.466999999999999
 20
38.657699999999998
 30
0.0
 10
-35.466999999999999
 20
39.493299999999998
 30
0.0
 10
-34.678699999999999
 20
40.459600000000002
 30
0.0
 10
-33.877299999999998
 20
40.459600000000002
 30
0.0
 10
-33.877299999999998
 20
40.459600000000002
 30
0.0
 10
-33.877299999999998
 20
40.459600000000002
 30
0.0
 10
-33.135100000000001
 20
40.459600000000002
 30
0.0
 10
-33.135100000000001
 20
40.459600000000002
 30
0.0
 10
-33.135100000000001
 20
40.459600000000002
 30
0.0
 10
-32.055100000000003
 20
40.459600000000002
 30
0.0
 10
-31.439399999999999
 20
39.4373
 30
0.0
 10
-31.439399999999999
 20
38.339599999999997
 30
0.0
 10
-31.439399999999999
 20
38.339599999999997
 30
0.0
 10
-31.439399999999999
 20
38.339599999999997
 30
0.0
 10
-31.439399999999999
 20
31.9803
 30
0.0
 10
-31.439399999999999
 20
31.9803
 30
0.0
 10
-31.439399999999999
 20
31.9803
 30
0.0
 10
-31.439399999999999
 20
31.9803
 30
0.0
 10
-35.466999999999999
 20
31.9803
 30
0.0
 10
-35.466999999999999
 20
31.9803
 30
0.0
 10
-35.466999999999999
 20
31.9803
 30
0.0
 10
-35.466999999999999
 20
31.9803
 30
0.0
 10
-35.466999999999999
 20
38.657699999999998
 30
0.0
 10
-35.466999999999999
 20
38.657699999999998
 30
0.0
  0
SPLINE
  5
2F
100
AcDbEntity
  8
RÚteg 1
 62
     7
100
AcDbSpline
210
0.0
220
0.0
230
1.0
 70
     1
 71
     3
 72
    24
 73
    20
 74
     0
 42
0.0000000001
 43
0.0000000001
 40
0.0
 40
0.0
 40
0.0
 40
0.0
 40
0.2
 40
0.2
 40
0.2
 40
0.2
 40
0.4
 40
0.4
 40
0.4
 40
0.4
 40
0.6000000000000001
 40
0.6000000000000001
 40
0.6000000000000001
 40
0.6000000000000001
 40
0.8
 40
0.8
 40
0.8
 40
0.8
 40
1.0
 40
1.0
 40
1.0
 40
1.0
 10
-61.435299999999998
 20
39.081899999999997
 30
0.0
 10
-61.435299999999998
 20
39.947600000000001
 30
0.0
 10
-60.405500000000004
 20
40.777700000000003
 30
0.0
 10
-59.420999999999999
 20
40.777700000000003
 30
0.0
 10
-59.420999999999999
 20
40.777700000000003
 30
0.0
 10
-58.497999999999998
 20
40.777700000000003
 30
0.0
 10
-57.513500000000001
 20
40.059100000000001
 30
0.0
 10
-57.513500000000001
 20
39.1877
 30
0.0
 10
-57.513500000000001
 20
39.1877
 30
0.0
 10
-57.513500000000001
 20
39.1877
 30
0.0
 10
-57.513500000000001
 20
32.192300000000003
 30
0.0
 10
-57.513500000000001
 20
32.192300000000003
 30
0.0
 10
-57.513500000000001
 20
32.192300000000003
 30
0.0
 10
-57.513500000000001
 20
32.192300000000003
 30
0.0
 10
-61.435299999999998
 20
32.192300000000003
 30
0.0
 10
-61.435299999999998
 20
32.192300000000003
 30
0.0
 10
-61.435299999999998
 20
32.192300000000003
 30
0.0
 10
-61.435299999999998
 20
32.192300000000003
 30
0.0
 10
-61.435299999999998
 20
39.081899999999997
 30
0.0
 10
-61.435299999999998
 20
39.081899999999997
 30
0.0
  0
SPLINE
  5
30
100
AcDbEntity
  8
RÚteg 1
 62
     7
100
AcDbSpline
210
0.0
220
0.0
230
1.0
 70
     1
 71
     3
 72
    32
 73
    28
 74
     0
 42
0.0000000001
 43
0.0000000001
 40
0.0
 40
0.0
 40
0.0
 40
0.0
 40
0.1428571428571429
 40
0.1428571428571429
 40
0.1428571428571429
 40
0.1428571428571429
 40
0.2857142857142857
 40
0.2857142857142857
 40
0.2857142857142857
 40
0.2857142857142857
 40
0.4285714285714286
 40
0.4285714285714286
 40
0.4285714285714286
 40
0.4285714285714286
 40
0.5714285714285714
 40
0.5714285714285714
 40
0.5714285714285714
 40
0.5714285714285714
 40
0.7142857142857142
 40
0.7142857142857142
 40
0.7142857142857142
 40
0.7142857142857142
 40
0.857142857142857
 40
0.857142857142857
 40
0.857142857142857
 40
0.857142857142857
 40
1.0
 40
1.0
 40
1.0
 40
1.0
 10
-53.3795
 20
54.3446
 30
0.0
 10
-53.251300000000001
 20
54.394599999999997
 30
0.0
 10
-53.016500000000001
 20
54.450800000000001
 30
0.0
 10
-52.849899999999998
 20
54.450800000000001
 30
0.0
 10
-52.849899999999998
 20
54.450800000000001
 30
0.0
 10
-52.849899999999998
 20
54.450800000000001
 30
0.0
 10
-52.743600000000001
 20
54.450800000000001
 30
0.0
 10
-52.743600000000001
 20
54.450800000000001
 30
0.0
 10
-52.743600000000001
 20
54.450800000000001
 30
0.0
 10
-52.496499999999997
 20
54.450800000000001
 30
0.0
 10
-52.213700000000003
 20
54.167999999999999
 30
0.0
 10
-52.213700000000003
 20
53.9208
 30
0.0
 10
-52.213700000000003
 20
53.9208
 30
0.0
 10
-52.213700000000003
 20
53.9208
 30
0.0
 10
-52.213700000000003
 20
51.164999999999999
 30
0.0
 10
-52.213700000000003
 20
51.164999999999999
 30
0.0
 10
-52.213700000000003
 20
51.164999999999999
 30
0.0
 10
-52.213700000000003
 20
51.164999999999999
 30
0.0
 10
-53.485599999999998
 20
51.164999999999999
 30
0.0
 10
-53.485599999999998
 20
51.164999999999999
 30
0.0
 10
-53.485599999999998
 20
51.164999999999999
 30
0.0
 10
-53.485599999999998
 20
51.164999999999999
 30
0.0
 10
-53.485599999999998
 20
53.814700000000002
 30
0.0
 10
-53.485599999999998
 20
53.814700000000002
 30
0.0
 10
-53.485599999999998
 20
53.814700000000002
 30
0.0
 10
-53.485599999999998
 20
54.100999999999999
 30
0.0
 10
-53.435400000000001
 20
54.106900000000003
 30
0.0
 10
-53.3795
 20
54.3446
 30
0.0
  0
SPLINE
  5
31
100
AcDbEntity
  8
RÚteg 1
 62
     7
100
AcDbSpline
210
0.0
220
0.0
230
1.0
 70
     1
 71
     3
 72
    28
 73
    24
 74
     0
 42
0.0000000001
 43
0.0000000001
 40
0.0
 40
0.0
 40
0.0
 40
0.0
 40
0.1666666666666667
 40
0.1666666666666667
 40
0.1666666666666667
 40
0.1666666666666667
 40
0.3333333333333333
 40
0.3333333333333333
 40
0.3333333333333333
 40
0.3333333333333333
 40
0.5
 40
0.5
 40
0.5
 40
0.5
 40
0.6666666666666666
 40
0.6666666666666666
 40
0.6666666666666666
 40
0.6666666666666666
 40
0.8333333333333333
 40
0.8333333333333333
 40
0.8333333333333333
 40
0.8333333333333333
 40
1.0
 40
1.0
 40
1.0
 40
1.0
 10
-48.821899999999999
 20
58.478499999999997
 30
0.0
 10
-48.821899999999999
 20
58.726599999999998
 30
0.0
 10
-48.646099999999997
 20
58.902200000000001
 30
0.0
 10
-48.398099999999999
 20
58.902200000000001
 30
0.0
 10
-48.398099999999999
 20
58.902200000000001
 30
0.0
 10
-48.398099999999999
 20
58.902200000000001
 30
0.0
 10
-48.080100000000002
 20
58.902200000000001
 30
0.0
 10
-48.080100000000002
 20
58.902200000000001
 30
0.0
 10
-48.080100000000002
 20
58.902200000000001
 30
0.0
 10
-47.7376
 20
58.902200000000001
 30
0.0
 10
-47.550199999999997
 20
58.517600000000002
 30
0.0
 10
-47.550199999999997
 20
58.160499999999999
 30
0.0
 10
-47.550199999999997
 20
58.160499999999999
 30
0.0
 10
-47.550199999999997
 20
58.160499999999999
 30
0.0
 10
-47.550199999999997
 20
55.616599999999998
 30
0.0
 10
-47.550199999999997
 20
55.616599999999998
 30
0.0
 10
-47.550199999999997
 20
55.616599999999998
 30
0.0
 10
-47.550199999999997
 20
55.616599999999998
 30
0.0
 10
-48.821899999999999
 20
55.616599999999998
 30
0.0
 10
-48.821899999999999
 20
55.616599999999998
 30
0.0
 10
-48.821899999999999
 20
55.616599999999998
 30
0.0
 10
-48.821899999999999
 20
55.616599999999998
 30
0.0
 10
-48.821899999999999
 20
58.478499999999997
 30
0.0
 10
-48.821899999999999
 20
58.478499999999997
 30
0.0
  0
SPLINE
  5
32
100
AcDbEntity
  8
RÚteg 1
 62
     7
100
AcDbSpline
210
0.0
220
0.0
230
1.0
 70
     1
 71
     3
 72
    28
 73
    24
 74
     0
 42
0.0000000001
 43
0.0000000001
 40
0.0
 40
0.0
 40
0.0
 40
0.0
 40
0.1666666666666667
 40
0.1666666666666667
 40
0.1666666666666667
 40
0.1666666666666667
 40
0.3333333333333333
 40
0.3333333333333333
 40
0.3333333333333333
 40
0.3333333333333333
 40
0.5
 40
0.5
 40
0.5
 40
0.5
 40
0.6666666666666666
 40
0.6666666666666666
 40
0.6666666666666666
 40
0.6666666666666666
 40
0.8333333333333333
 40
0.8333333333333333
 40
0.8333333333333333
 40
0.8333333333333333
 40
1.0
 40
1.0
 40
1.0
 40
1.0
 10
-57.725299999999997
 20
58.6905
 30
0.0
 10
-57.725299999999997
 20
58.938600000000001
 30
0.0
 10
-57.549500000000002
 20
59.1145
 30
0.0
 10
-57.301200000000001
 20
59.1145
 30
0.0
 10
-57.301200000000001
 20
59.1145
 30
0.0
 10
-57.301200000000001
 20
59.1145
 30
0.0
 10
-56.983199999999997
 20
59.1145
 30
0.0
 10
-56.983199999999997
 20
59.1145
 30
0.0
 10
-56.983199999999997
 20
59.1145
 30
0.0
 10
-56.735500000000002
 20
59.1145
 30
0.0
 10
-56.5595
 20
58.938600000000001
 30
0.0
 10
-56.5595
 20
58.6905
 30
0.0
 10
-56.5595
 20
58.6905
 30
0.0
 10
-56.5595
 20
58.6905
 30
0.0
 10
-56.5595
 20
55.828499999999998
 30
0.0
 10
-56.5595
 20
55.828499999999998
 30
0.0
 10
-56.5595
 20
55.828499999999998
 30
0.0
 10
-56.5595
 20
55.828499999999998
 30
0.0
 10
-57.725299999999997
 20
55.828499999999998
 30
0.0
 10
-57.725299999999997
 20
55.828499999999998
 30
0.0
 10
-57.725299999999997
 20
55.828499999999998
 30
0.0
 10
-57.725299999999997
 20
55.828499999999998
 30
0.0
 10
-57.725299999999997
 20
58.6905
 30
0.0
 10
-57.725299999999997
 20
58.6905
 30
0.0
  0
SPLINE
  5
33
100
AcDbEntity
  8
RÚteg 1
 62
     7
100
AcDbSpline
210
0.0
220
0.0
230
1.0
 70
     1
 71
     3
 72
    28
 73
    24
 74
     0
 42
0.0000000001
 43
0.0000000001
 40
0.0
 40
0.0
 40
0.0
 40
0.0
 40
0.1666666666666667
 40
0.1666666666666667
 40
0.1666666666666667
 40
0.1666666666666667
 40
0.3333333333333333
 40
0.3333333333333333
 40
0.3333333333333333
 40
0.3333333333333333
 40
0.5
 40
0.5
 40
0.5
 40
0.5
 40
0.6666666666666666
 40
0.6666666666666666
 40
0.6666666666666666
 40
0.6666666666666666
 40
0.8333333333333333
 40
0.8333333333333333
 40
0.8333333333333333
 40
0.8333333333333333
 40
1.0
 40
1.0
 40
1.0
 40
1.0
 10
-53.273699999999998
 20
62.823900000000002
 30
0.0
 10
-53.273699999999998
 20
63.1813
 30
0.0
 10
-53.086199999999998
 20
63.565899999999999
 30
0.0
 10
-52.743600000000001
 20
63.565899999999999
 30
0.0
 10
-52.743600000000001
 20
63.565899999999999
 30
0.0
 10
-52.743600000000001
 20
63.565899999999999
 30
0.0
 10
-52.531500000000001
 20
63.565899999999999
 30
0.0
 10
-52.531500000000001
 20
63.565899999999999
 30
0.0
 10
-52.531500000000001
 20
63.565899999999999
 30
0.0
 10
-52.284599999999998
 20
63.565899999999999
 30
0.0
 10
-52.001800000000003
 20
63.283299999999997
 30
0.0
 10
-52.001800000000003
 20
63.036200000000001
 30
0.0
 10
-52.001800000000003
 20
63.036200000000001
 30
0.0
 10
-52.001800000000003
 20
63.036200000000001
 30
0.0
 10
-52.001800000000003
 20
60.280299999999997
 30
0.0
 10
-52.001800000000003
 20
60.280299999999997
 30
0.0
 10
-52.001800000000003
 20
60.280299999999997
 30
0.0
 10
-52.001800000000003
 20
60.280299999999997
 30
0.0
 10
-53.273699999999998
 20
60.280299999999997
 30
0.0
 10
-53.273699999999998
 20
60.280299999999997
 30
0.0
 10
-53.273699999999998
 20
60.280299999999997
 30
0.0
 10
-53.273699999999998
 20
60.280299999999997
 30
0.0
 10
-53.273699999999998
 20
62.823900000000002
 30
0.0
 10
-53.273699999999998
 20
62.823900000000002
 30
0.0
  0
ENDSEC
  0
SECTION
  2
OBJECTS
  0
DICTIONARY
  5
19
100
AcDbDictionary
280
     0
281
     1
  3
ACAD_GROUP
350
1A
  3
ACAD_MLINESTYLE
350
1B
  3
ACAD_LAYOUT
350
1E
  3
ACAD_PLOTSETTINGS
350
22
  3
ACAD_PLOTSTYLENAME
350
1F
  3
ACAD_WIPEOUT_VARS
350
23
  0
DICTIONARY
  5
1A
102
{ACAD_REACTORS
330
19
102
}
100
AcDbDictionary
280
     0
281
     1
  0
DICTIONARY
  5
1B
102
{ACAD_REACTORS
330
19
102
}
100
AcDbDictionary
280
     0
281
     1
  3
Standard
350
1C
  0
MLINESTYLE
  5
1C
102
{ACAD_REACTORS
330
1B
102
}
100
AcDbMlineStyle
  2
Standard
 70
     0
  3

 62
     0
 51
90.0
 52
90.0
 71
     2
 49
0.5
 62
   256
  6
BYLAYER
 49
-0.5
 62
   256
  6
BYLAYER
  0
ACDBDICTIONARYWDFLT
  5
1F
102
{ACAD_REACTORS
330
19
102
}
100
AcDbDictionary
281
     1
  3
Normal
350
1D
100
AcDbDictionaryWithDefault
340
1D
  0
ACDBPLACEHOLDER
  5
1D
102
{ACAD_REACTORS
330
1F
102
}
  0
LAYOUT
  5
20
102
{ACAD_REACTORS
330
1E
102
}
100
AcDbPlotSettings
  1

  2

  4

  6

 40
0.0
 41
0.0
 42
0.0
 43
0.0
 44
0.0
 45
0.0
 46
0.0
 47
0.0
 48
0.0
 49
0.0
140
0.0
141
0.0
142
1.0
143
1.0
 70
  1024
 72
     0
 73
     0
 74
     0
  7

 75
     0
147
1.0
148
0.0
149
0.0
100
AcDbLayout
  1
Model
 70
     0
 71
     0
 10
0.0
 20
0.0
 11
0.0
 21
0.0
 12
0.0
 22
0.0
 32
0.0
 14
0.0
 24
0.0
 34
0.0
 15
0.0
 25
0.0
 35
0.0
146
0.0
 13
0.0
 23
0.0
 33
0.0
 16
0.0
 26
0.0
 36
0.0
 17
0.0
 27
0.0
 37
0.0
 76
     0
330
A
331
0
345
0
346
0
  0
LAYOUT
  5
21
102
{ACAD_REACTORS
330
1E
102
}
100
AcDbPlotSettings
  1

  2

  4

  6

 40
0.0
 41
0.0
 42
0.0
 43
0.0
 44
0.0
 45
0.0
 46
0.0
 47
0.0
 48
0.0
 49
0.0
140
0.0
141
0.0
142
1.0
143
1.0
 70
     0
 72
     0
 73
     0
 74
     0
  7

 75
     0
147
1.0
148
0.0
149
0.0
100
AcDbLayout
  1
Layout1
 70
     0
 71
     0
 10
0.0
 20
0.0
 11
0.0
 21
0.0
 12
0.0
 22
0.0
 32
0.0
 14
0.0
 24
0.0
 34
0.0
 15
0.0
 25
0.0
 35
0.0
146
0.0
 13
0.0
 23
0.0
 33
0.0
 16
0.0
 26
0.0
 36
0.0
 17
0.0
 27
0.0
 37
0.0
 76
     0
330
B
331
0
345
0
346
0
  0
DICTIONARY
  5
1E
102
{ACAD_REACTORS
330
19
102
}
100
AcDbDictionary
280
     0
281
     1
  3
Layout1
350
21
  3
Model
350
20
  0
DICTIONARY
  5
22
102
{ACAD_REACTORS
330
19
102
}
100
AcDbDictionary
280
     0
281
     1
  0
WIPEOUTVARIABLES
  5
23
100
AcDbWipeoutVariables
 70
     1
  0
ENDSEC
  0
EOF
