  0
SECTION
  2
HEADER
  9
$ACADVER
  1
AC1015
  9
$ACADMAINTVER
 70
     6
  9
$DWGCODEPAGE
  3
DOS850
  9
$INSBASE
 10
0.0
 20
0.0
 30
0.0
  9
$EXTMIN
 10
-93.0382
 20
40.3515
 30
1.000000E+20
  9
$EXTMAX
 10
47.1382
 20
120.3882
 30
-1.000000E+20
  9
$LIMMIN
 10
0.0
 20
0.0
  9
$LIMMAX
 10
0.0
 20
0.0
  9
$ORTHOMODE
 70
     0
  9
$REGENMODE
 70
     1
  9
$FILLMODE
 70
     1
  9
$QTEXTMODE
 70
     0
  9
$MIRRTEXT
 70
     1
  9
$LTSCALE
 40
1.0
  9
$ATTMODE
 70
     1
  9
$TEXTSIZE
 40
0.2
  9
$TRACEWID
 40
0.05
  9
$TEXTSTYLE
  7
Standard
  9
$CLAYER
  8
0
  9
$CELTYPE
  6
Continuous
  9
$CECOLOR
 62
   256
  9
$CELTSCALE
 40
1.0
  9
$DISPSILH
 70
     0
  9
$DIMSCALE
 40
1.0
  9
$DIMASZ
 40
0.18
  9
$DIMEXO
 40
0.0625
  9
$DIMDLI
 40
0.38
  9
$DIMRND
 40
0.0
  9
$DIMDLE
 40
0.0
  9
$DIMEXE
 40
0.18
  9
$DIMTP
 40
0.0
  9
$DIMTM
 40
0.0
  9
$DIMTXT
 40
0.18
  9
$DIMCEN
 40
0.09
  9
$DIMTSZ
 40
0.0
  9
$DIMTOL
 70
     0
  9
$DIMLIM
 70
     0
  9
$DIMTIH
 70
     1
  9
$DIMTOH
 70
     1
  9
$DIMSE1
 70
     0
  9
$DIMSE2
 70
     0
  9
$DIMTAD
 70
     0
  9
$DIMZIN
 70
     0
  9
$DIMBLK
  1

  9
$DIMASO
 70
     1
  9
$DIMSHO
 70
     1
  9
$DIMPOST
  1

  9
$DIMAPOST
  1

  9
$DIMALT
 70
     0
  9
$DIMALTD
 70
     2
  9
$DIMALTF
 40
25.4
  9
$DIMLFAC
 40
1.0
  9
$DIMTOFL
 70
     0
  9
$DIMTVP
 40
0.0
  9
$DIMTIX
 70
     0
  9
$DIMSOXD
 70
     0
  9
$DIMSAH
 70
     0
  9
$DIMBLK1
  1

  9
$DIMBLK2
  1

  9
$DIMSTYLE
  2
Standard
  9
$DIMCLRD
 70
     0
  9
$DIMCLRE
 70
     0
  9
$DIMCLRT
 70
     0
  9
$DIMTFAC
 40
1.0
  9
$DIMGAP
 40
0.09
  9
$DIMJUST
 70
     0
  9
$DIMSD1
 70
     0
  9
$DIMSD2
 70
     0
  9
$DIMTOLJ
 70
     1
  9
$DIMTZIN
 70
     0
  9
$DIMALTZ
 70
     0
  9
$DIMALTTZ
 70
     0
  9
$DIMUPT
 70
     0
  9
$DIMDEC
 70
     4
  9
$DIMTDEC
 70
     4
  9
$DIMALTU
 70
     2
  9
$DIMALTTD
 70
     2
  9
$DIMTXSTY
  7
Standard
  9
$DIMAUNIT
 70
     0
  9
$DIMADEC
 70
     0
  9
$DIMALTRND
 40
0.0
  9
$DIMAZIN
 70
     0
  9
$DIMDSEP
 70
     0
  9
$DIMATFIT
 70
     3
  9
$DIMFRAC
 70
     0
  9
$DIMLDRBLK
  1

  9
$DIMLUNIT
 70
     2
  9
$DIMLWD
 70
     0
  9
$DIMLWE
 70
     0
  9
$DIMTMOVE
 70
     0
  9
$LUNITS
 70
     2
  9
$LUPREC
 70
     4
  9
$SKETCHINC
 40
0.1
  9
$FILLETRAD
 40
0.0
  9
$AUNITS
 70
     0
  9
$AUPREC
 70
     0
  9
$MENU
  1
acad
  9
$ELEVATION
 40
0.0
  9
$PELEVATION
 40
0.0
  9
$THICKNESS
 40
0.0
  9
$LIMCHECK
 70
     0
  9
$CHAMFERA
 40
0.0
  9
$CHAMFERB
 40
0.0
  9
$CHAMFERC
 40
0.0
  9
$CHAMFERD
 40
0.0
  9
$SKPOLY
 70
     0
  9
$TDCREATE
 40
0.000000000
  9
$TDUCREATE
 40
0.000000000
  9
$TDUPDATE
 40
0.000000000
  9
$TDUUPDATE
 40
0.000000000
  9
$TDINDWG
 40
0.0000000000
  9
$TDUSRTIMER
 40
0.0000000000
  9
$USRTIMER
 70
     1
  9
$ANGBASE
 50
0.0
  9
$ANGDIR
 70
     0
  9
$PDMODE
 70
     0
  9
$PDSIZE
 40
0.0
  9
$PLINEWID
 40
0.0
  9
$SPLFRAME
 70
     0
  9
$SPLINETYPE
 70
     6
  9
$SPLINESEGS
 70
     8
  9
$HANDSEED
  5
55
  9
$SURFTAB1
 70
     6
  9
$SURFTAB2
 70
     6
  9
$SURFTYPE
 70
     6
  9
$SURFU
 70
     6
  9
$SURFV
 70
     6
  9
$UCSBASE
  2

  9
$UCSNAME
  2

  9
$UCSORG
 10
0.0
 20
0.0
 30
0.0
  9
$UCSXDIR
 10
1.0
 20
0.0
 30
0.0
  9
$UCSYDIR
 10
0.0
 20
1.0
 30
0.0
  9
$UCSORTHOREF
  2

  9
$UCSORTHOVIEW
 70
     0
  9
$UCSORGTOP
 10
0.0
 20
0.0
 30
0.0
  9
$UCSORGBOTTOM
 10
0.0
 20
0.0
 30
0.0
  9
$UCSORGLEFT
 10
0.0
 20
0.0
 30
0.0
  9
$UCSORGRIGHT
 10
0.0
 20
0.0
 30
0.0
  9
$UCSORGFRONT
 10
0.0
 20
0.0
 30
0.0
  9
$UCSORGBACK
 10
0.0
 20
0.0
 30
0.0
  9
$PUCSBASE
  2

  9
$PUCSNAME
  2

  9
$PUCSORG
 10
0.0
 20
0.0
 30
0.0
  9
$PUCSXDIR
 10
1.0
 20
0.0
 30
0.0
  9
$PUCSYDIR
 10
0.0
 20
1.0
 30
0.0
  9
$PUCSORTHOREF
  2

  9
$PUCSORTHOVIEW
 70
     0
  9
$PUCSORGTOP
 10
0.0
 20
0.0
 30
0.0
  9
$PUCSORGBOTTOM
 10
0.0
 20
0.0
 30
0.0
  9
$PUCSORGLEFT
 10
0.0
 20
0.0
 30
0.0
  9
$PUCSORGRIGHT
 10
0.0
 20
0.0
 30
0.0
  9
$PUCSORGFRONT
 10
0.0
 20
0.0
 30
0.0
  9
$PUCSORGBACK
 10
0.0
 20
0.0
 30
0.0
  9
$USERI1
 70
     0
  9
$USERI2
 70
     0
  9
$USERI3
 70
     0
  9
$USERI4
 70
     0
  9
$USERI5
 70
     0
  9
$USERR1
 40
0.0
  9
$USERR2
 40
0.0
  9
$USERR3
 40
0.0
  9
$USERR4
 40
0.0
  9
$USERR5
 40
0.0
  9
$WORLDVIEW
 70
     1
  9
$SHADEDGE
 70
     3
  9
$SHADEDIF
 70
    70
  9
$TILEMODE
 70
     1
  9
$MAXACTVP
 70
    16
  9
$PINSBASE
 10
0.0
 20
0.0
 30
0.0
  9
$PLIMCHECK
 70
     0
  9
$PEXTMIN
 10
1.000000E+20
 20
1.000000E+20
 30
1.000000E+20
  9
$PEXTMAX
 10
-1.000000E+20
 20
-1.000000E+20
 30
-1.000000E+20
  9
$PLIMMIN
 10
0.0
 20
0.0
  9
$PLIMMAX
 10
12.0
 20
9.0
  9
$UNITMODE
 70
     0
  9
$VISRETAIN
 70
     0
  9
$PLINEGEN
 70
     1
  9
$PSLTSCALE
 70
     0
  9
$TREEDEPTH
 70
  3020
  9
$CMLSTYLE
  2
Standard
  9
$CMLJUST
 70
     0
  9
$CMLSCALE
 40
1.0
  9
$PROXYGRAPHICS
 70
     0
  9
$MEASUREMENT
 70
     0
  9
$CELWEIGHT
370
     0
  9
$ENDCAPS
280
     0
  9
$JOINSTYLE
280
     0
  9
$LWDISPLAY
290
     0
  9
$INSUNITS
 70
     4
  9
$HYPERLINKBASE
  1

  9
$XEDIT
290
     1
  9
$CEPSNTYPE
380
     0
  9
$PSTYLEMODE
290
     1
  9
$FINGERPRINTGUID
  2

  9
$VERSIONGUID
  2

  9
$EXTNAMES
290
     1
  9
$PSVPSCALE
 40
0.0
  0
ENDSEC
  0
SECTION
  2
CLASSES
  0
CLASS
  1
LWPOLYLINE
  2
AcDbPolyline
  3
AutoCAD 2000
 90
    32768
280
     0
281
     1
  0
CLASS
  1
IMAGE
  2
AcDbRasterImage
  3
ISM
 90
    32895
280
     0
281
     1
  0
CLASS
  1
OLE2FRAME
  2
AcDbOle2Frame
  3
AutoCAD 2000
 90
    32768
280
     0
281
     1
  0
CLASS
  1
HATCH
  2
AcDbHatch
  3
AutoCAD 2000
 90
    32768
280
     0
281
     1
  0
CLASS
  1
DICTIONARYVAR
  2
AcDbDictionaryVar
  3
AutoCAD 2000
 90
    32768
280
     0
281
     0
  0
CLASS
  1
RASTERVARIABLES
  2
AcDbRasterVariables
  3
ISM
 90
    32768
280
     0
281
     0
  0
CLASS
  1
IMAGEDEF
  2
AcDbRasterImageDef
  3
ISM
 90
    32768
280
     0
281
     0
  0
CLASS
  1
IMAGEDEF_REACTOR
  2
AcDbRasterImageDefReactor
  3
ISM
 90
    32769
280
     0
281
     0
  0
CLASS
  1
IDBUFFER
  2
AcDbIdBuffer
  3
AutoCAD 2000
 90
    32768
280
     0
281
     0
  0
CLASS
  1
SPATIAL_FILTER
  2
AcDbSpatialFilter
  3
AutoCAD 2000
 90
    32768
280
     0
281
     0
  0
CLASS
  1
XRECORD
  2
AcDbXrecord
  3
AutoCAD 2000
 90
    32768
280
     0
281
     0
  0
CLASS
  1
SORTENTSTABLE
  2
AcDbSortentsTable
  3
AutoCAD 2000
 90
    32768
280
     0
281
     0
  0
CLASS
  1
LAYER_INDEX
  2
AcDbLayerIndex
  3
AutoCAD 2000
 90
    32768
280
     0
281
     0
  0
CLASS
  1
SPATIAL_INDEX
  2
AcDbSpatialIndex
  3
AutoCAD 2000
 90
    32768
280
     0
281
     0
  0
CLASS
  1
OBJECT_PTR
  2
CAseDLPNTableRecord
  3
"ASE-LPNTableRecord"
 90
    32769
280
     0
281
     0
  0
CLASS
  1
LAYOUT
  2
AcDbLayout
  3
AutoCAD 2000
 90
        0
280
     0
281
     0
  0
CLASS
  1
PLOTSETTINGS
  2
AcDbPlotSettings
  3
AutoCAD 2000
 90
    32768
280
     0
281
     0
  0
CLASS
  1
ACDBDICTIONARYWDFLT
  2
AcDbDictionaryWithDefault
  3
AutoCAD 2000
 90
        0
280
     0
281
     0
  0
CLASS
  1
ACDBPLACEHOLDER
  2
AcDbPlaceHolder
  3
AutoCAD 2000
 90
        0
280
     0
281
     0
  0
CLASS
  1
VBA_PROJECT
  2
AcDbVbaProject
  3
acadvba
 90
    32768
280
     0
281
     0
  0
CLASS
  1
WIPEOUT
  2
AcDbWipeout
  3
WipeOut|AutoCAD Express Tool|expresstools@autodesk.com
 90
    32895
280
     0
281
     1
  0
CLASS
  1
WIPEOUTVARIABLES
  2
AcDbWipeoutVariables
  3
WipeOut|AutoCAD Express Tool|expresstools@autodesk.com
 90
        0
280
     0
281
     0
  0
CLASS
  1
RTEXT
  2
RText
  3
RText|AutoCAD Express Tool|expresstools@autodesk.com
 90
    32768
280
     0
281
     1
  0
CLASS
  1
ARCALIGNEDTEXT
  2
AcDbArcAlignedText
  3
ATEXT|AutoCAD Express Tool|expresstools@autodesk.com
 90
    32768
280
     0
281
     1
  0
ENDSEC
  0
SECTION
  2
TABLES
  0
TABLE
  2
VPORT
  5
7
100
AcDbSymbolTable
 70
     1
  0
VPORT
  5
15
100
AcDbSymbolTableRecord
100
AcDbViewportTableRecord
  2
*ACTIVE
 70
     0
 10
0.0
 20
0.0
 11
1.0
 21
1.0
 12
6.591288
 22
4.579184
 13
0.0
 23
0.0
 14
1.0
 24
1.0
 15
0.0
 25
0.0
 16
0.0
 26
0.0
 36
1.0
 17
0.0
 27
0.0
 37
0.0
 40
9.158369
 41
0.688564
 42
50.0
 43
0.0
 44
0.0
 50
0.0
 51
0.0
 71
     0
 72
   100
 73
     1
 74
     1
 75
     0
 76
     0
 77
     0
 78
     0
281
     0
 65
     0
110
0.0
120
0.0
130
0.0
111
1.0
121
0.0
131
0.0
112
0.0
122
1.0
132
0.0
345
0
346
0
 79
     0
146
0.0
  0
ENDTAB
  0
TABLE
  2
LTYPE
  5
4
100
AcDbSymbolTable
 70
     3
  0
LTYPE
  5
11
100
AcDbSymbolTableRecord
100
AcDbLinetypeTableRecord
  2
ByBlock
 70
    64
  3

 72
    65
 73
     0
 40
0.0
  0
LTYPE
  5
12
100
AcDbSymbolTableRecord
100
AcDbLinetypeTableRecord
  2
ByLayer
 70
    64
  3

 72
    65
 73
     0
 40
0.0
  0
LTYPE
  5
13
100
AcDbSymbolTableRecord
100
AcDbLinetypeTableRecord
  2
Continuous
 70
    64
  3
Solid line
 72
    65
 73
     0
 40
0.0
  0
ENDTAB
  0
TABLE
  2
LAYER
  5
2
100
AcDbSymbolTable
 70
     2
  0
LAYER
  5
14
100
AcDbSymbolTableRecord
100
AcDbLayerTableRecord
  2
0
 70
     0
 62
     7
  6
Continuous
290
     1
370
    -3
390
1D
  0
LAYER
  5
24
100
AcDbSymbolTableRecord
100
AcDbLayerTableRecord
  2
RÚteg 1
 70
     0
 62
     7
  6
Continuous
290
     1
370
    -3
390
1F
  0
ENDTAB
  0
TABLE
  2
STYLE
  5
3
100
AcDbSymbolTable
 70
     1
  0
STYLE
  5
17
100
AcDbSymbolTableRecord
100
AcDbTextStyleTableRecord
  2
Standard
 70
     0
 40
0.0
 41
1.0
 50
0.0
 71
     0
 42
0.0
  3
txt
  4

  0
ENDTAB
  0
TABLE
  2
VIEW
  5
5
100
AcDbSymbolTable
 70
     0
  0
ENDTAB
  0
TABLE
  2
UCS
  5
6
100
AcDbSymbolTable
 70
     0
  0
ENDTAB
  0
TABLE
  2
APPID
  5
8
100
AcDbSymbolTable
 70
     1
  0
APPID
  5
16
100
AcDbSymbolTableRecord
100
AcDbRegAppTableRecord
  2
ACAD
 70
     0
  0
ENDTAB
  0
TABLE
  2
DIMSTYLE
  5
9
100
AcDbSymbolTable
 70
     1
100
AcDbDimStyleTable
 71
     0
  0
DIMSTYLE
105
18
100
AcDbSymbolTableRecord
100
AcDbDimStyleTableRecord
  2
Standard
 70
     0
  3

  4

 40
1.0
 41
0.18
 42
0.0625
 43
0.38
 44
0.18
 45
0.0
 46
0.0
 47
0.0
 48
0.0
 71
     0
 72
     0
 73
     1
 74
     1
 75
     0
 76
     0
 77
     0
 78
     0
 79
     0
140
0.18
141
0.09
142
0.0
143
25.4
144
1.0
145
0.0
146
1.0
147
0.09
148
0.0
170
     0
171
     2
172
     0
173
     0
174
     0
175
     0
176
     0
177
     0
178
     0
179
     0
271
     4
272
     4
273
     2
274
     2
275
     0
276
     0
277
     2
278
    46
279
     0
280
     0
281
     0
282
     0
283
     1
284
     0
285
     0
286
     0
288
     0
340
17
341
0
342
0
343
0
344
0
371
    -2
372
    -2
  0
ENDTAB
  0
TABLE
  2
BLOCK_RECORD
  5
1
100
AcDbSymbolTable
 70
     0
  0
BLOCK_RECORD
  5
A
100
AcDbSymbolTableRecord
100
AcDbBlockTableRecord
  2
*MODEL_SPACE
340
20
  0
BLOCK_RECORD
  5
B
100
AcDbSymbolTableRecord
100
AcDbBlockTableRecord
  2
*PAPER_SPACE
340
21
  0
ENDTAB
  0
ENDSEC
  0
SECTION
  2
BLOCKS
  0
BLOCK
  5
D
100
AcDbEntity
  8
0
100
AcDbBlockBegin
  2
*MODEL_SPACE
 70
     0
 10
0.0
 20
0.0
 30
0.0
  3
*MODEL_SPACE
  1

  0
ENDBLK
  5
E
100
AcDbEntity
  8
0
100
AcDbBlockEnd
  0
BLOCK
  5
F
100
AcDbEntity
 67
     1
  8
0
100
AcDbBlockBegin
  2
*PAPER_SPACE
 70
     0
 10
0.0
 20
0.0
 30
0.0
  3
*PAPER_SPACE
  1

  0
ENDBLK
  5
10
100
AcDbEntity
 67
     1
  8
0
100
AcDbBlockEnd
  0
ENDSEC
  0
SECTION
  2
ENTITIES
  0
SPLINE
  5
25
100
AcDbEntity
  8
RÚteg 1
 62
     7
100
AcDbSpline
210
0.0
220
0.0
230
1.0
 70
     1
 71
     3
 72
    52
 73
    48
 74
     0
 42
0.0000000001
 43
0.0000000001
 40
0.0
 40
0.0
 40
0.0
 40
0.0
 40
0.0833333333333333
 40
0.0833333333333333
 40
0.0833333333333333
 40
0.0833333333333333
 40
0.1666666666666667
 40
0.1666666666666667
 40
0.1666666666666667
 40
0.1666666666666667
 40
0.25
 40
0.25
 40
0.25
 40
0.25
 40
0.3333333333333333
 40
0.3333333333333333
 40
0.3333333333333333
 40
0.3333333333333333
 40
0.4166666666666666
 40
0.4166666666666666
 40
0.4166666666666666
 40
0.4166666666666666
 40
0.4999999999999999
 40
0.4999999999999999
 40
0.4999999999999999
 40
0.4999999999999999
 40
0.5833333333333333
 40
0.5833333333333333
 40
0.5833333333333333
 40
0.5833333333333333
 40
0.6666666666666666
 40
0.6666666666666666
 40
0.6666666666666666
 40
0.6666666666666666
 40
0.75
 40
0.75
 40
0.75
 40
0.75
 40
0.8333333333333334
 40
0.8333333333333334
 40
0.8333333333333334
 40
0.8333333333333334
 40
0.9166666666666667
 40
0.9166666666666667
 40
0.9166666666666667
 40
0.9166666666666667
 40
1.0
 40
1.0
 40
1.0
 40
1.0
 10
-54.941299999999998
 20
108.04430000000001
 30
0.0
 10
-38.133400000000002
 20
106.0265
 30
0.0
 10
-25.100000000000001
 20
91.715900000000005
 30
0.0
 10
-25.100000000000001
 20
74.364900000000006
 30
0.0
 10
-25.100000000000001
 20
74.364900000000006
 30
0.0
 10
-25.100000000000001
 20
55.631799999999998
 30
0.0
 10
-40.291899999999998
 20
40.439900000000002
 30
0.0
 10
-59.024999999999999
 20
40.439900000000002
 30
0.0
 10
-59.024999999999999
 20
40.439900000000002
 30
0.0
 10
-77.758099999999999
 20
40.439900000000002
 30
0.0
 10
-92.950000000000003
 20
55.631799999999998
 30
0.0
 10
-92.950000000000003
 20
74.364900000000006
 30
0.0
 10
-92.950000000000003
 20
74.364900000000006
 30
0.0
 10
-92.950000000000003
 20
91.715900000000005
 30
0.0
 10
-79.916600000000003
 20
106.0265
 30
0.0
 10
-63.108699999999999
 20
108.04430000000001
 30
0.0
 10
-63.108699999999999
 20
108.04430000000001
 30
0.0
 10
-63.108699999999999
 20
108.04430000000001
 30
0.0
 10
-63.108699999999999
 20
113.0973
 30
0.0
 10
-63.108699999999999
 20
113.0973
 30
0.0
 10
-63.108699999999999
 20
113.0973
 30
0.0
 10
-63.108699999999999
 20
113.4363
 30
0.0
 10
-62.861899999999999
 20
113.7205
 30
0.0
 10
-62.539099999999998
 20
113.7791
 30
0.0
 10
-62.539099999999998
 20
113.7791
 30
0.0
 10
-62.9771
 20
114.443
 30
0.0
 10
-63.232399999999998
 20
115.238
 30
0.0
 10
-63.232399999999998
 20
116.0926
 30
0.0
 10
-63.232399999999998
 20
116.0926
 30
0.0
 10
-63.232399999999998
 20
118.416
 30
0.0
 10
-61.348300000000002
 20
120.3
 30
0.0
 10
-59.024999999999999
 20
120.3
 30
0.0
 10
-59.024999999999999
 20
120.3
 30
0.0
 10
-56.701700000000002
 20
120.3
 30
0.0
 10
-54.817599999999999
 20
118.416
 30
0.0
 10
-54.817599999999999
 20
116.0926
 30
0.0
 10
-54.817599999999999
 20
116.0926
 30
0.0
 10
-54.817599999999999
 20
115.238
 30
0.0
 10
-55.072899999999997
 20
114.443
 30
0.0
 10
-55.510899999999999
 20
113.7791
 30
0.0
 10
-55.510899999999999
 20
113.7791
 30
0.0
 10
-55.188099999999999
 20
113.7205
 30
0.0
 10
-54.941299999999998
 20
113.4363
 30
0.0
 10
-54.941299999999998
 20
113.0973
 30
0.0
 10
-54.941299999999998
 20
113.0973
 30
0.0
 10
-54.941299999999998
 20
113.0973
 30
0.0
 10
-54.941299999999998
 20
108.04430000000001
 30
0.0
 10
-54.941299999999998
 20
108.04430000000001
 30
0.0
  0
SPLINE
  5
26
100
AcDbEntity
  8
RÚteg 1
 62
     7
100
AcDbSpline
210
0.0
220
0.0
230
1.0
 70
     1
 71
     3
 72
    20
 73
    16
 74
     0
 42
0.0000000001
 43
0.0000000001
 40
0.0
 40
0.0
 40
0.0
 40
0.0
 40
0.25
 40
0.25
 40
0.25
 40
0.25
 40
0.5
 40
0.5
 40
0.5
 40
0.5
 40
0.75
 40
0.75
 40
0.75
 40
0.75
 40
1.0
 40
1.0
 40
1.0
 40
1.0
 10
-59.024999999999999
 20
118.3494
 30
0.0
 10
-57.7789
 20
118.3494
 30
0.0
 10
-56.768300000000004
 20
117.33880000000001
 30
0.0
 10
-56.768300000000004
 20
116.0926
 30
0.0
 10
-56.768300000000004
 20
116.0926
 30
0.0
 10
-56.768300000000004
 20
114.84650000000001
 30
0.0
 10
-57.7789
 20
113.836
 30
0.0
 10
-59.024999999999999
 20
113.836
 30
0.0
 10
-59.024999999999999
 20
113.836
 30
0.0
 10
-60.271099999999997
 20
113.836
 30
0.0
 10
-61.281700000000001
 20
114.84650000000001
 30
0.0
 10
-61.281700000000001
 20
116.0926
 30
0.0
 10
-61.281700000000001
 20
116.0926
 30
0.0
 10
-61.281700000000001
 20
117.33880000000001
 30
0.0
 10
-60.271099999999997
 20
118.3494
 30
0.0
 10
-59.024999999999999
 20
118.3494
 30
0.0
  0
SPLINE
  5
27
100
AcDbEntity
  8
RÚteg 1
 62
     7
100
AcDbSpline
210
0.0
220
0.0
230
1.0
 70
     1
 71
     3
 72
    44
 73
    40
 74
     0
 42
0.0000000001
 43
0.0000000001
 40
0.0
 40
0.0
 40
0.0
 40
0.0
 40
0.1
 40
0.1
 40
0.1
 40
0.1
 40
0.2
 40
0.2
 40
0.2
 40
0.2
 40
0.3
 40
0.3
 40
0.3
 40
0.3
 40
0.4
 40
0.4
 40
0.4
 40
0.4
 40
0.5
 40
0.5
 40
0.5
 40
0.5
 40
0.6
 40
0.6
 40
0.6
 40
0.6
 40
0.7
 40
0.7
 40
0.7
 40
0.7
 40
0.7999999999999999
 40
0.7999999999999999
 40
0.7999999999999999
 40
0.7999999999999999
 40
0.8999999999999999
 40
0.8999999999999999
 40
0.8999999999999999
 40
0.8999999999999999
 40
1.0
 40
1.0
 40
1.0
 40
1.0
 10
-59.024999999999999
 20
80.821399999999997
 30
0.0
 10
-59.024999999999999
 20
80.821399999999997
 30
0.0
 10
-57.429699999999997
 20
75.879000000000005
 30
0.0
 10
-57.429699999999997
 20
75.879000000000005
 30
0.0
 10
-57.429699999999997
 20
75.879000000000005
 30
0.0
 10
-57.429699999999997
 20
75.879000000000005
 30
0.0
 10
-52.2363
 20
75.888999999999996
 30
0.0
 10
-52.2363
 20
75.888999999999996
 30
0.0
 10
-52.2363
 20
75.888999999999996
 30
0.0
 10
-52.2363
 20
75.888999999999996
 30
0.0
 10
-56.4437
 20
72.844499999999996
 30
0.0
 10
-56.4437
 20
72.844499999999996
 30
0.0
 10
-56.4437
 20
72.844499999999996
 30
0.0
 10
-56.4437
 20
72.844499999999996
 30
0.0
 10
-54.829500000000003
 20
67.9084
 30
0.0
 10
-54.829500000000003
 20
67.9084
 30
0.0
 10
-54.829500000000003
 20
67.9084
 30
0.0
 10
-54.829500000000003
 20
67.9084
 30
0.0
 10
-59.024999999999999
 20
70.969099999999997
 30
0.0
 10
-59.024999999999999
 20
70.969099999999997
 30
0.0
 10
-59.024999999999999
 20
70.969099999999997
 30
0.0
 10
-59.024999999999999
 20
70.969099999999997
 30
0.0
 10
-63.220599999999997
 20
67.9084
 30
0.0
 10
-63.220599999999997
 20
67.9084
 30
0.0
 10
-63.220599999999997
 20
67.9084
 30
0.0
 10
-63.220599999999997
 20
67.9084
 30
0.0
 10
-61.606400000000001
 20
72.844499999999996
 30
0.0
 10
-61.606400000000001
 20
72.844499999999996
 30
0.0
 10
-61.606400000000001
 20
72.844499999999996
 30
0.0
 10
-61.606400000000001
 20
72.844499999999996
 30
0.0
 10
-65.813699999999997
 20
75.888999999999996
 30
0.0
 10
-65.813699999999997
 20
75.888999999999996
 30
0.0
 10
-65.813699999999997
 20
75.888999999999996
 30
0.0
 10
-65.813699999999997
 20
75.888999999999996
 30
0.0
 10
-60.6203
 20
75.879000000000005
 30
0.0
 10
-60.6203
 20
75.879000000000005
 30
0.0
 10
-60.6203
 20
75.879000000000005
 30
0.0
 10
-60.6203
 20
75.879000000000005
 30
0.0
 10
-59.024999999999999
 20
80.821399999999997
 30
0.0
 10
-59.024999999999999
 20
80.821399999999997
 30
0.0
  0
SPLINE
  5
28
100
AcDbEntity
  8
RÚteg 1
 62
     7
100
AcDbSpline
210
0.0
220
0.0
230
1.0
 70
     1
 71
     3
 72
    52
 73
    48
 74
     0
 42
0.0000000001
 43
0.0000000001
 40
0.0
 40
0.0
 40
0.0
 40
0.0
 40
0.0833333333333333
 40
0.0833333333333333
 40
0.0833333333333333
 40
0.0833333333333333
 40
0.1666666666666667
 40
0.1666666666666667
 40
0.1666666666666667
 40
0.1666666666666667
 40
0.25
 40
0.25
 40
0.25
 40
0.25
 40
0.3333333333333333
 40
0.3333333333333333
 40
0.3333333333333333
 40
0.3333333333333333
 40
0.4166666666666666
 40
0.4166666666666666
 40
0.4166666666666666
 40
0.4166666666666666
 40
0.4999999999999999
 40
0.4999999999999999
 40
0.4999999999999999
 40
0.4999999999999999
 40
0.5833333333333333
 40
0.5833333333333333
 40
0.5833333333333333
 40
0.5833333333333333
 40
0.6666666666666666
 40
0.6666666666666666
 40
0.6666666666666666
 40
0.6666666666666666
 40
0.75
 40
0.75
 40
0.75
 40
0.75
 40
0.8333333333333334
 40
0.8333333333333334
 40
0.8333333333333334
 40
0.8333333333333334
 40
0.9166666666666667
 40
0.9166666666666667
 40
0.9166666666666667
 40
0.9166666666666667
 40
1.0
 40
1.0
 40
1.0
 40
1.0
 10
-46.830100000000002
 20
57.724299999999999
 30
0.0
 10
-47.789499999999997
 20
58.683799999999998
 30
0.0
 10
-47.963500000000003
 20
58.798699999999997
 30
0.0
 10
-48.641500000000001
 20
60.087600000000002
 30
0.0
 10
-48.641500000000001
 20
60.087600000000002
 30
0.0
 10
-49.1111
 20
60.980200000000004
 30
0.0
 10
-49.599200000000003
 20
61.9512
 30
0.0
 10
-50.119599999999998
 20
62.784399999999998
 30
0.0
 10
-50.119599999999998
 20
62.784399999999998
 30
0.0
 10
-50.556899999999999
 20
63.4848
 30
0.0
 10
-53.125300000000003
 20
67.587000000000003
 30
0.0
 10
-53.227499999999999
 20
68.025499999999994
 30
0.0
 10
-53.227499999999999
 20
68.025499999999994
 30
0.0
 10
-53.227499999999999
 20
68.025499999999994
 30
0.0
 10
-50.521700000000003
 20
68.025499999999994
 30
0.0
 10
-50.521700000000003
 20
68.025499999999994
 30
0.0
 10
-50.521700000000003
 20
68.025499999999994
 30
0.0
 10
-50.334600000000002
 20
68.025499999999994
 30
0.0
 10
-47.928899999999999
 20
65.606700000000004
 30
0.0
 10
-47.692100000000003
 20
65.288899999999998
 30
0.0
 10
-47.692100000000003
 20
65.288899999999998
 30
0.0
 10
-46.820799999999998
 20
64.119200000000006
 30
0.0
 10
-46.136000000000003
 20
63.375399999999999
 30
0.0
 10
-45.129300000000001
 20
62.3628
 30
0.0
 10
-45.129300000000001
 20
62.3628
 30
0.0
 10
-44.220199999999998
 20
61.448399999999999
 30
0.0
 10
-43.202199999999998
 20
60.655500000000004
 30
0.0
 10
-42.270200000000003
 20
59.7331
 30
0.0
 10
-42.270200000000003
 20
59.7331
 30
0.0
 10
-41.731299999999997
 20
59.1995
 30
0.0
 10
-39.9071
 20
57.471800000000002
 30
0.0
 10
-39.389200000000002
 20
57.1252
 30
0.0
 10
-39.389200000000002
 20
57.1252
 30
0.0
 10
-39.389200000000002
 20
57.1252
 30
0.0
 10
-32.992800000000003
 20
57.926200000000001
 30
0.0
 10
-32.992800000000003
 20
57.926200000000001
 30
0.0
 10
-32.992800000000003
 20
57.926200000000001
 30
0.0
 10
-34.766199999999998
 20
55.124200000000002
 30
0.0
 10
-36.978900000000003
 20
52.627899999999997
 30
0.0
 10
-39.534999999999997
 20
50.534999999999997
 30
0.0
 10
-39.534999999999997
 20
50.534999999999997
 30
0.0
 10
-40.578000000000003
 20
51.616199999999999
 30
0.0
 10
-42.031999999999996
 20
53.003
 30
0.0
 10
-42.616900000000001
 20
53.588200000000001
 30
0.0
 10
-42.616900000000001
 20
53.588200000000001
 30
0.0
 10
-44.035800000000002
 20
55.006999999999998
 30
0.0
 10
-45.424599999999998
 20
56.3187
 30
0.0
 10
-46.830100000000002
 20
57.724299999999999
 30
0.0
  0
SPLINE
  5
29
100
AcDbEntity
  8
RÚteg 1
 62
     7
100
AcDbSpline
210
0.0
220
0.0
230
1.0
 70
     1
 71
     3
 72
    56
 73
    52
 74
     0
 42
0.0000000001
 43
0.0000000001
 40
0.0
 40
0.0
 40
0.0
 40
0.0
 40
0.0769230769230769
 40
0.0769230769230769
 40
0.0769230769230769
 40
0.0769230769230769
 40
0.1538461538461539
 40
0.1538461538461539
 40
0.1538461538461539
 40
0.1538461538461539
 40
0.2307692307692308
 40
0.2307692307692308
 40
0.2307692307692308
 40
0.2307692307692308
 40
0.3076923076923077
 40
0.3076923076923077
 40
0.3076923076923077
 40
0.3076923076923077
 40
0.3846153846153846
 40
0.3846153846153846
 40
0.3846153846153846
 40
0.3846153846153846
 40
0.4615384615384616
 40
0.4615384615384616
 40
0.4615384615384616
 40
0.4615384615384616
 40
0.5384615384615386
 40
0.5384615384615386
 40
0.5384615384615386
 40
0.5384615384615386
 40
0.6153846153846154
 40
0.6153846153846154
 40
0.6153846153846154
 40
0.6153846153846154
 40
0.6923076923076923
 40
0.6923076923076923
 40
0.6923076923076923
 40
0.6923076923076923
 40
0.7692307692307692
 40
0.7692307692307692
 40
0.7692307692307692
 40
0.7692307692307692
 40
0.846153846153846
 40
0.846153846153846
 40
0.846153846153846
 40
0.846153846153846
 40
0.9230769230769229
 40
0.9230769230769229
 40
0.9230769230769229
 40
0.9230769230769229
 40
1.0
 40
1.0
 40
1.0
 40
1.0
 10
-31.8001
 20
59.983800000000002
 30
0.0
 10
-31.8001
 20
59.983800000000002
 30
0.0
 10
-34.308
 20
66.006699999999995
 30
0.0
 10
-34.308
 20
66.006699999999995
 30
0.0
 10
-34.308
 20
66.006699999999995
 30
0.0
 10
-34.990299999999998
 20
66.074100000000001
 30
0.0
 10
-37.861899999999999
 20
67.134200000000007
 30
0.0
 10
-38.708399999999997
 20
67.392200000000003
 30
0.0
 10
-38.708399999999997
 20
67.392200000000003
 30
0.0
 10
-40.127400000000002
 20
67.825000000000003
 30
0.0
 10
-41.660800000000002
 20
68.4221
 30
0.0
 10
-43.105899999999998
 20
68.715599999999995
 30
0.0
 10
-43.105899999999998
 20
68.715599999999995
 30
0.0
 10
-44.8508
 20
69.069999999999993
 30
0.0
 10
-46.226300000000002
 20
69.193200000000004
 30
0.0
 10
-47.860100000000003
 20
69.682199999999995
 30
0.0
 10
-47.860100000000003
 20
69.682199999999995
 30
0.0
 10
-49.1083
 20
70.055899999999994
 30
0.0
 10
-49.024900000000002
 20
69.736999999999995
 30
0.0
 10
-49.6556
 20
70.746899999999997
 30
0.0
 10
-49.6556
 20
70.746899999999997
 30
0.0
 10
-49.870399999999997
 20
71.090999999999994
 30
0.0
 10
-50.599800000000002
 20
72.258200000000002
 30
0.0
 10
-50.676200000000001
 20
72.586799999999997
 30
0.0
 10
-50.676200000000001
 20
72.586799999999997
 30
0.0
 10
-50.676200000000001
 20
72.586799999999997
 30
0.0
 10
-42.0184
 20
72.4559
 30
0.0
 10
-42.0184
 20
72.4559
 30
0.0
 10
-42.0184
 20
72.4559
 30
0.0
 10
-42.0184
 20
72.4559
 30
0.0
 10
-40.0077
 20
72.509399999999999
 30
0.0
 10
-40.0077
 20
72.509399999999999
 30
0.0
 10
-40.0077
 20
72.509399999999999
 30
0.0
 10
-39.699399999999997
 20
72.509399999999999
 30
0.0
 10
-37.252000000000002
 20
71.761899999999997
 30
0.0
 10
-36.808700000000002
 20
71.611099999999993
 30
0.0
 10
-36.808700000000002
 20
71.611099999999993
 30
0.0
 10
-35.870800000000003
 20
71.291600000000003
 30
0.0
 10
-34.588900000000002
 20
70.920699999999997
 30
0.0
 10
-33.597200000000001
 20
70.725300000000004
 30
0.0
 10
-33.597200000000001
 20
70.725300000000004
 30
0.0
 10
-32.526400000000002
 20
70.514200000000002
 30
0.0
 10
-31.414300000000001
 20
70.184600000000003
 30
0.0
 10
-30.313199999999998
 20
69.912199999999999
 30
0.0
 10
-30.313199999999998
 20
69.912199999999999
 30
0.0
 10
-29.872699999999998
 20
69.803200000000004
 30
0.0
 10
-29.245799999999999
 20
69.611000000000004
 30
0.0
 10
-28.631900000000002
 20
69.441199999999995
 30
0.0
 10
-28.631900000000002
 20
69.441199999999995
 30
0.0
 10
-29.1739
 20
66.075199999999995
 30
0.0
 10
-30.260300000000001
 20
62.891399999999997
 30
0.0
 10
-31.8001
 20
59.983800000000002
 30
0.0
  0
SPLINE
  5
2A
100
AcDbEntity
  8
RÚteg 1
 62
     7
100
AcDbSpline
210
0.0
220
0.0
230
1.0
 70
     1
 71
     3
 72
    20
 73
    16
 74
     0
 42
0.0000000001
 43
0.0000000001
 40
0.0
 40
0.0
 40
0.0
 40
0.0
 40
0.25
 40
0.25
 40
0.25
 40
0.25
 40
0.5
 40
0.5
 40
0.5
 40
0.5
 40
0.75
 40
0.75
 40
0.75
 40
0.75
 40
1.0
 40
1.0
 40
1.0
 40
1.0
 10
-28.4315
 20
70.916799999999995
 30
0.0
 10
-28.4315
 20
70.916799999999995
 30
0.0
 10
-30.970300000000002
 20
74.359099999999998
 30
0.0
 10
-30.970300000000002
 20
74.359099999999998
 30
0.0
 10
-30.970300000000002
 20
74.359099999999998
 30
0.0
 10
-30.970300000000002
 20
74.359099999999998
 30
0.0
 10
-28.427900000000001
 20
77.781700000000001
 30
0.0
 10
-28.427900000000001
 20
77.781700000000001
 30
0.0
 10
-28.427900000000001
 20
77.781700000000001
 30
0.0
 10
-28.303899999999999
 20
76.659400000000005
 30
0.0
 10
-28.238099999999999
 20
75.519900000000007
 30
0.0
 10
-28.238099999999999
 20
74.364900000000006
 30
0.0
 10
-28.238099999999999
 20
74.364900000000006
 30
0.0
 10
-28.238099999999999
 20
73.199100000000001
 30
0.0
 10
-28.3047
 20
72.0488
 30
0.0
 10
-28.4315
 20
70.916799999999995
 30
0.0
  0
SPLINE
  5
2B
100
AcDbEntity
  8
RÚteg 1
 62
     7
100
AcDbSpline
210
0.0
220
0.0
230
1.0
 70
     1
 71
     3
 72
    60
 73
    56
 74
     0
 42
0.0000000001
 43
0.0000000001
 40
0.0
 40
0.0
 40
0.0
 40
0.0
 40
0.0714285714285714
 40
0.0714285714285714
 40
0.0714285714285714
 40
0.0714285714285714
 40
0.1428571428571429
 40
0.1428571428571429
 40
0.1428571428571429
 40
0.1428571428571429
 40
0.2142857142857143
 40
0.2142857142857143
 40
0.2142857142857143
 40
0.2142857142857143
 40
0.2857142857142857
 40
0.2857142857142857
 40
0.2857142857142857
 40
0.2857142857142857
 40
0.3571428571428571
 40
0.3571428571428571
 40
0.3571428571428571
 40
0.3571428571428571
 40
0.4285714285714285
 40
0.4285714285714285
 40
0.4285714285714285
 40
0.4285714285714285
 40
0.4999999999999999
 40
0.4999999999999999
 40
0.4999999999999999
 40
0.4999999999999999
 40
0.5714285714285713
 40
0.5714285714285713
 40
0.5714285714285713
 40
0.5714285714285713
 40
0.6428571428571427
 40
0.6428571428571427
 40
0.6428571428571427
 40
0.6428571428571427
 40
0.7142857142857141
 40
0.7142857142857141
 40
0.7142857142857141
 40
0.7142857142857141
 40
0.7857142857142855
 40
0.7857142857142855
 40
0.7857142857142855
 40
0.7857142857142855
 40
0.8571428571428569
 40
0.8571428571428569
 40
0.8571428571428569
 40
0.8571428571428569
 40
0.9285714285714283
 40
0.9285714285714283
 40
0.9285714285714283
 40
0.9285714285714283
 40
1.0
 40
1.0
 40
1.0
 40
1.0
 10
-28.631799999999998
 20
79.287599999999998
 30
0.0
 10
-29.269600000000001
 20
79.115099999999998
 30
0.0
 10
-29.9194
 20
78.915099999999995
 30
0.0
 10
-30.3751
 20
78.802300000000002
 30
0.0
 10
-30.3751
 20
78.802300000000002
 30
0.0
 10
-31.483499999999999
 20
78.528000000000006
 30
0.0
 10
-32.570099999999996
 20
78.206800000000001
 30
0.0
 10
-33.6629
 20
77.992800000000003
 30
0.0
 10
-33.6629
 20
77.992800000000003
 30
0.0
 10
-34.723500000000001
 20
77.785200000000003
 30
0.0
 10
-35.832099999999997
 20
77.393500000000003
 30
0.0
 10
-36.8688
 20
77.101299999999995
 30
0.0
 10
-36.8688
 20
77.101299999999995
 30
0.0
 10
-37.482500000000002
 20
76.928200000000004
 30
0.0
 10
-39.5533
 20
76.220299999999995
 30
0.0
 10
-40.0077
 20
76.220299999999995
 30
0.0
 10
-40.0077
 20
76.220299999999995
 30
0.0
 10
-40.0077
 20
76.220299999999995
 30
0.0
 10
-42.017800000000001
 20
76.220299999999995
 30
0.0
 10
-42.017800000000001
 20
76.220299999999995
 30
0.0
 10
-42.017800000000001
 20
76.220299999999995
 30
0.0
 10
-42.017800000000001
 20
76.220299999999995
 30
0.0
 10
-50.676499999999997
 20
76.161199999999994
 30
0.0
 10
-50.676499999999997
 20
76.161199999999994
 30
0.0
 10
-50.676499999999997
 20
76.161199999999994
 30
0.0
 10
-50.592799999999997
 20
76.501300000000001
 30
0.0
 10
-49.857999999999997
 20
77.645200000000003
 30
0.0
 10
-49.624899999999997
 20
78.0291
 30
0.0
 10
-49.624899999999997
 20
78.0291
 30
0.0
 10
-49.094700000000003
 20
78.903300000000002
 30
0.0
 10
-48.865000000000002
 20
78.791300000000007
 30
0.0
 10
-47.798999999999999
 20
79.063999999999993
 30
0.0
 10
-47.798999999999999
 20
79.063999999999993
 30
0.0
 10
-47.034799999999997
 20
79.259399999999999
 30
0.0
 10
-46.292499999999997
 20
79.512200000000007
 30
0.0
 10
-45.516399999999997
 20
79.641599999999997
 30
0.0
 10
-45.516399999999997
 20
79.641599999999997
 30
0.0
 10
-44.736600000000003
 20
79.771299999999997
 30
0.0
 10
-43.857100000000003
 20
79.8626
 30
0.0
 10
-43.041200000000003
 20
80.027000000000001
 30
0.0
 10
-43.041200000000003
 20
80.027000000000001
 30
0.0
 10
-41.591900000000003
 20
80.319199999999995
 30
0.0
 10
-40.115000000000002
 20
80.944199999999995
 30
0.0
 10
-38.647100000000002
 20
81.3536
 30
0.0
 10
-38.647100000000002
 20
81.3536
 30
0.0
 10
-37.643999999999998
 20
81.633099999999999
 30
0.0
 10
-35.109000000000002
 20
82.645700000000005
 30
0.0
 10
-34.286900000000003
 20
82.714200000000005
 30
0.0
 10
-34.286900000000003
 20
82.714200000000005
 30
0.0
 10
-34.286900000000003
 20
82.714200000000005
 30
0.0
 10
-31.773900000000001
 20
88.696299999999994
 30
0.0
 10
-31.773900000000001
 20
88.696299999999994
 30
0.0
 10
-31.773900000000001
 20
88.696299999999994
 30
0.0
 10
-30.248200000000001
 20
85.801699999999997
 30
0.0
 10
-29.170100000000001
 20
82.635000000000005
 30
0.0
 10
-28.631799999999998
 20
79.287599999999998
 30
0.0
  0
SPLINE
  5
2C
100
AcDbEntity
  8
RÚteg 1
 62
     7
100
AcDbSpline
210
0.0
220
0.0
230
1.0
 70
     1
 71
     3
 72
    60
 73
    56
 74
     0
 42
0.0000000001
 43
0.0000000001
 40
0.0
 40
0.0
 40
0.0
 40
0.0
 40
0.0714285714285714
 40
0.0714285714285714
 40
0.0714285714285714
 40
0.0714285714285714
 40
0.1428571428571429
 40
0.1428571428571429
 40
0.1428571428571429
 40
0.1428571428571429
 40
0.2142857142857143
 40
0.2142857142857143
 40
0.2142857142857143
 40
0.2142857142857143
 40
0.2857142857142857
 40
0.2857142857142857
 40
0.2857142857142857
 40
0.2857142857142857
 40
0.3571428571428571
 40
0.3571428571428571
 40
0.3571428571428571
 40
0.3571428571428571
 40
0.4285714285714285
 40
0.4285714285714285
 40
0.4285714285714285
 40
0.4285714285714285
 40
0.4999999999999999
 40
0.4999999999999999
 40
0.4999999999999999
 40
0.4999999999999999
 40
0.5714285714285713
 40
0.5714285714285713
 40
0.5714285714285713
 40
0.5714285714285713
 40
0.6428571428571427
 40
0.6428571428571427
 40
0.6428571428571427
 40
0.6428571428571427
 40
0.7142857142857141
 40
0.7142857142857141
 40
0.7142857142857141
 40
0.7142857142857141
 40
0.7857142857142855
 40
0.7857142857142855
 40
0.7857142857142855
 40
0.7857142857142855
 40
0.8571428571428569
 40
0.8571428571428569
 40
0.8571428571428569
 40
0.8571428571428569
 40
0.9285714285714283
 40
0.9285714285714283
 40
0.9285714285714283
 40
0.9285714285714283
 40
1.0
 40
1.0
 40
1.0
 40
1.0
 10
-33.001800000000003
 20
90.817800000000005
 30
0.0
 10
-33.001800000000003
 20
90.817800000000005
 30
0.0
 10
-39.3919
 20
91.583500000000001
 30
0.0
 10
-39.3919
 20
91.583500000000001
 30
0.0
 10
-39.3919
 20
91.583500000000001
 30
0.0
 10
-39.878500000000003
 20
91.277000000000001
 30
0.0
 10
-41.802
 20
89.467699999999994
 30
0.0
 10
-42.308399999999999
 20
88.957499999999996
 30
0.0
 10
-42.308399999999999
 20
88.957499999999996
 30
0.0
 10
-43.229199999999999
 20
88.029799999999994
 30
0.0
 10
-44.253700000000002
 20
87.246099999999998
 30
0.0
 10
-45.168100000000003
 20
86.328500000000005
 30
0.0
 10
-45.168100000000003
 20
86.328500000000005
 30
0.0
 10
-46.212000000000003
 20
85.280900000000003
 30
0.0
 10
-46.8095
 20
84.562799999999996
 30
0.0
 10
-47.7241
 20
83.395700000000005
 30
0.0
 10
-47.7241
 20
83.395700000000005
 30
0.0
 10
-47.963799999999999
 20
83.089500000000001
 30
0.0
 10
-50.336500000000001
 20
80.704099999999997
 30
0.0
 10
-50.521700000000003
 20
80.704099999999997
 30
0.0
 10
-50.521700000000003
 20
80.704099999999997
 30
0.0
 10
-50.521700000000003
 20
80.704099999999997
 30
0.0
 10
-53.227499999999999
 20
80.704099999999997
 30
0.0
 10
-53.227499999999999
 20
80.704099999999997
 30
0.0
 10
-53.227499999999999
 20
80.704099999999997
 30
0.0
 10
-53.113700000000001
 20
81.1922
 30
0.0
 10
-50.556399999999996
 20
85.221500000000006
 30
0.0
 10
-50.088799999999999
 20
85.992099999999994
 30
0.0
 10
-50.088799999999999
 20
85.992099999999994
 30
0.0
 10
-49.550199999999997
 20
86.878900000000002
 30
0.0
 10
-49.123100000000001
 20
87.775599999999997
 30
0.0
 10
-48.615699999999997
 20
88.6935
 30
0.0
 10
-48.615699999999997
 20
88.6935
 30
0.0
 10
-48.456800000000001
 20
88.980699999999999
 30
0.0
 10
-48.024799999999999
 20
89.828100000000006
 30
0.0
 10
-47.863500000000002
 20
90.028800000000004
 30
0.0
 10
-47.863500000000002
 20
90.028800000000004
 30
0.0
 10
-47.707599999999999
 20
90.223200000000006
 30
0.0
 10
-47.0334
 20
90.802300000000002
 30
0.0
 10
-46.791699999999999
 20
91.044300000000007
 30
0.0
 10
-46.791699999999999
 20
91.044300000000007
 30
0.0
 10
-46.095300000000002
 20
91.740799999999993
 30
0.0
 10
-45.323099999999997
 20
92.3626
 30
0.0
 10
-44.625599999999999
 20
93.052999999999997
 30
0.0
 10
-44.625599999999999
 20
93.052999999999997
 30
0.0
 10
-43.899500000000003
 20
93.771900000000002
 30
0.0
 10
-43.294400000000003
 20
94.463800000000006
 30
0.0
 10
-42.578099999999999
 20
95.180000000000007
 30
0.0
 10
-42.578099999999999
 20
95.180000000000007
 30
0.0
 10
-42.001600000000003
 20
95.756399999999999
 30
0.0
 10
-40.568100000000001
 20
97.124899999999997
 30
0.0
 10
-39.535400000000003
 20
98.195099999999996
 30
0.0
 10
-39.535400000000003
 20
98.195099999999996
 30
0.0
 10
-36.983699999999999
 20
96.1053
 30
0.0
 10
-34.773600000000002
 20
93.614199999999997
 30
0.0
 10
-33.001800000000003
 20
90.817800000000005
 30
0.0
  0
SPLINE
  5
2D
100
AcDbEntity
  8
RÚteg 1
 62
     7
100
AcDbSpline
210
0.0
220
0.0
230
1.0
 70
     1
 71
     3
 72
    16
 73
    12
 74
     0
 42
0.0000000001
 43
0.0000000001
 40
0.0
 40
0.0
 40
0.0
 40
0.0
 40
0.3333333333333333
 40
0.3333333333333333
 40
0.3333333333333333
 40
0.3333333333333333
 40
0.6666666666666666
 40
0.6666666666666666
 40
0.6666666666666666
 40
0.6666666666666666
 40
1.0
 40
1.0
 40
1.0
 40
1.0
 10
-40.764800000000001
 20
99.150700000000001
 30
0.0
 10
-40.764800000000001
 20
99.150700000000001
 30
0.0
 10
-44.874400000000001
 20
98.6828
 30
0.0
 10
-44.874400000000001
 20
98.6828
 30
0.0
 10
-44.874400000000001
 20
98.6828
 30
0.0
 10
-45.140000000000001
 20
98.674099999999996
 30
0.0
 10
-45.951999999999998
 20
100.8301
 30
0.0
 10
-46.651499999999999
 20
102.5609
 30
0.0
 10
-46.651499999999999
 20
102.5609
 30
0.0
 10
-44.557200000000002
 20
101.64
 30
0.0
 10
-42.584299999999999
 20
100.4935
 30
0.0
 10
-40.764800000000001
 20
99.150700000000001
 30
0.0
  0
SPLINE
  5
2E
100
AcDbEntity
  8
RÚteg 1
 62
     7
100
AcDbSpline
210
0.0
220
0.0
230
1.0
 70
     1
 71
     3
 72
    48
 73
    44
 74
     0
 42
0.0000000001
 43
0.0000000001
 40
0.0
 40
0.0
 40
0.0
 40
0.0
 40
0.0909090909090909
 40
0.0909090909090909
 40
0.0909090909090909
 40
0.0909090909090909
 40
0.1818181818181818
 40
0.1818181818181818
 40
0.1818181818181818
 40
0.1818181818181818
 40
0.2727272727272727
 40
0.2727272727272727
 40
0.2727272727272727
 40
0.2727272727272727
 40
0.3636363636363637
 40
0.3636363636363637
 40
0.3636363636363637
 40
0.3636363636363637
 40
0.4545454545454546
 40
0.4545454545454546
 40
0.4545454545454546
 40
0.4545454545454546
 40
0.5454545454545455
 40
0.5454545454545455
 40
0.5454545454545455
 40
0.5454545454545455
 40
0.6363636363636365
 40
0.6363636363636365
 40
0.6363636363636365
 40
0.6363636363636365
 40
0.7272727272727274
 40
0.7272727272727274
 40
0.7272727272727274
 40
0.7272727272727274
 40
0.8181818181818183
 40
0.8181818181818183
 40
0.8181818181818183
 40
0.8181818181818183
 40
0.9090909090909093
 40
0.9090909090909093
 40
0.9090909090909093
 40
0.9090909090909093
 40
1.0
 40
1.0
 40
1.0
 40
1.0
 10
-48.031199999999998
 20
103.1275
 30
0.0
 10
-48.212000000000003
 20
102.4949
 30
0.0
 10
-48.409500000000001
 20
101.8578
 30
0.0
 10
-48.500799999999998
 20
101.5665
 30
0.0
 10
-48.500799999999998
 20
101.5665
 30
0.0
 10
-48.805399999999999
 20
100.59229999999999
 30
0.0
 10
-49.097700000000003
 20
99.558700000000002
 30
0.0
 10
-49.362099999999998
 20
98.5625
 30
0.0
 10
-49.362099999999998
 20
98.5625
 30
0.0
 10
-49.883000000000003
 20
96.599599999999995
 30
0.0
 10
-50.512
 20
94.453999999999994
 30
0.0
 10
-50.913899999999998
 20
92.383300000000006
 30
0.0
 10
-50.913899999999998
 20
92.383300000000006
 30
0.0
 10
-51.118299999999998
 20
91.3292
 30
0.0
 10
-53.105899999999998
 20
88.596299999999999
 30
0.0
 10
-53.6922
 20
87.431100000000001
 30
0.0
 10
-53.6922
 20
87.431100000000001
 30
0.0
 10
-53.982799999999997
 20
86.854399999999998
 30
0.0
 10
-56.257899999999999
 20
82.640799999999999
 30
0.0
 10
-56.474499999999999
 20
82.482200000000006
 30
0.0
 10
-56.474499999999999
 20
82.482200000000006
 30
0.0
 10
-56.474499999999999
 20
82.482200000000006
 30
0.0
 10
-57.858400000000003
 20
84.960599999999999
 30
0.0
 10
-57.858400000000003
 20
84.960599999999999
 30
0.0
 10
-57.858400000000003
 20
84.960599999999999
 30
0.0
 10
-57.640599999999999
 20
85.9238
 30
0.0
 10
-57.180399999999999
 20
87.818600000000004
 30
0.0
 10
-56.8307
 20
88.713800000000006
 30
0.0
 10
-56.8307
 20
88.713800000000006
 30
0.0
 10
-56.339399999999998
 20
89.971000000000004
 30
0.0
 10
-55.974699999999999
 20
90.818399999999997
 30
0.0
 10
-55.623699999999999
 20
92.2226
 30
0.0
 10
-55.623699999999999
 20
92.2226
 30
0.0
 10
-54.989899999999999
 20
94.756900000000002
 30
0.0
 10
-54.518999999999998
 20
97.3977
 30
0.0
 10
-53.923200000000001
 20
99.953800000000001
 30
0.0
 10
-53.923200000000001
 20
99.953800000000001
 30
0.0
 10
-53.923200000000001
 20
99.953800000000001
 30
0.0
 10
-57.813299999999998
 20
105.1259
 30
0.0
 10
-57.813299999999998
 20
105.1259
 30
0.0
 10
-57.813299999999998
 20
105.1259
 30
0.0
 10
-54.378399999999999
 20
104.99250000000001
 30
0.0
 10
-51.087699999999998
 20
104.2976
 30
0.0
 10
-48.031199999999998
 20
103.1275
 30
0.0
  0
SPLINE
  5
2F
100
AcDbEntity
  8
RÚteg 1
 62
     7
100
AcDbSpline
210
0.0
220
0.0
230
1.0
 70
     1
 71
     3
 72
    52
 73
    48
 74
     0
 42
0.0000000001
 43
0.0000000001
 40
0.0
 40
0.0
 40
0.0
 40
0.0
 40
0.0833333333333333
 40
0.0833333333333333
 40
0.0833333333333333
 40
0.0833333333333333
 40
0.1666666666666667
 40
0.1666666666666667
 40
0.1666666666666667
 40
0.1666666666666667
 40
0.25
 40
0.25
 40
0.25
 40
0.25
 40
0.3333333333333333
 40
0.3333333333333333
 40
0.3333333333333333
 40
0.3333333333333333
 40
0.4166666666666666
 40
0.4166666666666666
 40
0.4166666666666666
 40
0.4166666666666666
 40
0.4999999999999999
 40
0.4999999999999999
 40
0.4999999999999999
 40
0.4999999999999999
 40
0.5833333333333333
 40
0.5833333333333333
 40
0.5833333333333333
 40
0.5833333333333333
 40
0.6666666666666666
 40
0.6666666666666666
 40
0.6666666666666666
 40
0.6666666666666666
 40
0.75
 40
0.75
 40
0.75
 40
0.75
 40
0.8333333333333334
 40
0.8333333333333334
 40
0.8333333333333334
 40
0.8333333333333334
 40
0.9166666666666667
 40
0.9166666666666667
 40
0.9166666666666667
 40
0.9166666666666667
 40
1.0
 40
1.0
 40
1.0
 40
1.0
 10
-60.194200000000002
 20
105.1275
 30
0.0
 10
-60.194200000000002
 20
105.1275
 30
0.0
 10
-64.128100000000003
 20
99.953800000000001
 30
0.0
 10
-64.128100000000003
 20
99.953800000000001
 30
0.0
 10
-64.128100000000003
 20
99.953800000000001
 30
0.0
 10
-63.9617
 20
99.581999999999994
 30
0.0
 10
-63.382100000000001
 20
96.654700000000005
 30
0.0
 10
-63.259
 20
96.029799999999994
 30
0.0
 10
-63.259
 20
96.029799999999994
 30
0.0
 10
-63.017000000000003
 20
94.802999999999997
 30
0.0
 10
-62.727400000000003
 20
93.404399999999995
 30
0.0
 10
-62.411900000000003
 20
92.160899999999998
 30
0.0
 10
-62.411900000000003
 20
92.160899999999998
 30
0.0
 10
-62.055900000000001
 20
90.757199999999997
 30
0.0
 10
-61.649099999999997
 20
89.896100000000004
 30
0.0
 10
-61.198799999999999
 20
88.658500000000004
 30
0.0
 10
-61.198799999999999
 20
88.658500000000004
 30
0.0
 10
-60.850499999999997
 20
87.701099999999997
 30
0.0
 10
-60.4221
 20
85.972399999999993
 30
0.0
 10
-60.185299999999998
 20
84.956100000000006
 30
0.0
 10
-60.185299999999998
 20
84.956100000000006
 30
0.0
 10
-60.185299999999998
 20
84.956100000000006
 30
0.0
 10
-61.601599999999998
 20
82.496399999999994
 30
0.0
 10
-61.601599999999998
 20
82.496399999999994
 30
0.0
 10
-61.601599999999998
 20
82.496399999999994
 30
0.0
 10
-61.811300000000003
 20
82.653999999999996
 30
0.0
 10
-64.052999999999997
 20
86.848799999999997
 30
0.0
 10
-64.384600000000006
 20
87.482500000000002
 30
0.0
 10
-64.384600000000006
 20
87.482500000000002
 30
0.0
 10
-65.047700000000006
 20
88.749200000000002
 30
0.0
 10
-66.892600000000002
 20
91.214100000000002
 30
0.0
 10
-67.136499999999998
 20
92.461600000000004
 30
0.0
 10
-67.136499999999998
 20
92.461600000000004
 30
0.0
 10
-67.533600000000007
 20
94.492800000000003
 30
0.0
 10
-68.176500000000004
 20
96.667400000000001
 30
0.0
 10
-68.703400000000002
 20
98.625500000000002
 30
0.0
 10
-68.703400000000002
 20
98.625500000000002
 30
0.0
 10
-68.969800000000006
 20
99.614099999999993
 30
0.0
 10
-69.271699999999996
 20
100.62179999999999
 30
0.0
 10
-69.568299999999994
 20
101.62609999999999
 30
0.0
 10
-69.568299999999994
 20
101.62609999999999
 30
0.0
 10
-69.668400000000005
 20
101.9653
 30
0.0
 10
-69.852800000000002
 20
102.5472
 30
0.0
 10
-70.021699999999996
 20
103.1267
 30
0.0
 10
-70.021699999999996
 20
103.1267
 30
0.0
 10
-66.951499999999996
 20
104.3015
 30
0.0
 10
-63.645499999999998
 20
104.99850000000001
 30
0.0
 10
-60.194200000000002
 20
105.1275
 30
0.0
  0
SPLINE
  5
30
100
AcDbEntity
  8
RÚteg 1
 62
     7
100
AcDbSpline
210
0.0
220
0.0
230
1.0
 70
     1
 71
     3
 72
    16
 73
    12
 74
     0
 42
0.0000000001
 43
0.0000000001
 40
0.0
 40
0.0
 40
0.0
 40
0.0
 40
0.3333333333333333
 40
0.3333333333333333
 40
0.3333333333333333
 40
0.3333333333333333
 40
0.6666666666666666
 40
0.6666666666666666
 40
0.6666666666666666
 40
0.6666666666666666
 40
1.0
 40
1.0
 40
1.0
 40
1.0
 10
-71.303899999999999
 20
102.6023
 30
0.0
 10
-71.303899999999999
 20
102.6023
 30
0.0
 10
-73.049499999999995
 20
98.653099999999995
 30
0.0
 10
-73.049499999999995
 20
98.653099999999995
 30
0.0
 10
-73.049499999999995
 20
98.653099999999995
 30
0.0
 10
-73.049499999999995
 20
98.653099999999995
 30
0.0
 10
-77.291300000000007
 20
99.146299999999997
 30
0.0
 10
-77.291300000000007
 20
99.146299999999997
 30
0.0
 10
-77.291300000000007
 20
99.146299999999997
 30
0.0
 10
-75.442499999999995
 20
100.511
 30
0.0
 10
-73.436000000000007
 20
101.6738
 30
0.0
 10
-71.303899999999999
 20
102.6023
 30
0.0
  0
SPLINE
  5
31
100
AcDbEntity
  8
RÚteg 1
 62
     7
100
AcDbSpline
210
0.0
220
0.0
230
1.0
 70
     1
 71
     3
 72
    52
 73
    48
 74
     0
 42
0.0000000001
 43
0.0000000001
 40
0.0
 40
0.0
 40
0.0
 40
0.0
 40
0.0833333333333333
 40
0.0833333333333333
 40
0.0833333333333333
 40
0.0833333333333333
 40
0.1666666666666667
 40
0.1666666666666667
 40
0.1666666666666667
 40
0.1666666666666667
 40
0.25
 40
0.25
 40
0.25
 40
0.25
 40
0.3333333333333333
 40
0.3333333333333333
 40
0.3333333333333333
 40
0.3333333333333333
 40
0.4166666666666666
 40
0.4166666666666666
 40
0.4166666666666666
 40
0.4166666666666666
 40
0.4999999999999999
 40
0.4999999999999999
 40
0.4999999999999999
 40
0.4999999999999999
 40
0.5833333333333333
 40
0.5833333333333333
 40
0.5833333333333333
 40
0.5833333333333333
 40
0.6666666666666666
 40
0.6666666666666666
 40
0.6666666666666666
 40
0.6666666666666666
 40
0.75
 40
0.75
 40
0.75
 40
0.75
 40
0.8333333333333334
 40
0.8333333333333334
 40
0.8333333333333334
 40
0.8333333333333334
 40
0.9166666666666667
 40
0.9166666666666667
 40
0.9166666666666667
 40
0.9166666666666667
 40
1.0
 40
1.0
 40
1.0
 40
1.0
 10
-78.515799999999999
 20
98.194100000000006
 30
0.0
 10
-77.472700000000003
 20
97.113
 30
0.0
 10
-76.019300000000001
 20
95.726699999999994
 30
0.0
 10
-75.434100000000001
 20
95.141499999999994
 30
0.0
 10
-75.434100000000001
 20
95.141499999999994
 30
0.0
 10
-74.015900000000002
 20
93.723299999999995
 30
0.0
 10
-72.626400000000004
 20
92.410600000000002
 30
0.0
 10
-71.221199999999996
 20
91.005499999999998
 30
0.0
 10
-71.221199999999996
 20
91.005499999999998
 30
0.0
 10
-70.261700000000005
 20
90.045900000000003
 30
0.0
 10
-70.087800000000001
 20
89.930999999999997
 30
0.0
 10
-69.409700000000001
 20
88.642200000000003
 30
0.0
 10
-69.409700000000001
 20
88.642200000000003
 30
0.0
 10
-68.940399999999997
 20
87.749499999999998
 30
0.0
 10
-68.451999999999998
 20
86.778499999999994
 30
0.0
 10
-67.931799999999996
 20
85.945300000000003
 30
0.0
 10
-67.931799999999996
 20
85.945300000000003
 30
0.0
 10
-67.494399999999999
 20
85.244900000000001
 30
0.0
 10
-64.926000000000002
 20
81.142600000000002
 30
0.0
 10
-64.823800000000006
 20
80.704099999999997
 30
0.0
 10
-64.823800000000006
 20
80.704099999999997
 30
0.0
 10
-64.823800000000006
 20
80.704099999999997
 30
0.0
 10
-67.529600000000002
 20
80.704099999999997
 30
0.0
 10
-67.529600000000002
 20
80.704099999999997
 30
0.0
 10
-67.529600000000002
 20
80.704099999999997
 30
0.0
 10
-67.750299999999996
 20
80.704099999999997
 30
0.0
 10
-70.090500000000006
 20
83.116500000000002
 30
0.0
 10
-70.343599999999995
 20
83.456299999999999
 30
0.0
 10
-70.343599999999995
 20
83.456299999999999
 30
0.0
 10
-71.170699999999997
 20
84.566800000000001
 30
0.0
 10
-71.964200000000005
 20
85.403599999999997
 30
0.0
 10
-72.921899999999994
 20
86.366900000000001
 30
0.0
 10
-72.921899999999994
 20
86.366900000000001
 30
0.0
 10
-73.831100000000006
 20
87.281300000000002
 30
0.0
 10
-74.849199999999996
 20
88.074200000000005
 30
0.0
 10
-75.781000000000006
 20
88.996700000000004
 30
0.0
 10
-75.781000000000006
 20
88.996700000000004
 30
0.0
 10
-76.319999999999993
 20
89.530199999999994
 30
0.0
 10
-78.144099999999995
 20
91.257999999999996
 30
0.0
 10
-78.661900000000003
 20
91.604600000000005
 30
0.0
 10
-78.661900000000003
 20
91.604600000000005
 30
0.0
 10
-78.661900000000003
 20
91.604600000000005
 30
0.0
 10
-85.057900000000004
 20
90.802099999999996
 30
0.0
 10
-85.057900000000004
 20
90.802099999999996
 30
0.0
 10
-85.057900000000004
 20
90.802099999999996
 30
0.0
 10
-83.284400000000005
 20
93.604200000000006
 30
0.0
 10
-81.071899999999999
 20
96.101200000000006
 30
0.0
 10
-78.515799999999999
 20
98.194100000000006
 30
0.0
  0
SPLINE
  5
32
100
AcDbEntity
  8
RÚteg 1
 62
     7
100
AcDbSpline
210
0.0
220
0.0
230
1.0
 70
     1
 71
     3
 72
    56
 73
    52
 74
     0
 42
0.0000000001
 43
0.0000000001
 40
0.0
 40
0.0
 40
0.0
 40
0.0
 40
0.0769230769230769
 40
0.0769230769230769
 40
0.0769230769230769
 40
0.0769230769230769
 40
0.1538461538461539
 40
0.1538461538461539
 40
0.1538461538461539
 40
0.1538461538461539
 40
0.2307692307692308
 40
0.2307692307692308
 40
0.2307692307692308
 40
0.2307692307692308
 40
0.3076923076923077
 40
0.3076923076923077
 40
0.3076923076923077
 40
0.3076923076923077
 40
0.3846153846153846
 40
0.3846153846153846
 40
0.3846153846153846
 40
0.3846153846153846
 40
0.4615384615384616
 40
0.4615384615384616
 40
0.4615384615384616
 40
0.4615384615384616
 40
0.5384615384615386
 40
0.5384615384615386
 40
0.5384615384615386
 40
0.5384615384615386
 40
0.6153846153846154
 40
0.6153846153846154
 40
0.6153846153846154
 40
0.6153846153846154
 40
0.6923076923076923
 40
0.6923076923076923
 40
0.6923076923076923
 40
0.6923076923076923
 40
0.7692307692307692
 40
0.7692307692307692
 40
0.7692307692307692
 40
0.7692307692307692
 40
0.846153846153846
 40
0.846153846153846
 40
0.846153846153846
 40
0.846153846153846
 40
0.9230769230769229
 40
0.9230769230769229
 40
0.9230769230769229
 40
0.9230769230769229
 40
1.0
 40
1.0
 40
1.0
 40
1.0
 10
-86.250699999999995
 20
88.744100000000003
 30
0.0
 10
-86.250699999999995
 20
88.744100000000003
 30
0.0
 10
-83.743200000000002
 20
82.723100000000002
 30
0.0
 10
-83.743200000000002
 20
82.723100000000002
 30
0.0
 10
-83.743200000000002
 20
82.723100000000002
 30
0.0
 10
-83.060900000000004
 20
82.655600000000007
 30
0.0
 10
-80.189499999999995
 20
81.595600000000005
 30
0.0
 10
-79.3429
 20
81.337400000000002
 30
0.0
 10
-79.3429
 20
81.337400000000002
 30
0.0
 10
-77.923900000000003
 20
80.904799999999994
 30
0.0
 10
-76.3904
 20
80.307699999999997
 30
0.0
 10
-74.945499999999996
 20
80.014099999999999
 30
0.0
 10
-74.945499999999996
 20
80.014099999999999
 30
0.0
 10
-73.200599999999994
 20
79.659800000000004
 30
0.0
 10
-71.8249
 20
79.536500000000004
 30
0.0
 10
-70.191299999999998
 20
79.047399999999996
 30
0.0
 10
-70.191299999999998
 20
79.047399999999996
 30
0.0
 10
-68.972200000000001
 20
78.682599999999994
 30
0.0
 10
-69.006900000000002
 20
78.9619
 30
0.0
 10
-68.395799999999994
 20
77.982600000000005
 30
0.0
 10
-68.395799999999994
 20
77.982600000000005
 30
0.0
 10
-68.180999999999997
 20
77.6387
 30
0.0
 10
-67.451599999999999
 20
76.471500000000006
 30
0.0
 10
-67.375
 20
76.142899999999997
 30
0.0
 10
-67.375
 20
76.142899999999997
 30
0.0
 10
-67.375
 20
76.142899999999997
 30
0.0
 10
-76.032799999999995
 20
76.273700000000005
 30
0.0
 10
-76.032799999999995
 20
76.273700000000005
 30
0.0
 10
-76.032799999999995
 20
76.273700000000005
 30
0.0
 10
-76.032799999999995
 20
76.273700000000005
 30
0.0
 10
-78.043499999999995
 20
76.220299999999995
 30
0.0
 10
-78.043499999999995
 20
76.220299999999995
 30
0.0
 10
-78.043499999999995
 20
76.220299999999995
 30
0.0
 10
-78.376099999999994
 20
76.220299999999995
 30
0.0
 10
-80.782799999999995
 20
76.962100000000007
 30
0.0
 10
-81.242500000000007
 20
77.118700000000004
 30
0.0
 10
-81.242500000000007
 20
77.118700000000004
 30
0.0
 10
-82.293499999999995
 20
77.476699999999994
 30
0.0
 10
-83.361400000000003
 20
77.723699999999994
 30
0.0
 10
-84.460099999999997
 20
77.998400000000004
 30
0.0
 10
-84.460099999999997
 20
77.998400000000004
 30
0.0
 10
-85.556799999999996
 20
78.272599999999997
 30
0.0
 10
-86.606399999999994
 20
78.536299999999997
 30
0.0
 10
-87.738699999999994
 20
78.817099999999996
 30
0.0
 10
-87.738699999999994
 20
78.817099999999996
 30
0.0
 10
-88.177099999999996
 20
78.925899999999999
 30
0.0
 10
-88.802499999999995
 20
79.119
 30
0.0
 10
-89.417900000000003
 20
79.2898
 30
0.0
 10
-89.417900000000003
 20
79.2898
 30
0.0
 10
-88.876000000000005
 20
82.654399999999995
 30
0.0
 10
-87.789900000000003
 20
85.837299999999999
 30
0.0
 10
-86.250699999999995
 20
88.744100000000003
 30
0.0
  0
SPLINE
  5
33
100
AcDbEntity
  8
RÚteg 1
 62
     7
100
AcDbSpline
210
0.0
220
0.0
230
1.0
 70
     1
 71
     3
 72
    20
 73
    16
 74
     0
 42
0.0000000001
 43
0.0000000001
 40
0.0
 40
0.0
 40
0.0
 40
0.0
 40
0.25
 40
0.25
 40
0.25
 40
0.25
 40
0.5
 40
0.5
 40
0.5
 40
0.5
 40
0.75
 40
0.75
 40
0.75
 40
0.75
 40
1.0
 40
1.0
 40
1.0
 40
1.0
 10
-89.618799999999993
 20
77.811300000000003
 30
0.0
 10
-89.618799999999993
 20
77.811300000000003
 30
0.0
 10
-87.081000000000003
 20
74.370400000000004
 30
0.0
 10
-87.081000000000003
 20
74.370400000000004
 30
0.0
 10
-87.081000000000003
 20
74.370400000000004
 30
0.0
 10
-87.081000000000003
 20
74.370400000000004
 30
0.0
 10
-89.622100000000003
 20
70.948099999999997
 30
0.0
 10
-89.622100000000003
 20
70.948099999999997
 30
0.0
 10
-89.622100000000003
 20
70.948099999999997
 30
0.0
 10
-89.746200000000002
 20
72.070099999999996
 30
0.0
 10
-89.811899999999994
 20
73.209599999999995
 30
0.0
 10
-89.811899999999994
 20
74.364900000000006
 30
0.0
 10
-89.811899999999994
 20
74.364900000000006
 30
0.0
 10
-89.811899999999994
 20
75.530199999999994
 30
0.0
 10
-89.745400000000004
 20
76.679699999999997
 30
0.0
 10
-89.618799999999993
 20
77.811300000000003
 30
0.0
  0
SPLINE
  5
34
100
AcDbEntity
  8
RÚteg 1
 62
     7
100
AcDbSpline
210
0.0
220
0.0
230
1.0
 70
     1
 71
     3
 72
    56
 73
    52
 74
     0
 42
0.0000000001
 43
0.0000000001
 40
0.0
 40
0.0
 40
0.0
 40
0.0
 40
0.0769230769230769
 40
0.0769230769230769
 40
0.0769230769230769
 40
0.0769230769230769
 40
0.1538461538461539
 40
0.1538461538461539
 40
0.1538461538461539
 40
0.1538461538461539
 40
0.2307692307692308
 40
0.2307692307692308
 40
0.2307692307692308
 40
0.2307692307692308
 40
0.3076923076923077
 40
0.3076923076923077
 40
0.3076923076923077
 40
0.3076923076923077
 40
0.3846153846153846
 40
0.3846153846153846
 40
0.3846153846153846
 40
0.3846153846153846
 40
0.4615384615384616
 40
0.4615384615384616
 40
0.4615384615384616
 40
0.4615384615384616
 40
0.5384615384615386
 40
0.5384615384615386
 40
0.5384615384615386
 40
0.5384615384615386
 40
0.6153846153846154
 40
0.6153846153846154
 40
0.6153846153846154
 40
0.6153846153846154
 40
0.6923076923076923
 40
0.6923076923076923
 40
0.6923076923076923
 40
0.6923076923076923
 40
0.7692307692307692
 40
0.7692307692307692
 40
0.7692307692307692
 40
0.7692307692307692
 40
0.846153846153846
 40
0.846153846153846
 40
0.846153846153846
 40
0.846153846153846
 40
0.9230769230769229
 40
0.9230769230769229
 40
0.9230769230769229
 40
0.9230769230769229
 40
1.0
 40
1.0
 40
1.0
 40
1.0
 10
-89.418199999999999
 20
69.442400000000006
 30
0.0
 10
-88.778800000000004
 20
69.616100000000003
 30
0.0
 10
-88.128399999999999
 20
69.816999999999993
 30
0.0
 10
-87.676400000000001
 20
69.927700000000002
 30
0.0
 10
-87.676400000000001
 20
69.927700000000002
 30
0.0
 10
-86.606800000000007
 20
70.189599999999999
 30
0.0
 10
-85.410499999999999
 20
70.427199999999999
 30
0.0
 10
-84.392200000000003
 20
70.740799999999993
 30
0.0
 10
-84.392200000000003
 20
70.740799999999993
 30
0.0
 10
-83.657399999999996
 20
70.967100000000002
 30
0.0
 10
-78.368499999999997
 20
72.509399999999999
 30
0.0
 10
-78.043499999999995
 20
72.509399999999999
 30
0.0
 10
-78.043499999999995
 20
72.509399999999999
 30
0.0
 10
-78.043499999999995
 20
72.509399999999999
 30
0.0
 10
-76.033500000000004
 20
72.509399999999999
 30
0.0
 10
-76.033500000000004
 20
72.509399999999999
 30
0.0
 10
-76.033500000000004
 20
72.509399999999999
 30
0.0
 10
-76.033500000000004
 20
72.509399999999999
 30
0.0
 10
-67.374700000000004
 20
72.568600000000004
 30
0.0
 10
-67.374700000000004
 20
72.568600000000004
 30
0.0
 10
-67.374700000000004
 20
72.568600000000004
 30
0.0
 10
-67.458399999999997
 20
72.228399999999993
 30
0.0
 10
-68.193399999999997
 20
71.084500000000006
 30
0.0
 10
-68.426400000000001
 20
70.700500000000005
 30
0.0
 10
-68.426400000000001
 20
70.700500000000005
 30
0.0
 10
-68.972800000000007
 20
69.799599999999998
 30
0.0
 10
-69.153300000000002
 20
69.946799999999996
 30
0.0
 10
-70.251999999999995
 20
69.665800000000004
 30
0.0
 10
-70.251999999999995
 20
69.665800000000004
 30
0.0
 10
-71.016599999999997
 20
69.470399999999998
 30
0.0
 10
-71.758700000000005
 20
69.217600000000004
 30
0.0
 10
-72.534899999999993
 20
69.088200000000001
 30
0.0
 10
-72.534899999999993
 20
69.088200000000001
 30
0.0
 10
-73.322999999999993
 20
68.956800000000001
 30
0.0
 10
-74.196200000000005
 20
68.864599999999996
 30
0.0
 10
-75.010000000000005
 20
68.702699999999993
 30
0.0
 10
-75.010000000000005
 20
68.702699999999993
 30
0.0
 10
-76.308899999999994
 20
68.444599999999994
 30
0.0
 10
-78.089299999999994
 20
67.811499999999995
 30
0.0
 10
-79.401899999999998
 20
67.373900000000006
 30
0.0
 10
-79.401899999999998
 20
67.373900000000006
 30
0.0
 10
-80.188000000000002
 20
67.111699999999999
 30
0.0
 10
-83.158799999999999
 20
66.065899999999999
 30
0.0
 10
-83.764300000000006
 20
66.015500000000003
 30
0.0
 10
-83.764300000000006
 20
66.015500000000003
 30
0.0
 10
-83.764300000000006
 20
66.015500000000003
 30
0.0
 10
-86.276799999999994
 20
60.034599999999998
 30
0.0
 10
-86.276799999999994
 20
60.034599999999998
 30
0.0
 10
-86.276799999999994
 20
60.034599999999998
 30
0.0
 10
-87.802099999999996
 20
62.929299999999998
 30
0.0
 10
-88.880200000000002
 20
66.095500000000001
 30
0.0
 10
-89.418199999999999
 20
69.442400000000006
 30
0.0
  0
SPLINE
  5
35
100
AcDbEntity
  8
RÚteg 1
 62
     7
100
AcDbSpline
210
0.0
220
0.0
230
1.0
 70
     1
 71
     3
 72
    56
 73
    52
 74
     0
 42
0.0000000001
 43
0.0000000001
 40
0.0
 40
0.0
 40
0.0
 40
0.0
 40
0.0769230769230769
 40
0.0769230769230769
 40
0.0769230769230769
 40
0.0769230769230769
 40
0.1538461538461539
 40
0.1538461538461539
 40
0.1538461538461539
 40
0.1538461538461539
 40
0.2307692307692308
 40
0.2307692307692308
 40
0.2307692307692308
 40
0.2307692307692308
 40
0.3076923076923077
 40
0.3076923076923077
 40
0.3076923076923077
 40
0.3076923076923077
 40
0.3846153846153846
 40
0.3846153846153846
 40
0.3846153846153846
 40
0.3846153846153846
 40
0.4615384615384616
 40
0.4615384615384616
 40
0.4615384615384616
 40
0.4615384615384616
 40
0.5384615384615386
 40
0.5384615384615386
 40
0.5384615384615386
 40
0.5384615384615386
 40
0.6153846153846154
 40
0.6153846153846154
 40
0.6153846153846154
 40
0.6153846153846154
 40
0.6923076923076923
 40
0.6923076923076923
 40
0.6923076923076923
 40
0.6923076923076923
 40
0.7692307692307692
 40
0.7692307692307692
 40
0.7692307692307692
 40
0.7692307692307692
 40
0.846153846153846
 40
0.846153846153846
 40
0.846153846153846
 40
0.846153846153846
 40
0.9230769230769229
 40
0.9230769230769229
 40
0.9230769230769229
 40
0.9230769230769229
 40
1.0
 40
1.0
 40
1.0
 40
1.0
 10
-85.049000000000007
 20
57.9133
 30
0.0
 10
-85.049000000000007
 20
57.9133
 30
0.0
 10
-78.658600000000007
 20
57.151800000000001
 30
0.0
 10
-78.658600000000007
 20
57.151800000000001
 30
0.0
 10
-78.658600000000007
 20
57.151800000000001
 30
0.0
 10
-78.157799999999995
 20
57.462600000000002
 30
0.0
 10
-76.259799999999998
 20
59.251399999999997
 30
0.0
 10
-75.742699999999999
 20
59.772199999999998
 30
0.0
 10
-75.742699999999999
 20
59.772199999999998
 30
0.0
 10
-74.821899999999999
 20
60.6999
 30
0.0
 10
-73.797600000000003
 20
61.483600000000003
 30
0.0
 10
-72.883099999999999
 20
62.401200000000003
 30
0.0
 10
-72.883099999999999
 20
62.401200000000003
 30
0.0
 10
-71.941699999999997
 20
63.345799999999997
 30
0.0
 10
-71.097300000000004
 20
64.241299999999995
 30
0.0
 10
-70.312700000000007
 20
65.319800000000001
 30
0.0
 10
-70.312700000000007
 20
65.319800000000001
 30
0.0
 10
-70.092200000000005
 20
65.622699999999995
 30
0.0
 10
-67.733000000000004
 20
68.025499999999994
 30
0.0
 10
-67.529600000000002
 20
68.025499999999994
 30
0.0
 10
-67.529600000000002
 20
68.025499999999994
 30
0.0
 10
-67.529600000000002
 20
68.025499999999994
 30
0.0
 10
-64.823800000000006
 20
68.025499999999994
 30
0.0
 10
-64.823800000000006
 20
68.025499999999994
 30
0.0
 10
-64.823800000000006
 20
68.025499999999994
 30
0.0
 10
-64.937399999999997
 20
67.537499999999994
 30
0.0
 10
-67.494799999999998
 20
63.508200000000002
 30
0.0
 10
-67.962500000000006
 20
62.737900000000003
 30
0.0
 10
-67.962500000000006
 20
62.737900000000003
 30
0.0
 10
-68.501199999999997
 20
61.8506
 30
0.0
 10
-68.927999999999997
 20
60.9542
 30
0.0
 10
-69.435699999999997
 20
60.036200000000001
 30
0.0
 10
-69.435699999999997
 20
60.036200000000001
 30
0.0
 10
-70.182699999999997
 20
58.685600000000001
 30
0.0
 10
-70.236000000000004
 20
58.709200000000003
 30
0.0
 10
-71.259500000000003
 20
57.685499999999998
 30
0.0
 10
-71.259500000000003
 20
57.685499999999998
 30
0.0
 10
-71.955799999999996
 20
56.988999999999997
 30
0.0
 10
-72.728099999999998
 20
56.367199999999997
 30
0.0
 10
-73.4255
 20
55.676699999999997
 30
0.0
 10
-73.4255
 20
55.676699999999997
 30
0.0
 10
-74.151799999999994
 20
54.957900000000002
 30
0.0
 10
-74.754999999999995
 20
54.267699999999998
 30
0.0
 10
-75.472999999999999
 20
53.549700000000001
 30
0.0
 10
-75.472999999999999
 20
53.549700000000001
 30
0.0
 10
-76.049400000000006
 20
52.973399999999998
 30
0.0
 10
-77.482399999999998
 20
51.6053
 30
0.0
 10
-78.515299999999996
 20
50.5351
 30
0.0
 10
-78.515299999999996
 20
50.5351
 30
0.0
 10
-81.067099999999996
 20
52.6252
 30
0.0
 10
-83.277199999999993
 20
55.116500000000002
 30
0.0
 10
-85.049000000000007
 20
57.9133
 30
0.0
  0
SPLINE
  5
36
100
AcDbEntity
  8
RÚteg 1
 62
     7
100
AcDbSpline
210
0.0
220
0.0
230
1.0
 70
     1
 71
     3
 72
    16
 73
    12
 74
     0
 42
0.0000000001
 43
0.0000000001
 40
0.0
 40
0.0
 40
0.0
 40
0.0
 40
0.3333333333333333
 40
0.3333333333333333
 40
0.3333333333333333
 40
0.3333333333333333
 40
0.6666666666666666
 40
0.6666666666666666
 40
0.6666666666666666
 40
0.6666666666666666
 40
1.0
 40
1.0
 40
1.0
 40
1.0
 10
-77.291799999999995
 20
49.584000000000003
 30
0.0
 10
-77.291799999999995
 20
49.584000000000003
 30
0.0
 10
-73.017300000000006
 20
50.080800000000004
 30
0.0
 10
-73.017300000000006
 20
50.080800000000004
 30
0.0
 10
-73.017300000000006
 20
50.080800000000004
 30
0.0
 10
-73.017300000000006
 20
50.080800000000004
 30
0.0
 10
-71.343400000000003
 20
46.144799999999996
 30
0.0
 10
-71.343400000000003
 20
46.144799999999996
 30
0.0
 10
-71.343400000000003
 20
46.144799999999996
 30
0.0
 10
-73.460999999999999
 20
47.070999999999998
 30
0.0
 10
-75.454800000000006
 20
48.227200000000003
 30
0.0
 10
-77.291799999999995
 20
49.584000000000003
 30
0.0
  0
SPLINE
  5
37
100
AcDbEntity
  8
RÚteg 1
 62
     7
100
AcDbSpline
210
0.0
220
0.0
230
1.0
 70
     1
 71
     3
 72
    48
 73
    44
 74
     0
 42
0.0000000001
 43
0.0000000001
 40
0.0
 40
0.0
 40
0.0
 40
0.0
 40
0.0909090909090909
 40
0.0909090909090909
 40
0.0909090909090909
 40
0.0909090909090909
 40
0.1818181818181818
 40
0.1818181818181818
 40
0.1818181818181818
 40
0.1818181818181818
 40
0.2727272727272727
 40
0.2727272727272727
 40
0.2727272727272727
 40
0.2727272727272727
 40
0.3636363636363637
 40
0.3636363636363637
 40
0.3636363636363637
 40
0.3636363636363637
 40
0.4545454545454546
 40
0.4545454545454546
 40
0.4545454545454546
 40
0.4545454545454546
 40
0.5454545454545455
 40
0.5454545454545455
 40
0.5454545454545455
 40
0.5454545454545455
 40
0.6363636363636365
 40
0.6363636363636365
 40
0.6363636363636365
 40
0.6363636363636365
 40
0.7272727272727274
 40
0.7272727272727274
 40
0.7272727272727274
 40
0.7272727272727274
 40
0.8181818181818183
 40
0.8181818181818183
 40
0.8181818181818183
 40
0.8181818181818183
 40
0.9090909090909093
 40
0.9090909090909093
 40
0.9090909090909093
 40
0.9090909090909093
 40
1.0
 40
1.0
 40
1.0
 40
1.0
 10
-70.027299999999997
 20
45.605200000000004
 30
0.0
 10
-69.841499999999996
 20
46.225000000000001
 30
0.0
 10
-69.645899999999997
 20
46.844700000000003
 30
0.0
 10
-69.549400000000006
 20
47.162199999999999
 30
0.0
 10
-69.549400000000006
 20
47.162199999999999
 30
0.0
 10
-69.251099999999994
 20
48.145400000000002
 30
0.0
 10
-68.947000000000003
 20
49.158099999999997
 30
0.0
 10
-68.688000000000002
 20
50.1663
 30
0.0
 10
-68.688000000000002
 20
50.1663
 30
0.0
 10
-68.185900000000004
 20
52.122500000000002
 30
0.0
 10
-67.5214
 20
54.2682
 30
0.0
 10
-67.124099999999999
 20
56.333199999999998
 30
0.0
 10
-67.124099999999999
 20
56.333199999999998
 30
0.0
 10
-66.906000000000006
 20
57.468400000000003
 30
0.0
 10
-64.971900000000005
 20
60.081000000000003
 30
0.0
 10
-64.358900000000006
 20
61.298699999999997
 30
0.0
 10
-64.358900000000006
 20
61.298699999999997
 30
0.0
 10
-64.072299999999998
 20
61.868299999999998
 30
0.0
 10
-61.785499999999999
 20
66.0946
 30
0.0
 10
-61.576900000000002
 20
66.247299999999996
 30
0.0
 10
-61.576900000000002
 20
66.247299999999996
 30
0.0
 10
-61.576900000000002
 20
66.247299999999996
 30
0.0
 10
-60.193100000000001
 20
63.769199999999998
 30
0.0
 10
-60.193100000000001
 20
63.769199999999998
 30
0.0
 10
-60.193100000000001
 20
63.769199999999998
 30
0.0
 10
-60.410699999999999
 20
62.805900000000001
 30
0.0
 10
-60.870699999999999
 20
60.911099999999998
 30
0.0
 10
-61.220599999999997
 20
60.015700000000002
 30
0.0
 10
-61.220599999999997
 20
60.015700000000002
 30
0.0
 10
-61.714500000000001
 20
58.751800000000003
 30
0.0
 10
-62.074800000000003
 20
57.920499999999997
 30
0.0
 10
-62.427300000000002
 20
56.506599999999999
 30
0.0
 10
-62.427300000000002
 20
56.506599999999999
 30
0.0
 10
-63.059199999999997
 20
53.9711
 30
0.0
 10
-63.533000000000001
 20
51.329900000000002
 30
0.0
 10
-64.128100000000003
 20
48.775700000000001
 30
0.0
 10
-64.128100000000003
 20
48.775700000000001
 30
0.0
 10
-64.128100000000003
 20
48.775700000000001
 30
0.0
 10
-60.238
 20
43.603999999999999
 30
0.0
 10
-60.238
 20
43.603999999999999
 30
0.0
 10
-60.238
 20
43.603999999999999
 30
0.0
 10
-63.675600000000003
 20
43.7376
 30
0.0
 10
-66.968699999999998
 20
44.433599999999998
 30
0.0
 10
-70.027299999999997
 20
45.605200000000004
 30
0.0
  0
SPLINE
  5
38
100
AcDbEntity
  8
RÚteg 1
 62
     7
100
AcDbSpline
210
0.0
220
0.0
230
1.0
 70
     1
 71
     3
 72
    48
 73
    44
 74
     0
 42
0.0000000001
 43
0.0000000001
 40
0.0
 40
0.0
 40
0.0
 40
0.0
 40
0.0909090909090909
 40
0.0909090909090909
 40
0.0909090909090909
 40
0.0909090909090909
 40
0.1818181818181818
 40
0.1818181818181818
 40
0.1818181818181818
 40
0.1818181818181818
 40
0.2727272727272727
 40
0.2727272727272727
 40
0.2727272727272727
 40
0.2727272727272727
 40
0.3636363636363637
 40
0.3636363636363637
 40
0.3636363636363637
 40
0.3636363636363637
 40
0.4545454545454546
 40
0.4545454545454546
 40
0.4545454545454546
 40
0.4545454545454546
 40
0.5454545454545455
 40
0.5454545454545455
 40
0.5454545454545455
 40
0.5454545454545455
 40
0.6363636363636365
 40
0.6363636363636365
 40
0.6363636363636365
 40
0.6363636363636365
 40
0.7272727272727274
 40
0.7272727272727274
 40
0.7272727272727274
 40
0.7272727272727274
 40
0.8181818181818183
 40
0.8181818181818183
 40
0.8181818181818183
 40
0.8181818181818183
 40
0.9090909090909093
 40
0.9090909090909093
 40
0.9090909090909093
 40
0.9090909090909093
 40
1.0
 40
1.0
 40
1.0
 40
1.0
 10
-57.853700000000003
 20
43.6023
 30
0.0
 10
-57.853700000000003
 20
43.6023
 30
0.0
 10
-53.914000000000001
 20
48.768900000000002
 30
0.0
 10
-53.914000000000001
 20
48.768900000000002
 30
0.0
 10
-53.914000000000001
 20
48.768900000000002
 30
0.0
 10
-54.523600000000002
 20
51.351999999999997
 30
0.0
 10
-54.988199999999999
 20
54.002299999999998
 30
0.0
 10
-55.639299999999999
 20
56.5687
 30
0.0
 10
-55.639299999999999
 20
56.5687
 30
0.0
 10
-55.9955
 20
57.9724
 30
0.0
 10
-56.402200000000001
 20
58.833599999999997
 30
0.0
 10
-56.852499999999999
 20
60.071300000000001
 30
0.0
 10
-56.852499999999999
 20
60.071300000000001
 30
0.0
 10
-57.200699999999998
 20
61.028599999999997
 30
0.0
 10
-57.629100000000001
 20
62.757100000000001
 30
0.0
 10
-57.866100000000003
 20
63.773699999999998
 30
0.0
 10
-57.866100000000003
 20
63.773699999999998
 30
0.0
 10
-57.866100000000003
 20
63.773699999999998
 30
0.0
 10
-56.449800000000003
 20
66.233400000000003
 30
0.0
 10
-56.449800000000003
 20
66.233400000000003
 30
0.0
 10
-56.449800000000003
 20
66.233400000000003
 30
0.0
 10
-56.232199999999999
 20
66.069999999999993
 30
0.0
 10
-54.001899999999999
 20
61.887999999999998
 30
0.0
 10
-53.666499999999999
 20
61.247199999999999
 30
0.0
 10
-53.666499999999999
 20
61.247199999999999
 30
0.0
 10
-53.039000000000001
 20
60.048299999999998
 30
0.0
 10
-51.125100000000003
 20
57.418199999999999
 30
0.0
 10
-50.902799999999999
 20
56.280099999999997
 30
0.0
 10
-50.902799999999999
 20
56.280099999999997
 30
0.0
 10
-50.504600000000003
 20
54.243600000000001
 30
0.0
 10
-49.878500000000003
 20
52.073300000000003
 30
0.0
 10
-49.347200000000001
 20
50.104900000000001
 30
0.0
 10
-49.347200000000001
 20
50.104900000000001
 30
0.0
 10
-49.084000000000003
 20
49.130000000000003
 30
0.0
 10
-48.776400000000002
 20
48.097499999999997
 30
0.0
 10
-48.482399999999998
 20
47.104199999999999
 30
0.0
 10
-48.482399999999998
 20
47.104199999999999
 30
0.0
 10
-48.385599999999997
 20
46.777200000000001
 30
0.0
 10
-48.201300000000003
 20
46.188200000000002
 30
0.0
 10
-48.031399999999998
 20
45.601999999999997
 30
0.0
 10
-48.031399999999998
 20
45.601999999999997
 30
0.0
 10
-51.099800000000002
 20
44.428199999999997
 30
0.0
 10
-54.404200000000003
 20
43.731400000000001
 30
0.0
 10
-57.853700000000003
 20
43.6023
 30
0.0
  0
SPLINE
  5
39
100
AcDbEntity
  8
RÚteg 1
 62
     7
100
AcDbSpline
210
0.0
220
0.0
230
1.0
 70
     1
 71
     3
 72
    20
 73
    16
 74
     0
 42
0.0000000001
 43
0.0000000001
 40
0.0
 40
0.0
 40
0.0
 40
0.0
 40
0.25
 40
0.25
 40
0.25
 40
0.25
 40
0.5
 40
0.5
 40
0.5
 40
0.5
 40
0.75
 40
0.75
 40
0.75
 40
0.75
 40
1.0
 40
1.0
 40
1.0
 40
1.0
 10
-46.671100000000003
 20
46.160200000000003
 30
0.0
 10
-46.511800000000001
 20
46.552700000000002
 30
0.0
 10
-46.379399999999997
 20
46.888399999999997
 30
0.0
 10
-46.316099999999999
 20
47.0441
 30
0.0
 10
-46.316099999999999
 20
47.0441
 30
0.0
 10
-46.187100000000001
 20
47.361800000000002
 30
0.0
 10
-45.0535
 20
50.023800000000001
 30
0.0
 10
-44.955399999999997
 20
50.012599999999999
 30
0.0
 10
-44.955399999999997
 20
50.012599999999999
 30
0.0
 10
-44.955399999999997
 20
50.012599999999999
 30
0.0
 10
-40.783799999999999
 20
49.565399999999997
 30
0.0
 10
-40.783799999999999
 20
49.565399999999997
 30
0.0
 10
-40.783799999999999
 20
49.565399999999997
 30
0.0
 10
-42.6036
 20
48.224600000000002
 30
0.0
 10
-44.5764
 20
47.0792
 30
0.0
 10
-46.671100000000003
 20
46.160200000000003
 30
0.0
  0
SPLINE
  5
3A
100
AcDbEntity
  8
RÚteg 1
 62
     7
100
AcDbSpline
210
0.0
220
0.0
230
1.0
 70
     1
 71
     3
 72
    52
 73
    48
 74
     0
 42
0.0000000001
 43
0.0000000001
 40
0.0
 40
0.0
 40
0.0
 40
0.0
 40
0.0833333333333333
 40
0.0833333333333333
 40
0.0833333333333333
 40
0.0833333333333333
 40
0.1666666666666667
 40
0.1666666666666667
 40
0.1666666666666667
 40
0.1666666666666667
 40
0.25
 40
0.25
 40
0.25
 40
0.25
 40
0.3333333333333333
 40
0.3333333333333333
 40
0.3333333333333333
 40
0.3333333333333333
 40
0.4166666666666666
 40
0.4166666666666666
 40
0.4166666666666666
 40
0.4166666666666666
 40
0.4999999999999999
 40
0.4999999999999999
 40
0.4999999999999999
 40
0.4999999999999999
 40
0.5833333333333333
 40
0.5833333333333333
 40
0.5833333333333333
 40
0.5833333333333333
 40
0.6666666666666666
 40
0.6666666666666666
 40
0.6666666666666666
 40
0.6666666666666666
 40
0.75
 40
0.75
 40
0.75
 40
0.75
 40
0.8333333333333334
 40
0.8333333333333334
 40
0.8333333333333334
 40
0.8333333333333334
 40
0.9166666666666667
 40
0.9166666666666667
 40
0.9166666666666667
 40
0.9166666666666667
 40
1.0
 40
1.0
 40
1.0
 40
1.0
 10
17.2087
 20
108.04430000000001
 30
0.0
 10
34.016599999999997
 20
106.0265
 30
0.0
 10
47.049999999999997
 20
91.715699999999998
 30
0.0
 10
47.049999999999997
 20
74.364699999999999
 30
0.0
 10
47.049999999999997
 20
74.364699999999999
 30
0.0
 10
47.049999999999997
 20
55.631599999999999
 30
0.0
 10
31.8581
 20
40.439700000000002
 30
0.0
 10
13.125
 20
40.439700000000002
 30
0.0
 10
13.125
 20
40.439700000000002
 30
0.0
 10
-5.6081000000000003
 20
40.439700000000002
 30
0.0
 10
-20.800000000000001
 20
55.631599999999999
 30
0.0
 10
-20.800000000000001
 20
74.364699999999999
 30
0.0
 10
-20.800000000000001
 20
74.364699999999999
 30
0.0
 10
-20.800000000000001
 20
91.715699999999998
 30
0.0
 10
-7.7666000000000004
 20
106.0265
 30
0.0
 10
9.0412999999999997
 20
108.04430000000001
 30
0.0
 10
9.0412999999999997
 20
108.04430000000001
 30
0.0
 10
9.0412999999999997
 20
108.04430000000001
 30
0.0
 10
9.0412999999999997
 20
113.0972
 30
0.0
 10
9.0412999999999997
 20
113.0972
 30
0.0
 10
9.0412999999999997
 20
113.0972
 30
0.0
 10
9.0412999999999997
 20
113.4361
 30
0.0
 10
9.2881
 20
113.7205
 30
0.0
 10
9.6109000000000009
 20
113.779
 30
0.0
 10
9.6109000000000009
 20
113.779
 30
0.0
 10
9.1729000000000003
 20
114.44289999999999
 30
0.0
 10
8.9176000000000002
 20
115.2379
 30
0.0
 10
8.9176000000000002
 20
116.0925
 30
0.0
 10
8.9176000000000002
 20
116.0925
 30
0.0
 10
8.9176000000000002
 20
118.4157
 30
0.0
 10
10.8017
 20
120.3
 30
0.0
 10
13.125
 20
120.3
 30
0.0
 10
13.125
 20
120.3
 30
0.0
 10
15.4483
 20
120.3
 30
0.0
 10
17.3324
 20
118.4157
 30
0.0
 10
17.3324
 20
116.0925
 30
0.0
 10
17.3324
 20
116.0925
 30
0.0
 10
17.3324
 20
115.2379
 30
0.0
 10
17.077100000000002
 20
114.44289999999999
 30
0.0
 10
16.639099999999999
 20
113.779
 30
0.0
 10
16.639099999999999
 20
113.779
 30
0.0
 10
16.9619
 20
113.7205
 30
0.0
 10
17.2087
 20
113.4361
 30
0.0
 10
17.2087
 20
113.0972
 30
0.0
 10
17.2087
 20
113.0972
 30
0.0
 10
17.2087
 20
113.0972
 30
0.0
 10
17.2087
 20
108.04430000000001
 30
0.0
 10
17.2087
 20
108.04430000000001
 30
0.0
  0
SPLINE
  5
3B
100
AcDbEntity
  8
RÚteg 1
 62
     7
100
AcDbSpline
210
0.0
220
0.0
230
1.0
 70
     1
 71
     3
 72
    20
 73
    16
 74
     0
 42
0.0000000001
 43
0.0000000001
 40
0.0
 40
0.0
 40
0.0
 40
0.0
 40
0.25
 40
0.25
 40
0.25
 40
0.25
 40
0.5
 40
0.5
 40
0.5
 40
0.5
 40
0.75
 40
0.75
 40
0.75
 40
0.75
 40
1.0
 40
1.0
 40
1.0
 40
1.0
 10
13.125
 20
118.3492
 30
0.0
 10
14.3711
 20
118.3492
 30
0.0
 10
15.3817
 20
117.3387
 30
0.0
 10
15.3817
 20
116.0925
 30
0.0
 10
15.3817
 20
116.0925
 30
0.0
 10
15.3817
 20
114.8463
 30
0.0
 10
14.3711
 20
113.83580000000001
 30
0.0
 10
13.125
 20
113.83580000000001
 30
0.0
 10
13.125
 20
113.83580000000001
 30
0.0
 10
11.8789
 20
113.83580000000001
 30
0.0
 10
10.8683
 20
114.8463
 30
0.0
 10
10.8683
 20
116.0925
 30
0.0
 10
10.8683
 20
116.0925
 30
0.0
 10
10.8683
 20
117.3387
 30
0.0
 10
11.8789
 20
118.3492
 30
0.0
 10
13.125
 20
118.3492
 30
0.0
  0
SPLINE
  5
3C
100
AcDbEntity
  8
RÚteg 1
 62
     7
100
AcDbSpline
210
0.0
220
0.0
230
1.0
 70
     1
 71
     3
 72
    20
 73
    16
 74
     0
 42
0.0000000001
 43
0.0000000001
 40
0.0
 40
0.0
 40
0.0
 40
0.0
 40
0.25
 40
0.25
 40
0.25
 40
0.25
 40
0.5
 40
0.5
 40
0.5
 40
0.5
 40
0.75
 40
0.75
 40
0.75
 40
0.75
 40
1.0
 40
1.0
 40
1.0
 40
1.0
 10
-1.6719999999999999
 20
93.005600000000001
 30
0.0
 10
-1.6719999999999999
 20
93.005600000000001
 30
0.0
 10
3.4384000000000001
 20
89.868200000000002
 30
0.0
 10
3.4384000000000001
 20
89.868200000000002
 30
0.0
 10
3.4384000000000001
 20
89.868200000000002
 30
0.0
 10
3.4384000000000001
 20
89.868200000000002
 30
0.0
 10
-12.178599999999999
 20
91.603200000000001
 30
0.0
 10
-12.178599999999999
 20
91.603200000000001
 30
0.0
 10
-12.178599999999999
 20
91.603200000000001
 30
0.0
 10
-9.6930999999999994
 20
95.243799999999993
 30
0.0
 10
-6.4431000000000003
 20
98.320899999999995
 30
0.0
 10
-2.6593
 20
100.6024
 30
0.0
 10
-2.6593
 20
100.6024
 30
0.0
 10
-2.6593
 20
100.6024
 30
0.0
 10
-1.6719999999999999
 20
93.005600000000001
 30
0.0
 10
-1.6719999999999999
 20
93.005600000000001
 30
0.0
  0
SPLINE
  5
3D
100
AcDbEntity
  8
RÚteg 1
 62
     7
100
AcDbSpline
210
0.0
220
0.0
230
1.0
 70
     1
 71
     3
 72
    16
 73
    12
 74
     0
 42
0.0000000001
 43
0.0000000001
 40
0.0
 40
0.0
 40
0.0
 40
0.0
 40
0.3333333333333333
 40
0.3333333333333333
 40
0.3333333333333333
 40
0.3333333333333333
 40
0.6666666666666666
 40
0.6666666666666666
 40
0.6666666666666666
 40
0.6666666666666666
 40
1.0
 40
1.0
 40
1.0
 40
1.0
 10
-12.5314
 20
91.073599999999999
 30
0.0
 10
-12.5314
 20
91.073599999999999
 30
0.0
 10
-6.0095999999999998
 20
85.4405
 30
0.0
 10
-6.0095999999999998
 20
85.4405
 30
0.0
 10
-6.0095999999999998
 20
85.4405
 30
0.0
 10
-6.0095999999999998
 20
85.4405
 30
0.0
 10
-14.178100000000001
 20
88.230000000000004
 30
0.0
 10
-14.178100000000001
 20
88.230000000000004
 30
0.0
 10
-14.178100000000001
 20
88.230000000000004
 30
0.0
 10
-13.679399999999999
 20
89.209599999999995
 30
0.0
 10
-13.1288
 20
90.158100000000005
 30
0.0
 10
-12.5314
 20
91.073599999999999
 30
0.0
  0
SPLINE
  5
3E
100
AcDbEntity
  8
RÚteg 1
 62
     7
100
AcDbSpline
210
0.0
220
0.0
230
1.0
 70
     1
 71
     3
 72
    20
 73
    16
 74
     0
 42
0.0000000001
 43
0.0000000001
 40
0.0
 40
0.0
 40
0.0
 40
0.0
 40
0.25
 40
0.25
 40
0.25
 40
0.25
 40
0.5
 40
0.5
 40
0.5
 40
0.5
 40
0.75
 40
0.75
 40
0.75
 40
0.75
 40
1.0
 40
1.0
 40
1.0
 40
1.0
 10
-14.4376
 20
87.708100000000002
 30
0.0
 10
-14.4376
 20
87.708100000000002
 30
0.0
 10
-5.1346999999999996
 20
75.088200000000001
 30
0.0
 10
-5.1346999999999996
 20
75.088200000000001
 30
0.0
 10
-5.1346999999999996
 20
75.088200000000001
 30
0.0
 10
-5.1346999999999996
 20
75.088200000000001
 30
0.0
 10
-10.3842
 20
77.868200000000002
 30
0.0
 10
-10.3842
 20
77.868200000000002
 30
0.0
 10
-10.3842
 20
77.868200000000002
 30
0.0
 10
-10.3842
 20
77.868200000000002
 30
0.0
 10
-17.485299999999999
 20
74.915599999999998
 30
0.0
 10
-17.485299999999999
 20
74.915599999999998
 30
0.0
 10
-17.485299999999999
 20
74.915599999999998
 30
0.0
 10
-17.404399999999999
 20
79.495099999999994
 30
0.0
 10
-16.319299999999998
 20
83.829999999999998
 30
0.0
 10
-14.4376
 20
87.708100000000002
 30
0.0
  0
SPLINE
  5
3F
100
AcDbEntity
  8
RÚteg 1
 62
     7
100
AcDbSpline
210
0.0
220
0.0
230
1.0
 70
     1
 71
     3
 72
    20
 73
    16
 74
     0
 42
0.0000000001
 43
0.0000000001
 40
0.0
 40
0.0
 40
0.0
 40
0.0
 40
0.25
 40
0.25
 40
0.25
 40
0.25
 40
0.5
 40
0.5
 40
0.5
 40
0.5
 40
0.75
 40
0.75
 40
0.75
 40
0.75
 40
1.0
 40
1.0
 40
1.0
 40
1.0
 10
-17.484999999999999
 20
73.785799999999995
 30
0.0
 10
-17.484999999999999
 20
73.785799999999995
 30
0.0
 10
-10.3657
 20
70.838099999999997
 30
0.0
 10
-10.3657
 20
70.838099999999997
 30
0.0
 10
-10.3657
 20
70.838099999999997
 30
0.0
 10
-10.3657
 20
70.838099999999997
 30
0.0
 10
-5.1825000000000001
 20
73.704499999999996
 30
0.0
 10
-5.1825000000000001
 20
73.704499999999996
 30
0.0
 10
-5.1825000000000001
 20
73.704499999999996
 30
0.0
 10
-5.1825000000000001
 20
73.704499999999996
 30
0.0
 10
-14.4627
 20
61.072299999999998
 30
0.0
 10
-14.4627
 20
61.072299999999998
 30
0.0
 10
-14.4627
 20
61.072299999999998
 30
0.0
 10
-16.3248
 20
64.929400000000001
 30
0.0
 10
-17.400500000000001
 20
69.236800000000002
 30
0.0
 10
-17.484999999999999
 20
73.785799999999995
 30
0.0
  0
SPLINE
  5
40
100
AcDbEntity
  8
RÚteg 1
 62
     7
100
AcDbSpline
210
0.0
220
0.0
230
1.0
 70
     1
 71
     3
 72
    16
 73
    12
 74
     0
 42
0.0000000001
 43
0.0000000001
 40
0.0
 40
0.0
 40
0.0
 40
0.0
 40
0.3333333333333333
 40
0.3333333333333333
 40
0.3333333333333333
 40
0.3333333333333333
 40
0.6666666666666666
 40
0.6666666666666666
 40
0.6666666666666666
 40
0.6666666666666666
 40
1.0
 40
1.0
 40
1.0
 40
1.0
 10
-14.200200000000001
 20
60.543900000000001
 30
0.0
 10
-14.200200000000001
 20
60.543900000000001
 30
0.0
 10
-6.0410000000000004
 20
63.326700000000002
 30
0.0
 10
-6.0410000000000004
 20
63.326700000000002
 30
0.0
 10
-6.0410000000000004
 20
63.326700000000002
 30
0.0
 10
-6.0410000000000004
 20
63.326700000000002
 30
0.0
 10
-12.5318
 20
57.656500000000001
 30
0.0
 10
-12.5318
 20
57.656500000000001
 30
0.0
 10
-12.5318
 20
57.656500000000001
 30
0.0
 10
-13.138
 20
58.585500000000003
 30
0.0
 10
-13.6959
 20
59.548699999999997
 30
0.0
 10
-14.200200000000001
 20
60.543900000000001
 30
0.0
  0
SPLINE
  5
41
100
AcDbEntity
  8
RÚteg 1
 62
     7
100
AcDbSpline
210
0.0
220
0.0
230
1.0
 70
     1
 71
     3
 72
    20
 73
    16
 74
     0
 42
0.0000000001
 43
0.0000000001
 40
0.0
 40
0.0
 40
0.0
 40
0.0
 40
0.25
 40
0.25
 40
0.25
 40
0.25
 40
0.5
 40
0.5
 40
0.5
 40
0.5
 40
0.75
 40
0.75
 40
0.75
 40
0.75
 40
1.0
 40
1.0
 40
1.0
 40
1.0
 10
-12.171799999999999
 20
57.116599999999998
 30
0.0
 10
-12.171799999999999
 20
57.116599999999998
 30
0.0
 10
3.4077999999999999
 20
58.926600000000001
 30
0.0
 10
3.4077999999999999
 20
58.926600000000001
 30
0.0
 10
3.4077999999999999
 20
58.926600000000001
 30
0.0
 10
3.4077999999999999
 20
58.926600000000001
 30
0.0
 10
-1.7135
 20
55.730499999999999
 30
0.0
 10
-1.7135
 20
55.730499999999999
 30
0.0
 10
-1.7135
 20
55.730499999999999
 30
0.0
 10
-1.7135
 20
55.730499999999999
 30
0.0
 10
-2.6669
 20
48.131500000000003
 30
0.0
 10
-2.6669
 20
48.131500000000003
 30
0.0
 10
-2.6669
 20
48.131500000000003
 30
0.0
 10
-6.4436999999999998
 20
50.410899999999998
 30
0.0
 10
-9.6890000000000001
 20
53.482599999999998
 30
0.0
 10
-12.171799999999999
 20
57.116599999999998
 30
0.0
  0
SPLINE
  5
42
100
AcDbEntity
  8
RÚteg 1
 62
     7
100
AcDbSpline
210
0.0
220
0.0
230
1.0
 70
     1
 71
     3
 72
    24
 73
    20
 74
     0
 42
0.0000000001
 43
0.0000000001
 40
0.0
 40
0.0
 40
0.0
 40
0.0
 40
0.2
 40
0.2
 40
0.2
 40
0.2
 40
0.4
 40
0.4
 40
0.4
 40
0.4
 40
0.6000000000000001
 40
0.6000000000000001
 40
0.6000000000000001
 40
0.6000000000000001
 40
0.8
 40
0.8
 40
0.8
 40
0.8
 40
1.0
 40
1.0
 40
1.0
 40
1.0
 10
-1.7114
 20
47.579599999999999
 30
0.0
 10
-1.7114
 20
47.579599999999999
 30
0.0
 10
4.3734000000000002
 20
52.207000000000001
 30
0.0
 10
4.3734000000000002
 20
52.207000000000001
 30
0.0
 10
4.3734000000000002
 20
52.207000000000001
 30
0.0
 10
4.3734000000000002
 20
52.207000000000001
 30
0.0
 10
4.5232999999999999
 20
58.2029
 30
0.0
 10
4.5232999999999999
 20
58.2029
 30
0.0
 10
4.5232999999999999
 20
58.2029
 30
0.0
 10
4.5232999999999999
 20
58.2029
 30
0.0
 10
4.6101000000000001
 20
58.224699999999999
 30
0.0
 10
4.6101000000000001
 20
58.224699999999999
 30
0.0
 10
4.6101000000000001
 20
58.224699999999999
 30
0.0
 10
4.6101000000000001
 20
58.224699999999999
 30
0.0
 10
10.8468
 20
43.831800000000001
 30
0.0
 10
10.8468
 20
43.831800000000001
 30
0.0
 10
10.8468
 20
43.831800000000001
 30
0.0
 10
6.3152999999999997
 20
44.165700000000001
 30
0.0
 10
2.0581999999999998
 20
45.486400000000003
 30
0.0
 10
-1.7114
 20
47.579599999999999
 30
0.0
  0
SPLINE
  5
43
100
AcDbEntity
  8
RÚteg 1
 62
     7
100
AcDbSpline
210
0.0
220
0.0
230
1.0
 70
     1
 71
     3
 72
    24
 73
    20
 74
     0
 42
0.0000000001
 43
0.0000000001
 40
0.0
 40
0.0
 40
0.0
 40
0.0
 40
0.2
 40
0.2
 40
0.2
 40
0.2
 40
0.4
 40
0.4
 40
0.4
 40
0.4
 40
0.6000000000000001
 40
0.6000000000000001
 40
0.6000000000000001
 40
0.6000000000000001
 40
0.8
 40
0.8
 40
0.8
 40
0.8
 40
1.0
 40
1.0
 40
1.0
 40
1.0
 10
11.5199
 20
43.789200000000001
 30
0.0
 10
11.5199
 20
43.789200000000001
 30
0.0
 10
13.082599999999999
 20
52.1877
 30
0.0
 10
13.082599999999999
 20
52.1877
 30
0.0
 10
13.082599999999999
 20
52.1877
 30
0.0
 10
13.082599999999999
 20
52.1877
 30
0.0
 10
13.2134
 20
52.196300000000001
 30
0.0
 10
13.2134
 20
52.196300000000001
 30
0.0
 10
13.2134
 20
52.196300000000001
 30
0.0
 10
13.2134
 20
52.196300000000001
 30
0.0
 10
14.779299999999999
 20
43.792499999999997
 30
0.0
 10
14.779299999999999
 20
43.792499999999997
 30
0.0
 10
14.779299999999999
 20
43.792499999999997
 30
0.0
 10
14.231400000000001
 20
43.763199999999998
 30
0.0
 10
13.680099999999999
 20
43.747500000000002
 30
0.0
 10
13.125
 20
43.747500000000002
 30
0.0
 10
13.125
 20
43.747500000000002
 30
0.0
 10
12.586600000000001
 20
43.747500000000002
 30
0.0
 10
12.051399999999999
 20
43.761600000000001
 30
0.0
 10
11.5199
 20
43.789200000000001
 30
0.0
  0
SPLINE
  5
44
100
AcDbEntity
  8
RÚteg 1
 62
     7
100
AcDbSpline
210
0.0
220
0.0
230
1.0
 70
     1
 71
     3
 72
    24
 73
    20
 74
     0
 42
0.0000000001
 43
0.0000000001
 40
0.0
 40
0.0
 40
0.0
 40
0.0
 40
0.2
 40
0.2
 40
0.2
 40
0.2
 40
0.4
 40
0.4
 40
0.4
 40
0.4
 40
0.6000000000000001
 40
0.6000000000000001
 40
0.6000000000000001
 40
0.6000000000000001
 40
0.8
 40
0.8
 40
0.8
 40
0.8
 40
1.0
 40
1.0
 40
1.0
 40
1.0
 10
15.4598
 20
43.835500000000003
 30
0.0
 10
15.4598
 20
43.835500000000003
 30
0.0
 10
21.640000000000001
 20
58.224699999999999
 30
0.0
 10
21.640000000000001
 20
58.224699999999999
 30
0.0
 10
21.640000000000001
 20
58.224699999999999
 30
0.0
 10
21.640000000000001
 20
58.224699999999999
 30
0.0
 10
21.730699999999999
 20
58.203000000000003
 30
0.0
 10
21.730699999999999
 20
58.203000000000003
 30
0.0
 10
21.730699999999999
 20
58.203000000000003
 30
0.0
 10
21.730699999999999
 20
58.203000000000003
 30
0.0
 10
21.868300000000001
 20
52.196300000000001
 30
0.0
 10
21.868300000000001
 20
52.196300000000001
 30
0.0
 10
21.868300000000001
 20
52.196300000000001
 30
0.0
 10
21.868300000000001
 20
52.196300000000001
 30
0.0
 10
27.952100000000002
 20
47.574399999999997
 30
0.0
 10
27.952100000000002
 20
47.574399999999997
 30
0.0
 10
27.952100000000002
 20
47.574399999999997
 30
0.0
 10
24.200299999999999
 20
45.493299999999998
 30
0.0
 10
19.966699999999999
 20
44.1755
 30
0.0
 10
15.4598
 20
43.835500000000003
 30
0.0
  0
SPLINE
  5
45
100
AcDbEntity
  8
RÚteg 1
 62
     7
100
AcDbSpline
210
0.0
220
0.0
230
1.0
 70
     1
 71
     3
 72
    20
 73
    16
 74
     0
 42
0.0000000001
 43
0.0000000001
 40
0.0
 40
0.0
 40
0.0
 40
0.0
 40
0.25
 40
0.25
 40
0.25
 40
0.25
 40
0.5
 40
0.5
 40
0.5
 40
0.5
 40
0.75
 40
0.75
 40
0.75
 40
0.75
 40
1.0
 40
1.0
 40
1.0
 40
1.0
 10
28.9129
 20
48.129300000000001
 30
0.0
 10
28.9129
 20
48.129300000000001
 30
0.0
 10
27.926100000000002
 20
55.724499999999999
 30
0.0
 10
27.926100000000002
 20
55.724499999999999
 30
0.0
 10
27.926100000000002
 20
55.724499999999999
 30
0.0
 10
27.926100000000002
 20
55.724499999999999
 30
0.0
 10
22.811599999999999
 20
58.861600000000003
 30
0.0
 10
22.811599999999999
 20
58.861600000000003
 30
0.0
 10
22.811599999999999
 20
58.861600000000003
 30
0.0
 10
22.811599999999999
 20
58.861600000000003
 30
0.0
 10
38.423099999999998
 20
57.118499999999997
 30
0.0
 10
38.423099999999998
 20
57.118499999999997
 30
0.0
 10
38.423099999999998
 20
57.118499999999997
 30
0.0
 10
35.939
 20
53.482599999999998
 30
0.0
 10
32.692599999999999
 20
50.409100000000002
 30
0.0
 10
28.9129
 20
48.129300000000001
 30
0.0
  0
SPLINE
  5
46
100
AcDbEntity
  8
RÚteg 1
 62
     7
100
AcDbSpline
210
0.0
220
0.0
230
1.0
 70
     1
 71
     3
 72
    16
 73
    12
 74
     0
 42
0.0000000001
 43
0.0000000001
 40
0.0
 40
0.0
 40
0.0
 40
0.0
 40
0.3333333333333333
 40
0.3333333333333333
 40
0.3333333333333333
 40
0.3333333333333333
 40
0.6666666666666666
 40
0.6666666666666666
 40
0.6666666666666666
 40
0.6666666666666666
 40
1.0
 40
1.0
 40
1.0
 40
1.0
 10
38.741100000000003
 20
57.5946
 30
0.0
 10
38.741100000000003
 20
57.5946
 30
0.0
 10
32.260599999999997
 20
63.290300000000002
 30
0.0
 10
32.260599999999997
 20
63.290300000000002
 30
0.0
 10
32.260599999999997
 20
63.290300000000002
 30
0.0
 10
32.260599999999997
 20
63.290300000000002
 30
0.0
 10
40.428100000000001
 20
60.499600000000001
 30
0.0
 10
40.428100000000001
 20
60.499600000000001
 30
0.0
 10
40.428100000000001
 20
60.499600000000001
 30
0.0
 10
39.918300000000002
 20
59.498199999999997
 30
0.0
 10
39.353999999999999
 20
58.5291
 30
0.0
 10
38.741100000000003
 20
57.5946
 30
0.0
  0
SPLINE
  5
47
100
AcDbEntity
  8
RÚteg 1
 62
     7
100
AcDbSpline
210
0.0
220
0.0
230
1.0
 70
     1
 71
     3
 72
    20
 73
    16
 74
     0
 42
0.0000000001
 43
0.0000000001
 40
0.0
 40
0.0
 40
0.0
 40
0.0
 40
0.25
 40
0.25
 40
0.25
 40
0.25
 40
0.5
 40
0.5
 40
0.5
 40
0.5
 40
0.75
 40
0.75
 40
0.75
 40
0.75
 40
1.0
 40
1.0
 40
1.0
 40
1.0
 10
40.687600000000003
 20
61.021599999999999
 30
0.0
 10
40.687600000000003
 20
61.021599999999999
 30
0.0
 10
31.383900000000001
 20
73.641099999999994
 30
0.0
 10
31.383900000000001
 20
73.641099999999994
 30
0.0
 10
31.383900000000001
 20
73.641099999999994
 30
0.0
 10
31.383900000000001
 20
73.641099999999994
 30
0.0
 10
36.6342
 20
70.8613
 30
0.0
 10
36.6342
 20
70.8613
 30
0.0
 10
36.6342
 20
70.8613
 30
0.0
 10
36.6342
 20
70.8613
 30
0.0
 10
43.735300000000002
 20
73.813900000000004
 30
0.0
 10
43.735300000000002
 20
73.813900000000004
 30
0.0
 10
43.735300000000002
 20
73.813900000000004
 30
0.0
 10
43.654400000000003
 20
69.234499999999997
 30
0.0
 10
42.569400000000002
 20
64.8994
 30
0.0
 10
40.687600000000003
 20
61.021599999999999
 30
0.0
  0
SPLINE
  5
48
100
AcDbEntity
  8
RÚteg 1
 62
     7
100
AcDbSpline
210
0.0
220
0.0
230
1.0
 70
     1
 71
     3
 72
    20
 73
    16
 74
     0
 42
0.0000000001
 43
0.0000000001
 40
0.0
 40
0.0
 40
0.0
 40
0.0
 40
0.25
 40
0.25
 40
0.25
 40
0.25
 40
0.5
 40
0.5
 40
0.5
 40
0.5
 40
0.75
 40
0.75
 40
0.75
 40
0.75
 40
1.0
 40
1.0
 40
1.0
 40
1.0
 10
43.734999999999999
 20
74.943899999999999
 30
0.0
 10
43.734999999999999
 20
74.943899999999999
 30
0.0
 10
36.615699999999997
 20
77.8917
 30
0.0
 10
36.615699999999997
 20
77.8917
 30
0.0
 10
36.615699999999997
 20
77.8917
 30
0.0
 10
36.615699999999997
 20
77.8917
 30
0.0
 10
31.433900000000001
 20
75.022900000000007
 30
0.0
 10
31.433900000000001
 20
75.022900000000007
 30
0.0
 10
31.433900000000001
 20
75.022900000000007
 30
0.0
 10
31.433900000000001
 20
75.022900000000007
 30
0.0
 10
40.714300000000001
 20
87.654399999999995
 30
0.0
 10
40.714300000000001
 20
87.654399999999995
 30
0.0
 10
40.714300000000001
 20
87.654399999999995
 30
0.0
 10
42.575499999999998
 20
83.797899999999998
 30
0.0
 10
43.650500000000001
 20
79.491900000000001
 30
0.0
 10
43.734999999999999
 20
74.943899999999999
 30
0.0
  0
SPLINE
  5
49
100
AcDbEntity
  8
RÚteg 1
 62
     7
100
AcDbSpline
210
0.0
220
0.0
230
1.0
 70
     1
 71
     3
 72
    16
 73
    12
 74
     0
 42
0.0000000001
 43
0.0000000001
 40
0.0
 40
0.0
 40
0.0
 40
0.0
 40
0.3333333333333333
 40
0.3333333333333333
 40
0.3333333333333333
 40
0.3333333333333333
 40
0.6666666666666666
 40
0.6666666666666666
 40
0.6666666666666666
 40
0.6666666666666666
 40
1.0
 40
1.0
 40
1.0
 40
1.0
 10
40.4512
 20
88.183800000000005
 30
0.0
 10
40.4512
 20
88.183800000000005
 30
0.0
 10
32.290599999999998
 20
85.404200000000003
 30
0.0
 10
32.290599999999998
 20
85.404200000000003
 30
0.0
 10
32.290599999999998
 20
85.404200000000003
 30
0.0
 10
32.290599999999998
 20
85.404200000000003
 30
0.0
 10
38.781700000000001
 20
91.073099999999997
 30
0.0
 10
38.781700000000001
 20
91.073099999999997
 30
0.0
 10
38.781700000000001
 20
91.073099999999997
 30
0.0
 10
39.388300000000001
 20
90.143600000000006
 30
0.0
 10
39.9465
 20
89.179500000000004
 30
0.0
 10
40.4512
 20
88.183800000000005
 30
0.0
  0
SPLINE
  5
4A
100
AcDbEntity
  8
RÚteg 1
 62
     7
100
AcDbSpline
210
0.0
220
0.0
230
1.0
 70
     1
 71
     3
 72
    20
 73
    16
 74
     0
 42
0.0000000001
 43
0.0000000001
 40
0.0
 40
0.0
 40
0.0
 40
0.0
 40
0.25
 40
0.25
 40
0.25
 40
0.25
 40
0.5
 40
0.5
 40
0.5
 40
0.5
 40
0.75
 40
0.75
 40
0.75
 40
0.75
 40
1.0
 40
1.0
 40
1.0
 40
1.0
 10
38.421900000000001
 20
91.612799999999993
 30
0.0
 10
38.421900000000001
 20
91.612799999999993
 30
0.0
 10
22.842700000000001
 20
89.799499999999995
 30
0.0
 10
22.842700000000001
 20
89.799499999999995
 30
0.0
 10
22.842700000000001
 20
89.799499999999995
 30
0.0
 10
22.842700000000001
 20
89.799499999999995
 30
0.0
 10
27.9635
 20
92.998999999999995
 30
0.0
 10
27.9635
 20
92.998999999999995
 30
0.0
 10
27.9635
 20
92.998999999999995
 30
0.0
 10
27.9635
 20
92.998999999999995
 30
0.0
 10
28.913900000000002
 20
100.5998
 30
0.0
 10
28.913900000000002
 20
100.5998
 30
0.0
 10
28.913900000000002
 20
100.5998
 30
0.0
 10
32.692399999999999
 20
98.319999999999993
 30
0.0
 10
35.938699999999997
 20
95.247699999999995
 30
0.0
 10
38.421900000000001
 20
91.612799999999993
 30
0.0
  0
SPLINE
  5
4B
100
AcDbEntity
  8
RÚteg 1
 62
     7
100
AcDbSpline
210
0.0
220
0.0
230
1.0
 70
     1
 71
     3
 72
    24
 73
    20
 74
     0
 42
0.0000000001
 43
0.0000000001
 40
0.0
 40
0.0
 40
0.0
 40
0.0
 40
0.2
 40
0.2
 40
0.2
 40
0.2
 40
0.4
 40
0.4
 40
0.4
 40
0.4
 40
0.6000000000000001
 40
0.6000000000000001
 40
0.6000000000000001
 40
0.6000000000000001
 40
0.8
 40
0.8
 40
0.8
 40
0.8
 40
1.0
 40
1.0
 40
1.0
 40
1.0
 10
27.959900000000001
 20
101.1507
 30
0.0
 10
27.959900000000001
 20
101.1507
 30
0.0
 10
21.878299999999999
 20
96.520200000000003
 30
0.0
 10
21.878299999999999
 20
96.520200000000003
 30
0.0
 10
21.878299999999999
 20
96.520200000000003
 30
0.0
 10
21.878299999999999
 20
96.520200000000003
 30
0.0
 10
21.730699999999999
 20
90.526399999999995
 30
0.0
 10
21.730699999999999
 20
90.526399999999995
 30
0.0
 10
21.730699999999999
 20
90.526399999999995
 30
0.0
 10
21.730699999999999
 20
90.526399999999995
 30
0.0
 10
21.640000000000001
 20
90.504800000000003
 30
0.0
 10
21.640000000000001
 20
90.504800000000003
 30
0.0
 10
21.640000000000001
 20
90.504800000000003
 30
0.0
 10
21.640000000000001
 20
90.504800000000003
 30
0.0
 10
15.4033
 20
104.8977
 30
0.0
 10
15.4033
 20
104.8977
 30
0.0
 10
15.4033
 20
104.8977
 30
0.0
 10
19.934200000000001
 20
104.5639
 30
0.0
 10
24.190999999999999
 20
103.2435
 30
0.0
 10
27.959900000000001
 20
101.1507
 30
0.0
  0
SPLINE
  5
4C
100
AcDbEntity
  8
RÚteg 1
 62
     7
100
AcDbSpline
210
0.0
220
0.0
230
1.0
 70
     1
 71
     3
 72
    24
 73
    20
 74
     0
 42
0.0000000001
 43
0.0000000001
 40
0.0
 40
0.0
 40
0.0
 40
0.0
 40
0.2
 40
0.2
 40
0.2
 40
0.2
 40
0.4
 40
0.4
 40
0.4
 40
0.4
 40
0.6000000000000001
 40
0.6000000000000001
 40
0.6000000000000001
 40
0.6000000000000001
 40
0.8
 40
0.8
 40
0.8
 40
0.8
 40
1.0
 40
1.0
 40
1.0
 40
1.0
 10
14.730600000000001
 20
104.9402
 30
0.0
 10
14.730600000000001
 20
104.9402
 30
0.0
 10
13.171900000000001
 20
96.5411
 30
0.0
 10
13.171900000000001
 20
96.5411
 30
0.0
 10
13.171900000000001
 20
96.5411
 30
0.0
 10
13.171900000000001
 20
96.5411
 30
0.0
 10
13.0367
 20
96.533199999999994
 30
0.0
 10
13.0367
 20
96.533199999999994
 30
0.0
 10
13.0367
 20
96.533199999999994
 30
0.0
 10
13.0367
 20
96.533199999999994
 30
0.0
 10
11.478199999999999
 20
104.9378
 30
0.0
 10
11.478199999999999
 20
104.9378
 30
0.0
 10
11.478199999999999
 20
104.9378
 30
0.0
 10
12.0235
 20
104.9666
 30
0.0
 10
12.5724
 20
104.98220000000001
 30
0.0
 10
13.125
 20
104.98220000000001
 30
0.0
 10
13.125
 20
104.98220000000001
 30
0.0
 10
13.663600000000001
 20
104.98220000000001
 30
0.0
 10
14.199
 20
104.968
 30
0.0
 10
14.730600000000001
 20
104.9402
 30
0.0
  0
SPLINE
  5
4D
100
AcDbEntity
  8
RÚteg 1
 62
     7
100
AcDbSpline
210
0.0
220
0.0
230
1.0
 70
     1
 71
     3
 72
    24
 73
    20
 74
     0
 42
0.0000000001
 43
0.0000000001
 40
0.0
 40
0.0
 40
0.0
 40
0.0
 40
0.2
 40
0.2
 40
0.2
 40
0.2
 40
0.4
 40
0.4
 40
0.4
 40
0.4
 40
0.6000000000000001
 40
0.6000000000000001
 40
0.6000000000000001
 40
0.6000000000000001
 40
0.8
 40
0.8
 40
0.8
 40
0.8
 40
1.0
 40
1.0
 40
1.0
 40
1.0
 10
10.8268
 20
104.8965
 30
0.0
 10
10.8268
 20
104.8965
 30
0.0
 10
4.6097000000000001
 20
90.504999999999995
 30
0.0
 10
4.6097000000000001
 20
90.504999999999995
 30
0.0
 10
4.6097000000000001
 20
90.504999999999995
 30
0.0
 10
4.6097000000000001
 20
90.504999999999995
 30
0.0
 10
4.5232999999999999
 20
90.526399999999995
 30
0.0
 10
4.5232999999999999
 20
90.526399999999995
 30
0.0
 10
4.5232999999999999
 20
90.526399999999995
 30
0.0
 10
4.5232999999999999
 20
90.526399999999995
 30
0.0
 10
4.383
 20
96.533299999999997
 30
0.0
 10
4.383
 20
96.533299999999997
 30
0.0
 10
4.383
 20
96.533299999999997
 30
0.0
 10
4.383
 20
96.533299999999997
 30
0.0
 10
-1.7084999999999999
 20
101.15170000000001
 30
0.0
 10
-1.7084999999999999
 20
101.15170000000001
 30
0.0
 10
-1.7084999999999999
 20
101.15170000000001
 30
0.0
 10
2.0548000000000002
 20
103.2406
 30
0.0
 10
6.3038999999999996
 20
104.5605
 30
0.0
 10
10.8268
 20
104.8965
 30
0.0
  0
SPLINE
  5
4E
100
AcDbEntity
  8
RÚteg 1
 62
     7
100
AcDbSpline
210
0.0
220
0.0
230
1.0
 70
     1
 71
     3
 72
    44
 73
    40
 74
     0
 42
0.0000000001
 43
0.0000000001
 40
0.0
 40
0.0
 40
0.0
 40
0.0
 40
0.1
 40
0.1
 40
0.1
 40
0.1
 40
0.2
 40
0.2
 40
0.2
 40
0.2
 40
0.3
 40
0.3
 40
0.3
 40
0.3
 40
0.4
 40
0.4
 40
0.4
 40
0.4
 40
0.5
 40
0.5
 40
0.5
 40
0.5
 40
0.6
 40
0.6
 40
0.6
 40
0.6
 40
0.7
 40
0.7
 40
0.7
 40
0.7
 40
0.7999999999999999
 40
0.7999999999999999
 40
0.7999999999999999
 40
0.7999999999999999
 40
0.8999999999999999
 40
0.8999999999999999
 40
0.8999999999999999
 40
0.8999999999999999
 40
1.0
 40
1.0
 40
1.0
 40
1.0
 10
13.1251
 20
83.190200000000004
 30
0.0
 10
13.1251
 20
83.190200000000004
 30
0.0
 10
15.3057
 20
76.4345
 30
0.0
 10
15.3057
 20
76.4345
 30
0.0
 10
15.3057
 20
76.4345
 30
0.0
 10
15.3057
 20
76.4345
 30
0.0
 10
22.404499999999999
 20
76.4482
 30
0.0
 10
22.404499999999999
 20
76.4482
 30
0.0
 10
22.404499999999999
 20
76.4482
 30
0.0
 10
22.404499999999999
 20
76.4482
 30
0.0
 10
16.653400000000001
 20
72.286799999999999
 30
0.0
 10
16.653400000000001
 20
72.286799999999999
 30
0.0
 10
16.653400000000001
 20
72.286799999999999
 30
0.0
 10
16.653400000000001
 20
72.286799999999999
 30
0.0
 10
18.8599
 20
65.539500000000004
 30
0.0
 10
18.8599
 20
65.539500000000004
 30
0.0
 10
18.8599
 20
65.539500000000004
 30
0.0
 10
18.8599
 20
65.539500000000004
 30
0.0
 10
13.1251
 20
69.723100000000002
 30
0.0
 10
13.1251
 20
69.723100000000002
 30
0.0
 10
13.1251
 20
69.723100000000002
 30
0.0
 10
13.1251
 20
69.723100000000002
 30
0.0
 10
7.3901000000000003
 20
65.539500000000004
 30
0.0
 10
7.3901000000000003
 20
65.539500000000004
 30
0.0
 10
7.3901000000000003
 20
65.539500000000004
 30
0.0
 10
7.3901000000000003
 20
65.539500000000004
 30
0.0
 10
9.5966000000000005
 20
72.286799999999999
 30
0.0
 10
9.5966000000000005
 20
72.286799999999999
 30
0.0
 10
9.5966000000000005
 20
72.286799999999999
 30
0.0
 10
9.5966000000000005
 20
72.286799999999999
 30
0.0
 10
3.8454999999999999
 20
76.4482
 30
0.0
 10
3.8454999999999999
 20
76.4482
 30
0.0
 10
3.8454999999999999
 20
76.4482
 30
0.0
 10
3.8454999999999999
 20
76.4482
 30
0.0
 10
10.9443
 20
76.4345
 30
0.0
 10
10.9443
 20
76.4345
 30
0.0
 10
10.9443
 20
76.4345
 30
0.0
 10
10.9443
 20
76.4345
 30
0.0
 10
13.1251
 20
83.190200000000004
 30
0.0
 10
13.1251
 20
83.190200000000004
 30
0.0
  0
SPLINE
  5
4F
100
AcDbEntity
  8
RÚteg 1
 62
     7
100
AcDbSpline
210
0.0
220
0.0
230
1.0
 70
     1
 71
     3
 72
    52
 73
    48
 74
     0
 42
0.0000000001
 43
0.0000000001
 40
0.0
 40
0.0
 40
0.0
 40
0.0
 40
0.0833333333333333
 40
0.0833333333333333
 40
0.0833333333333333
 40
0.0833333333333333
 40
0.1666666666666667
 40
0.1666666666666667
 40
0.1666666666666667
 40
0.1666666666666667
 40
0.25
 40
0.25
 40
0.25
 40
0.25
 40
0.3333333333333333
 40
0.3333333333333333
 40
0.3333333333333333
 40
0.3333333333333333
 40
0.4166666666666666
 40
0.4166666666666666
 40
0.4166666666666666
 40
0.4166666666666666
 40
0.4999999999999999
 40
0.4999999999999999
 40
0.4999999999999999
 40
0.4999999999999999
 40
0.5833333333333333
 40
0.5833333333333333
 40
0.5833333333333333
 40
0.5833333333333333
 40
0.6666666666666666
 40
0.6666666666666666
 40
0.6666666666666666
 40
0.6666666666666666
 40
0.75
 40
0.75
 40
0.75
 40
0.75
 40
0.8333333333333334
 40
0.8333333333333334
 40
0.8333333333333334
 40
0.8333333333333334
 40
0.9166666666666667
 40
0.9166666666666667
 40
0.9166666666666667
 40
0.9166666666666667
 40
1.0
 40
1.0
 40
1.0
 40
1.0
 10
29.383500000000002
 20
83.751599999999996
 30
0.0
 10
29.383500000000002
 20
83.751599999999996
 30
0.0
 10
29.182600000000001
 20
82.089299999999994
 30
0.0
 10
29.182600000000001
 20
82.089299999999994
 30
0.0
 10
29.182600000000001
 20
82.089299999999994
 30
0.0
 10
29.182600000000001
 20
82.089299999999994
 30
0.0
 10
28.9816
 20
80.427000000000007
 30
0.0
 10
28.9816
 20
80.427000000000007
 30
0.0
 10
28.9816
 20
80.427000000000007
 30
0.0
 10
28.9816
 20
80.427000000000007
 30
0.0
 10
27.2408
 20
79.421899999999994
 30
0.0
 10
27.2408
 20
79.421899999999994
 30
0.0
 10
27.2408
 20
79.421899999999994
 30
0.0
 10
27.2408
 20
79.421899999999994
 30
0.0
 10
25.4998
 20
78.416799999999995
 30
0.0
 10
25.4998
 20
78.416799999999995
 30
0.0
 10
25.4998
 20
78.416799999999995
 30
0.0
 10
25.4998
 20
78.416799999999995
 30
0.0
 10
23.959700000000002
 20
79.073899999999995
 30
0.0
 10
23.959700000000002
 20
79.073899999999995
 30
0.0
 10
23.959700000000002
 20
79.073899999999995
 30
0.0
 10
23.959700000000002
 20
79.073899999999995
 30
0.0
 10
22.419799999999999
 20
79.730999999999995
 30
0.0
 10
22.419799999999999
 20
79.730999999999995
 30
0.0
 10
22.419799999999999
 20
79.730999999999995
 30
0.0
 10
22.419799999999999
 20
79.730999999999995
 30
0.0
 10
22.6204
 20
81.393299999999996
 30
0.0
 10
22.6204
 20
81.393299999999996
 30
0.0
 10
22.6204
 20
81.393299999999996
 30
0.0
 10
22.6204
 20
81.393299999999996
 30
0.0
 10
22.821300000000001
 20
83.055700000000002
 30
0.0
 10
22.821300000000001
 20
83.055700000000002
 30
0.0
 10
22.821300000000001
 20
83.055700000000002
 30
0.0
 10
22.821300000000001
 20
83.055700000000002
 30
0.0
 10
24.5623
 20
84.060900000000004
 30
0.0
 10
24.5623
 20
84.060900000000004
 30
0.0
 10
24.5623
 20
84.060900000000004
 30
0.0
 10
24.5623
 20
84.060900000000004
 30
0.0
 10
26.3034
 20
85.066100000000006
 30
0.0
 10
26.3034
 20
85.066100000000006
 30
0.0
 10
26.3034
 20
85.066100000000006
 30
0.0
 10
26.3034
 20
85.066100000000006
 30
0.0
 10
27.843399999999999
 20
84.408799999999999
 30
0.0
 10
27.843399999999999
 20
84.408799999999999
 30
0.0
 10
27.843399999999999
 20
84.408799999999999
 30
0.0
 10
27.843399999999999
 20
84.408799999999999
 30
0.0
 10
29.383500000000002
 20
83.751599999999996
 30
0.0
 10
29.383500000000002
 20
83.751599999999996
 30
0.0
  0
SPLINE
  5
50
100
AcDbEntity
  8
RÚteg 1
 62
     7
100
AcDbSpline
210
0.0
220
0.0
230
1.0
 70
     1
 71
     3
 72
    52
 73
    48
 74
     0
 42
0.0000000001
 43
0.0000000001
 40
0.0
 40
0.0
 40
0.0
 40
0.0
 40
0.0833333333333333
 40
0.0833333333333333
 40
0.0833333333333333
 40
0.0833333333333333
 40
0.1666666666666667
 40
0.1666666666666667
 40
0.1666666666666667
 40
0.1666666666666667
 40
0.25
 40
0.25
 40
0.25
 40
0.25
 40
0.3333333333333333
 40
0.3333333333333333
 40
0.3333333333333333
 40
0.3333333333333333
 40
0.4166666666666666
 40
0.4166666666666666
 40
0.4166666666666666
 40
0.4166666666666666
 40
0.4999999999999999
 40
0.4999999999999999
 40
0.4999999999999999
 40
0.4999999999999999
 40
0.5833333333333333
 40
0.5833333333333333
 40
0.5833333333333333
 40
0.5833333333333333
 40
0.6666666666666666
 40
0.6666666666666666
 40
0.6666666666666666
 40
0.6666666666666666
 40
0.75
 40
0.75
 40
0.75
 40
0.75
 40
0.8333333333333334
 40
0.8333333333333334
 40
0.8333333333333334
 40
0.8333333333333334
 40
0.9166666666666667
 40
0.9166666666666667
 40
0.9166666666666667
 40
0.9166666666666667
 40
1.0
 40
1.0
 40
1.0
 40
1.0
 10
29.383500000000002
 20
64.977999999999994
 30
0.0
 10
29.383500000000002
 20
64.977999999999994
 30
0.0
 10
27.843399999999999
 20
64.320899999999995
 30
0.0
 10
27.843399999999999
 20
64.320899999999995
 30
0.0
 10
27.843399999999999
 20
64.320899999999995
 30
0.0
 10
27.843399999999999
 20
64.320899999999995
 30
0.0
 10
26.3034
 20
63.663600000000002
 30
0.0
 10
26.3034
 20
63.663600000000002
 30
0.0
 10
26.3034
 20
63.663600000000002
 30
0.0
 10
26.3034
 20
63.663600000000002
 30
0.0
 10
24.5623
 20
64.668899999999994
 30
0.0
 10
24.5623
 20
64.668899999999994
 30
0.0
 10
24.5623
 20
64.668899999999994
 30
0.0
 10
24.5623
 20
64.668899999999994
 30
0.0
 10
22.821300000000001
 20
65.6738
 30
0.0
 10
22.821300000000001
 20
65.6738
 30
0.0
 10
22.821300000000001
 20
65.6738
 30
0.0
 10
22.821300000000001
 20
65.6738
 30
0.0
 10
22.6204
 20
67.336200000000005
 30
0.0
 10
22.6204
 20
67.336200000000005
 30
0.0
 10
22.6204
 20
67.336200000000005
 30
0.0
 10
22.6204
 20
67.336200000000005
 30
0.0
 10
22.4194
 20
68.998400000000004
 30
0.0
 10
22.4194
 20
68.998400000000004
 30
0.0
 10
22.4194
 20
68.998400000000004
 30
0.0
 10
22.4194
 20
68.998400000000004
 30
0.0
 10
23.959700000000002
 20
69.656000000000006
 30
0.0
 10
23.959700000000002
 20
69.656000000000006
 30
0.0
 10
23.959700000000002
 20
69.656000000000006
 30
0.0
 10
23.959700000000002
 20
69.656000000000006
 30
0.0
 10
25.4998
 20
70.312899999999999
 30
0.0
 10
25.4998
 20
70.312899999999999
 30
0.0
 10
25.4998
 20
70.312899999999999
 30
0.0
 10
25.4998
 20
70.312899999999999
 30
0.0
 10
27.2408
 20
69.3078
 30
0.0
 10
27.2408
 20
69.3078
 30
0.0
 10
27.2408
 20
69.3078
 30
0.0
 10
27.2408
 20
69.3078
 30
0.0
 10
28.9816
 20
68.302999999999997
 30
0.0
 10
28.9816
 20
68.302999999999997
 30
0.0
 10
28.9816
 20
68.302999999999997
 30
0.0
 10
28.9816
 20
68.302999999999997
 30
0.0
 10
29.182600000000001
 20
66.6404
 30
0.0
 10
29.182600000000001
 20
66.6404
 30
0.0
 10
29.182600000000001
 20
66.6404
 30
0.0
 10
29.182600000000001
 20
66.6404
 30
0.0
 10
29.383500000000002
 20
64.977999999999994
 30
0.0
 10
29.383500000000002
 20
64.977999999999994
 30
0.0
  0
SPLINE
  5
51
100
AcDbEntity
  8
RÚteg 1
 62
     7
100
AcDbSpline
210
0.0
220
0.0
230
1.0
 70
     1
 71
     3
 72
    52
 73
    48
 74
     0
 42
0.0000000001
 43
0.0000000001
 40
0.0
 40
0.0
 40
0.0
 40
0.0
 40
0.0833333333333333
 40
0.0833333333333333
 40
0.0833333333333333
 40
0.0833333333333333
 40
0.1666666666666667
 40
0.1666666666666667
 40
0.1666666666666667
 40
0.1666666666666667
 40
0.25
 40
0.25
 40
0.25
 40
0.25
 40
0.3333333333333333
 40
0.3333333333333333
 40
0.3333333333333333
 40
0.3333333333333333
 40
0.4166666666666666
 40
0.4166666666666666
 40
0.4166666666666666
 40
0.4166666666666666
 40
0.4999999999999999
 40
0.4999999999999999
 40
0.4999999999999999
 40
0.4999999999999999
 40
0.5833333333333333
 40
0.5833333333333333
 40
0.5833333333333333
 40
0.5833333333333333
 40
0.6666666666666666
 40
0.6666666666666666
 40
0.6666666666666666
 40
0.6666666666666666
 40
0.75
 40
0.75
 40
0.75
 40
0.75
 40
0.8333333333333334
 40
0.8333333333333334
 40
0.8333333333333334
 40
0.8333333333333334
 40
0.9166666666666667
 40
0.9166666666666667
 40
0.9166666666666667
 40
0.9166666666666667
 40
1.0
 40
1.0
 40
1.0
 40
1.0
 10
13.1251
 20
55.5914
 30
0.0
 10
13.1251
 20
55.5914
 30
0.0
 10
11.7858
 20
56.596400000000003
 30
0.0
 10
11.7858
 20
56.596400000000003
 30
0.0
 10
11.7858
 20
56.596400000000003
 30
0.0
 10
11.7858
 20
56.596400000000003
 30
0.0
 10
10.4465
 20
57.601599999999998
 30
0.0
 10
10.4465
 20
57.601599999999998
 30
0.0
 10
10.4465
 20
57.601599999999998
 30
0.0
 10
10.4465
 20
57.601599999999998
 30
0.0
 10
10.4465
 20
59.611899999999999
 30
0.0
 10
10.4465
 20
59.611899999999999
 30
0.0
 10
10.4465
 20
59.611899999999999
 30
0.0
 10
10.4465
 20
59.611899999999999
 30
0.0
 10
10.4465
 20
61.622100000000003
 30
0.0
 10
10.4465
 20
61.622100000000003
 30
0.0
 10
10.4465
 20
61.622100000000003
 30
0.0
 10
10.4465
 20
61.622100000000003
 30
0.0
 10
11.7858
 20
62.627200000000002
 30
0.0
 10
11.7858
 20
62.627200000000002
 30
0.0
 10
11.7858
 20
62.627200000000002
 30
0.0
 10
11.7858
 20
62.627200000000002
 30
0.0
 10
13.1251
 20
63.632399999999997
 30
0.0
 10
13.1251
 20
63.632399999999997
 30
0.0
 10
13.1251
 20
63.632399999999997
 30
0.0
 10
13.1251
 20
63.632399999999997
 30
0.0
 10
14.4642
 20
62.627200000000002
 30
0.0
 10
14.4642
 20
62.627200000000002
 30
0.0
 10
14.4642
 20
62.627200000000002
 30
0.0
 10
14.4642
 20
62.627200000000002
 30
0.0
 10
15.8035
 20
61.622100000000003
 30
0.0
 10
15.8035
 20
61.622100000000003
 30
0.0
 10
15.8035
 20
61.622100000000003
 30
0.0
 10
15.8035
 20
61.622100000000003
 30
0.0
 10
15.8035
 20
59.611899999999999
 30
0.0
 10
15.8035
 20
59.611899999999999
 30
0.0
 10
15.8035
 20
59.611899999999999
 30
0.0
 10
15.8035
 20
59.611899999999999
 30
0.0
 10
15.8035
 20
57.601599999999998
 30
0.0
 10
15.8035
 20
57.601599999999998
 30
0.0
 10
15.8035
 20
57.601599999999998
 30
0.0
 10
15.8035
 20
57.601599999999998
 30
0.0
 10
14.4642
 20
56.596400000000003
 30
0.0
 10
14.4642
 20
56.596400000000003
 30
0.0
 10
14.4642
 20
56.596400000000003
 30
0.0
 10
14.4642
 20
56.596400000000003
 30
0.0
 10
13.1251
 20
55.5914
 30
0.0
 10
13.1251
 20
55.5914
 30
0.0
  0
SPLINE
  5
52
100
AcDbEntity
  8
RÚteg 1
 62
     7
100
AcDbSpline
210
0.0
220
0.0
230
1.0
 70
     1
 71
     3
 72
    52
 73
    48
 74
     0
 42
0.0000000001
 43
0.0000000001
 40
0.0
 40
0.0
 40
0.0
 40
0.0
 40
0.0833333333333333
 40
0.0833333333333333
 40
0.0833333333333333
 40
0.0833333333333333
 40
0.1666666666666667
 40
0.1666666666666667
 40
0.1666666666666667
 40
0.1666666666666667
 40
0.25
 40
0.25
 40
0.25
 40
0.25
 40
0.3333333333333333
 40
0.3333333333333333
 40
0.3333333333333333
 40
0.3333333333333333
 40
0.4166666666666666
 40
0.4166666666666666
 40
0.4166666666666666
 40
0.4166666666666666
 40
0.4999999999999999
 40
0.4999999999999999
 40
0.4999999999999999
 40
0.4999999999999999
 40
0.5833333333333333
 40
0.5833333333333333
 40
0.5833333333333333
 40
0.5833333333333333
 40
0.6666666666666666
 40
0.6666666666666666
 40
0.6666666666666666
 40
0.6666666666666666
 40
0.75
 40
0.75
 40
0.75
 40
0.75
 40
0.8333333333333334
 40
0.8333333333333334
 40
0.8333333333333334
 40
0.8333333333333334
 40
0.9166666666666667
 40
0.9166666666666667
 40
0.9166666666666667
 40
0.9166666666666667
 40
1.0
 40
1.0
 40
1.0
 40
1.0
 10
-3.1333000000000002
 20
64.977999999999994
 30
0.0
 10
-3.1333000000000002
 20
64.977999999999994
 30
0.0
 10
-2.9325000000000001
 20
66.6404
 30
0.0
 10
-2.9325000000000001
 20
66.6404
 30
0.0
 10
-2.9325000000000001
 20
66.6404
 30
0.0
 10
-2.9325000000000001
 20
66.6404
 30
0.0
 10
-2.7315
 20
68.302999999999997
 30
0.0
 10
-2.7315
 20
68.302999999999997
 30
0.0
 10
-2.7315
 20
68.302999999999997
 30
0.0
 10
-2.7315
 20
68.302999999999997
 30
0.0
 10
-0.9906
 20
69.3078
 30
0.0
 10
-0.9906
 20
69.3078
 30
0.0
 10
-0.9906
 20
69.3078
 30
0.0
 10
-0.9906
 20
69.3078
 30
0.0
 10
0.7504
 20
70.312899999999999
 30
0.0
 10
0.7504
 20
70.312899999999999
 30
0.0
 10
0.7504
 20
70.312899999999999
 30
0.0
 10
0.7504
 20
70.312899999999999
 30
0.0
 10
2.2905000000000002
 20
69.656000000000006
 30
0.0
 10
2.2905000000000002
 20
69.656000000000006
 30
0.0
 10
2.2905000000000002
 20
69.656000000000006
 30
0.0
 10
2.2905000000000002
 20
69.656000000000006
 30
0.0
 10
3.8304
 20
68.998699999999999
 30
0.0
 10
3.8304
 20
68.998699999999999
 30
0.0
 10
3.8304
 20
68.998699999999999
 30
0.0
 10
3.8304
 20
68.998699999999999
 30
0.0
 10
3.6295999999999999
 20
67.336200000000005
 30
0.0
 10
3.6295999999999999
 20
67.336200000000005
 30
0.0
 10
3.6295999999999999
 20
67.336200000000005
 30
0.0
 10
3.6295999999999999
 20
67.336200000000005
 30
0.0
 10
3.4289000000000001
 20
65.6738
 30
0.0
 10
3.4289000000000001
 20
65.6738
 30
0.0
 10
3.4289000000000001
 20
65.6738
 30
0.0
 10
3.4289000000000001
 20
65.6738
 30
0.0
 10
1.6877
 20
64.668899999999994
 30
0.0
 10
1.6877
 20
64.668899999999994
 30
0.0
 10
1.6877
 20
64.668899999999994
 30
0.0
 10
1.6877
 20
64.668899999999994
 30
0.0
 10
-0.0531
 20
63.663600000000002
 30
0.0
 10
-0.0531
 20
63.663600000000002
 30
0.0
 10
-0.0531
 20
63.663600000000002
 30
0.0
 10
-0.0531
 20
63.663600000000002
 30
0.0
 10
-1.5932999999999999
 20
64.320899999999995
 30
0.0
 10
-1.5932999999999999
 20
64.320899999999995
 30
0.0
 10
-1.5932999999999999
 20
64.320899999999995
 30
0.0
 10
-1.5932999999999999
 20
64.320899999999995
 30
0.0
 10
-3.1333000000000002
 20
64.977999999999994
 30
0.0
 10
-3.1333000000000002
 20
64.977999999999994
 30
0.0
  0
SPLINE
  5
53
100
AcDbEntity
  8
RÚteg 1
 62
     7
100
AcDbSpline
210
0.0
220
0.0
230
1.0
 70
     1
 71
     3
 72
    52
 73
    48
 74
     0
 42
0.0000000001
 43
0.0000000001
 40
0.0
 40
0.0
 40
0.0
 40
0.0
 40
0.0833333333333333
 40
0.0833333333333333
 40
0.0833333333333333
 40
0.0833333333333333
 40
0.1666666666666667
 40
0.1666666666666667
 40
0.1666666666666667
 40
0.1666666666666667
 40
0.25
 40
0.25
 40
0.25
 40
0.25
 40
0.3333333333333333
 40
0.3333333333333333
 40
0.3333333333333333
 40
0.3333333333333333
 40
0.4166666666666666
 40
0.4166666666666666
 40
0.4166666666666666
 40
0.4166666666666666
 40
0.4999999999999999
 40
0.4999999999999999
 40
0.4999999999999999
 40
0.4999999999999999
 40
0.5833333333333333
 40
0.5833333333333333
 40
0.5833333333333333
 40
0.5833333333333333
 40
0.6666666666666666
 40
0.6666666666666666
 40
0.6666666666666666
 40
0.6666666666666666
 40
0.75
 40
0.75
 40
0.75
 40
0.75
 40
0.8333333333333334
 40
0.8333333333333334
 40
0.8333333333333334
 40
0.8333333333333334
 40
0.9166666666666667
 40
0.9166666666666667
 40
0.9166666666666667
 40
0.9166666666666667
 40
1.0
 40
1.0
 40
1.0
 40
1.0
 10
-3.1333000000000002
 20
83.751599999999996
 30
0.0
 10
-3.1333000000000002
 20
83.751599999999996
 30
0.0
 10
-1.5932999999999999
 20
84.408799999999999
 30
0.0
 10
-1.5932999999999999
 20
84.408799999999999
 30
0.0
 10
-1.5932999999999999
 20
84.408799999999999
 30
0.0
 10
-1.5932999999999999
 20
84.408799999999999
 30
0.0
 10
-0.0531
 20
85.066100000000006
 30
0.0
 10
-0.0531
 20
85.066100000000006
 30
0.0
 10
-0.0531
 20
85.066100000000006
 30
0.0
 10
-0.0531
 20
85.066100000000006
 30
0.0
 10
1.6877
 20
84.060900000000004
 30
0.0
 10
1.6877
 20
84.060900000000004
 30
0.0
 10
1.6877
 20
84.060900000000004
 30
0.0
 10
1.6877
 20
84.060900000000004
 30
0.0
 10
3.4289000000000001
 20
83.055700000000002
 30
0.0
 10
3.4289000000000001
 20
83.055700000000002
 30
0.0
 10
3.4289000000000001
 20
83.055700000000002
 30
0.0
 10
3.4289000000000001
 20
83.055700000000002
 30
0.0
 10
3.6295999999999999
 20
81.393299999999996
 30
0.0
 10
3.6295999999999999
 20
81.393299999999996
 30
0.0
 10
3.6295999999999999
 20
81.393299999999996
 30
0.0
 10
3.6295999999999999
 20
81.393299999999996
 30
0.0
 10
3.8306
 20
79.730999999999995
 30
0.0
 10
3.8306
 20
79.730999999999995
 30
0.0
 10
3.8306
 20
79.730999999999995
 30
0.0
 10
3.8306
 20
79.730999999999995
 30
0.0
 10
2.2905000000000002
 20
79.073899999999995
 30
0.0
 10
2.2905000000000002
 20
79.073899999999995
 30
0.0
 10
2.2905000000000002
 20
79.073899999999995
 30
0.0
 10
2.2905000000000002
 20
79.073899999999995
 30
0.0
 10
0.7504
 20
78.416799999999995
 30
0.0
 10
0.7504
 20
78.416799999999995
 30
0.0
 10
0.7504
 20
78.416799999999995
 30
0.0
 10
0.7504
 20
78.416799999999995
 30
0.0
 10
-0.9906
 20
79.421899999999994
 30
0.0
 10
-0.9906
 20
79.421899999999994
 30
0.0
 10
-0.9906
 20
79.421899999999994
 30
0.0
 10
-0.9906
 20
79.421899999999994
 30
0.0
 10
-2.7315
 20
80.427000000000007
 30
0.0
 10
-2.7315
 20
80.427000000000007
 30
0.0
 10
-2.7315
 20
80.427000000000007
 30
0.0
 10
-2.7315
 20
80.427000000000007
 30
0.0
 10
-2.9325000000000001
 20
82.089299999999994
 30
0.0
 10
-2.9325000000000001
 20
82.089299999999994
 30
0.0
 10
-2.9325000000000001
 20
82.089299999999994
 30
0.0
 10
-2.9325000000000001
 20
82.089299999999994
 30
0.0
 10
-3.1333000000000002
 20
83.751599999999996
 30
0.0
 10
-3.1333000000000002
 20
83.751599999999996
 30
0.0
  0
SPLINE
  5
54
100
AcDbEntity
  8
RÚteg 1
 62
     7
100
AcDbSpline
210
0.0
220
0.0
230
1.0
 70
     1
 71
     3
 72
    52
 73
    48
 74
     0
 42
0.0000000001
 43
0.0000000001
 40
0.0
 40
0.0
 40
0.0
 40
0.0
 40
0.0833333333333333
 40
0.0833333333333333
 40
0.0833333333333333
 40
0.0833333333333333
 40
0.1666666666666667
 40
0.1666666666666667
 40
0.1666666666666667
 40
0.1666666666666667
 40
0.25
 40
0.25
 40
0.25
 40
0.25
 40
0.3333333333333333
 40
0.3333333333333333
 40
0.3333333333333333
 40
0.3333333333333333
 40
0.4166666666666666
 40
0.4166666666666666
 40
0.4166666666666666
 40
0.4166666666666666
 40
0.4999999999999999
 40
0.4999999999999999
 40
0.4999999999999999
 40
0.4999999999999999
 40
0.5833333333333333
 40
0.5833333333333333
 40
0.5833333333333333
 40
0.5833333333333333
 40
0.6666666666666666
 40
0.6666666666666666
 40
0.6666666666666666
 40
0.6666666666666666
 40
0.75
 40
0.75
 40
0.75
 40
0.75
 40
0.8333333333333334
 40
0.8333333333333334
 40
0.8333333333333334
 40
0.8333333333333334
 40
0.9166666666666667
 40
0.9166666666666667
 40
0.9166666666666667
 40
0.9166666666666667
 40
1.0
 40
1.0
 40
1.0
 40
1.0
 10
13.1251
 20
93.138499999999993
 30
0.0
 10
13.1251
 20
93.138499999999993
 30
0.0
 10
14.4642
 20
92.133200000000002
 30
0.0
 10
14.4642
 20
92.133200000000002
 30
0.0
 10
14.4642
 20
92.133200000000002
 30
0.0
 10
14.4642
 20
92.133200000000002
 30
0.0
 10
15.8035
 20
91.128100000000003
 30
0.0
 10
15.8035
 20
91.128100000000003
 30
0.0
 10
15.8035
 20
91.128100000000003
 30
0.0
 10
15.8035
 20
91.128100000000003
 30
0.0
 10
15.8035
 20
89.117800000000003
 30
0.0
 10
15.8035
 20
89.117800000000003
 30
0.0
 10
15.8035
 20
89.117800000000003
 30
0.0
 10
15.8035
 20
89.117800000000003
 30
0.0
 10
15.8035
 20
87.107500000000002
 30
0.0
 10
15.8035
 20
87.107500000000002
 30
0.0
 10
15.8035
 20
87.107500000000002
 30
0.0
 10
15.8035
 20
87.107500000000002
 30
0.0
 10
14.4642
 20
86.102400000000003
 30
0.0
 10
14.4642
 20
86.102400000000003
 30
0.0
 10
14.4642
 20
86.102400000000003
 30
0.0
 10
14.4642
 20
86.102400000000003
 30
0.0
 10
13.1251
 20
85.097300000000004
 30
0.0
 10
13.1251
 20
85.097300000000004
 30
0.0
 10
13.1251
 20
85.097300000000004
 30
0.0
 10
13.1251
 20
85.097300000000004
 30
0.0
 10
11.7858
 20
86.102400000000003
 30
0.0
 10
11.7858
 20
86.102400000000003
 30
0.0
 10
11.7858
 20
86.102400000000003
 30
0.0
 10
11.7858
 20
86.102400000000003
 30
0.0
 10
10.4465
 20
87.107500000000002
 30
0.0
 10
10.4465
 20
87.107500000000002
 30
0.0
 10
10.4465
 20
87.107500000000002
 30
0.0
 10
10.4465
 20
87.107500000000002
 30
0.0
 10
10.4465
 20
89.117800000000003
 30
0.0
 10
10.4465
 20
89.117800000000003
 30
0.0
 10
10.4465
 20
89.117800000000003
 30
0.0
 10
10.4465
 20
89.117800000000003
 30
0.0
 10
10.4465
 20
91.128100000000003
 30
0.0
 10
10.4465
 20
91.128100000000003
 30
0.0
 10
10.4465
 20
91.128100000000003
 30
0.0
 10
10.4465
 20
91.128100000000003
 30
0.0
 10
11.7858
 20
92.133200000000002
 30
0.0
 10
11.7858
 20
92.133200000000002
 30
0.0
 10
11.7858
 20
92.133200000000002
 30
0.0
 10
11.7858
 20
92.133200000000002
 30
0.0
 10
13.1251
 20
93.138499999999993
 30
0.0
 10
13.1251
 20
93.138499999999993
 30
0.0
  0
ENDSEC
  0
SECTION
  2
OBJECTS
  0
DICTIONARY
  5
19
100
AcDbDictionary
280
     0
281
     1
  3
ACAD_GROUP
350
1A
  3
ACAD_MLINESTYLE
350
1B
  3
ACAD_LAYOUT
350
1E
  3
ACAD_PLOTSETTINGS
350
22
  3
ACAD_PLOTSTYLENAME
350
1F
  3
ACAD_WIPEOUT_VARS
350
23
  0
DICTIONARY
  5
1A
102
{ACAD_REACTORS
330
19
102
}
100
AcDbDictionary
280
     0
281
     1
  0
DICTIONARY
  5
1B
102
{ACAD_REACTORS
330
19
102
}
100
AcDbDictionary
280
     0
281
     1
  3
Standard
350
1C
  0
MLINESTYLE
  5
1C
102
{ACAD_REACTORS
330
1B
102
}
100
AcDbMlineStyle
  2
Standard
 70
     0
  3

 62
     0
 51
90.0
 52
90.0
 71
     2
 49
0.5
 62
   256
  6
BYLAYER
 49
-0.5
 62
   256
  6
BYLAYER
  0
ACDBDICTIONARYWDFLT
  5
1F
102
{ACAD_REACTORS
330
19
102
}
100
AcDbDictionary
281
     1
  3
Normal
350
1D
100
AcDbDictionaryWithDefault
340
1D
  0
ACDBPLACEHOLDER
  5
1D
102
{ACAD_REACTORS
330
1F
102
}
  0
LAYOUT
  5
20
102
{ACAD_REACTORS
330
1E
102
}
100
AcDbPlotSettings
  1

  2

  4

  6

 40
0.0
 41
0.0
 42
0.0
 43
0.0
 44
0.0
 45
0.0
 46
0.0
 47
0.0
 48
0.0
 49
0.0
140
0.0
141
0.0
142
1.0
143
1.0
 70
  1024
 72
     0
 73
     0
 74
     0
  7

 75
     0
147
1.0
148
0.0
149
0.0
100
AcDbLayout
  1
Model
 70
     0
 71
     0
 10
0.0
 20
0.0
 11
0.0
 21
0.0
 12
0.0
 22
0.0
 32
0.0
 14
0.0
 24
0.0
 34
0.0
 15
0.0
 25
0.0
 35
0.0
146
0.0
 13
0.0
 23
0.0
 33
0.0
 16
0.0
 26
0.0
 36
0.0
 17
0.0
 27
0.0
 37
0.0
 76
     0
330
A
331
0
345
0
346
0
  0
LAYOUT
  5
21
102
{ACAD_REACTORS
330
1E
102
}
100
AcDbPlotSettings
  1

  2

  4

  6

 40
0.0
 41
0.0
 42
0.0
 43
0.0
 44
0.0
 45
0.0
 46
0.0
 47
0.0
 48
0.0
 49
0.0
140
0.0
141
0.0
142
1.0
143
1.0
 70
     0
 72
     0
 73
     0
 74
     0
  7

 75
     0
147
1.0
148
0.0
149
0.0
100
AcDbLayout
  1
Layout1
 70
     0
 71
     0
 10
0.0
 20
0.0
 11
0.0
 21
0.0
 12
0.0
 22
0.0
 32
0.0
 14
0.0
 24
0.0
 34
0.0
 15
0.0
 25
0.0
 35
0.0
146
0.0
 13
0.0
 23
0.0
 33
0.0
 16
0.0
 26
0.0
 36
0.0
 17
0.0
 27
0.0
 37
0.0
 76
     0
330
B
331
0
345
0
346
0
  0
DICTIONARY
  5
1E
102
{ACAD_REACTORS
330
19
102
}
100
AcDbDictionary
280
     0
281
     1
  3
Layout1
350
21
  3
Model
350
20
  0
DICTIONARY
  5
22
102
{ACAD_REACTORS
330
19
102
}
100
AcDbDictionary
280
     0
281
     1
  0
WIPEOUTVARIABLES
  5
23
100
AcDbWipeoutVariables
 70
     1
  0
ENDSEC
  0
EOF
