  0
SECTION
  2
HEADER
  9
$ACADVER
  1
AC1015
  9
$ACADMAINTVER
 70
     6
  9
$DWGCODEPAGE
  3
DOS850
  9
$INSBASE
 10
0.0
 20
0.0
 30
0.0
  9
$EXTMIN
 10
-63.5882
 20
-2.3965
 30
1.000000E+20
  9
$EXTMAX
 10
2.1382
 20
71.5893
 30
-1.000000E+20
  9
$LIMMIN
 10
0.0
 20
0.0
  9
$LIMMAX
 10
0.0
 20
0.0
  9
$ORTHOMODE
 70
     0
  9
$REGENMODE
 70
     1
  9
$FILLMODE
 70
     1
  9
$QTEXTMODE
 70
     0
  9
$MIRRTEXT
 70
     1
  9
$LTSCALE
 40
1.0
  9
$ATTMODE
 70
     1
  9
$TEXTSIZE
 40
0.2
  9
$TRACEWID
 40
0.05
  9
$TEXTSTYLE
  7
Standard
  9
$CLAYER
  8
0
  9
$CELTYPE
  6
Continuous
  9
$CECOLOR
 62
   256
  9
$CELTSCALE
 40
1.0
  9
$DISPSILH
 70
     0
  9
$DIMSCALE
 40
1.0
  9
$DIMASZ
 40
0.18
  9
$DIMEXO
 40
0.0625
  9
$DIMDLI
 40
0.38
  9
$DIMRND
 40
0.0
  9
$DIMDLE
 40
0.0
  9
$DIMEXE
 40
0.18
  9
$DIMTP
 40
0.0
  9
$DIMTM
 40
0.0
  9
$DIMTXT
 40
0.18
  9
$DIMCEN
 40
0.09
  9
$DIMTSZ
 40
0.0
  9
$DIMTOL
 70
     0
  9
$DIMLIM
 70
     0
  9
$DIMTIH
 70
     1
  9
$DIMTOH
 70
     1
  9
$DIMSE1
 70
     0
  9
$DIMSE2
 70
     0
  9
$DIMTAD
 70
     0
  9
$DIMZIN
 70
     0
  9
$DIMBLK
  1

  9
$DIMASO
 70
     1
  9
$DIMSHO
 70
     1
  9
$DIMPOST
  1

  9
$DIMAPOST
  1

  9
$DIMALT
 70
     0
  9
$DIMALTD
 70
     2
  9
$DIMALTF
 40
25.4
  9
$DIMLFAC
 40
1.0
  9
$DIMTOFL
 70
     0
  9
$DIMTVP
 40
0.0
  9
$DIMTIX
 70
     0
  9
$DIMSOXD
 70
     0
  9
$DIMSAH
 70
     0
  9
$DIMBLK1
  1

  9
$DIMBLK2
  1

  9
$DIMSTYLE
  2
Standard
  9
$DIMCLRD
 70
     0
  9
$DIMCLRE
 70
     0
  9
$DIMCLRT
 70
     0
  9
$DIMTFAC
 40
1.0
  9
$DIMGAP
 40
0.09
  9
$DIMJUST
 70
     0
  9
$DIMSD1
 70
     0
  9
$DIMSD2
 70
     0
  9
$DIMTOLJ
 70
     1
  9
$DIMTZIN
 70
     0
  9
$DIMALTZ
 70
     0
  9
$DIMALTTZ
 70
     0
  9
$DIMUPT
 70
     0
  9
$DIMDEC
 70
     4
  9
$DIMTDEC
 70
     4
  9
$DIMALTU
 70
     2
  9
$DIMALTTD
 70
     2
  9
$DIMTXSTY
  7
Standard
  9
$DIMAUNIT
 70
     0
  9
$DIMADEC
 70
     0
  9
$DIMALTRND
 40
0.0
  9
$DIMAZIN
 70
     0
  9
$DIMDSEP
 70
     0
  9
$DIMATFIT
 70
     3
  9
$DIMFRAC
 70
     0
  9
$DIMLDRBLK
  1

  9
$DIMLUNIT
 70
     2
  9
$DIMLWD
 70
     0
  9
$DIMLWE
 70
     0
  9
$DIMTMOVE
 70
     0
  9
$LUNITS
 70
     2
  9
$LUPREC
 70
     4
  9
$SKETCHINC
 40
0.1
  9
$FILLETRAD
 40
0.0
  9
$AUNITS
 70
     0
  9
$AUPREC
 70
     0
  9
$MENU
  1
acad
  9
$ELEVATION
 40
0.0
  9
$PELEVATION
 40
0.0
  9
$THICKNESS
 40
0.0
  9
$LIMCHECK
 70
     0
  9
$CHAMFERA
 40
0.0
  9
$CHAMFERB
 40
0.0
  9
$CHAMFERC
 40
0.0
  9
$CHAMFERD
 40
0.0
  9
$SKPOLY
 70
     0
  9
$TDCREATE
 40
0.000000000
  9
$TDUCREATE
 40
0.000000000
  9
$TDUPDATE
 40
0.000000000
  9
$TDUUPDATE
 40
0.000000000
  9
$TDINDWG
 40
0.0000000000
  9
$TDUSRTIMER
 40
0.0000000000
  9
$USRTIMER
 70
     1
  9
$ANGBASE
 50
0.0
  9
$ANGDIR
 70
     0
  9
$PDMODE
 70
     0
  9
$PDSIZE
 40
0.0
  9
$PLINEWID
 40
0.0
  9
$SPLFRAME
 70
     0
  9
$SPLINETYPE
 70
     6
  9
$SPLINESEGS
 70
     8
  9
$HANDSEED
  5
63
  9
$SURFTAB1
 70
     6
  9
$SURFTAB2
 70
     6
  9
$SURFTYPE
 70
     6
  9
$SURFU
 70
     6
  9
$SURFV
 70
     6
  9
$UCSBASE
  2

  9
$UCSNAME
  2

  9
$UCSORG
 10
0.0
 20
0.0
 30
0.0
  9
$UCSXDIR
 10
1.0
 20
0.0
 30
0.0
  9
$UCSYDIR
 10
0.0
 20
1.0
 30
0.0
  9
$UCSORTHOREF
  2

  9
$UCSORTHOVIEW
 70
     0
  9
$UCSORGTOP
 10
0.0
 20
0.0
 30
0.0
  9
$UCSORGBOTTOM
 10
0.0
 20
0.0
 30
0.0
  9
$UCSORGLEFT
 10
0.0
 20
0.0
 30
0.0
  9
$UCSORGRIGHT
 10
0.0
 20
0.0
 30
0.0
  9
$UCSORGFRONT
 10
0.0
 20
0.0
 30
0.0
  9
$UCSORGBACK
 10
0.0
 20
0.0
 30
0.0
  9
$PUCSBASE
  2

  9
$PUCSNAME
  2

  9
$PUCSORG
 10
0.0
 20
0.0
 30
0.0
  9
$PUCSXDIR
 10
1.0
 20
0.0
 30
0.0
  9
$PUCSYDIR
 10
0.0
 20
1.0
 30
0.0
  9
$PUCSORTHOREF
  2

  9
$PUCSORTHOVIEW
 70
     0
  9
$PUCSORGTOP
 10
0.0
 20
0.0
 30
0.0
  9
$PUCSORGBOTTOM
 10
0.0
 20
0.0
 30
0.0
  9
$PUCSORGLEFT
 10
0.0
 20
0.0
 30
0.0
  9
$PUCSORGRIGHT
 10
0.0
 20
0.0
 30
0.0
  9
$PUCSORGFRONT
 10
0.0
 20
0.0
 30
0.0
  9
$PUCSORGBACK
 10
0.0
 20
0.0
 30
0.0
  9
$USERI1
 70
     0
  9
$USERI2
 70
     0
  9
$USERI3
 70
     0
  9
$USERI4
 70
     0
  9
$USERI5
 70
     0
  9
$USERR1
 40
0.0
  9
$USERR2
 40
0.0
  9
$USERR3
 40
0.0
  9
$USERR4
 40
0.0
  9
$USERR5
 40
0.0
  9
$WORLDVIEW
 70
     1
  9
$SHADEDGE
 70
     3
  9
$SHADEDIF
 70
    70
  9
$TILEMODE
 70
     1
  9
$MAXACTVP
 70
    16
  9
$PINSBASE
 10
0.0
 20
0.0
 30
0.0
  9
$PLIMCHECK
 70
     0
  9
$PEXTMIN
 10
1.000000E+20
 20
1.000000E+20
 30
1.000000E+20
  9
$PEXTMAX
 10
-1.000000E+20
 20
-1.000000E+20
 30
-1.000000E+20
  9
$PLIMMIN
 10
0.0
 20
0.0
  9
$PLIMMAX
 10
12.0
 20
9.0
  9
$UNITMODE
 70
     0
  9
$VISRETAIN
 70
     0
  9
$PLINEGEN
 70
     1
  9
$PSLTSCALE
 70
     0
  9
$TREEDEPTH
 70
  3020
  9
$CMLSTYLE
  2
Standard
  9
$CMLJUST
 70
     0
  9
$CMLSCALE
 40
1.0
  9
$PROXYGRAPHICS
 70
     0
  9
$MEASUREMENT
 70
     0
  9
$CELWEIGHT
370
     0
  9
$ENDCAPS
280
     0
  9
$JOINSTYLE
280
     0
  9
$LWDISPLAY
290
     0
  9
$INSUNITS
 70
     4
  9
$HYPERLINKBASE
  1

  9
$XEDIT
290
     1
  9
$CEPSNTYPE
380
     0
  9
$PSTYLEMODE
290
     1
  9
$FINGERPRINTGUID
  2

  9
$VERSIONGUID
  2

  9
$EXTNAMES
290
     1
  9
$PSVPSCALE
 40
0.0
  0
ENDSEC
  0
SECTION
  2
CLASSES
  0
CLASS
  1
LWPOLYLINE
  2
AcDbPolyline
  3
AutoCAD 2000
 90
    32768
280
     0
281
     1
  0
CLASS
  1
IMAGE
  2
AcDbRasterImage
  3
ISM
 90
    32895
280
     0
281
     1
  0
CLASS
  1
OLE2FRAME
  2
AcDbOle2Frame
  3
AutoCAD 2000
 90
    32768
280
     0
281
     1
  0
CLASS
  1
HATCH
  2
AcDbHatch
  3
AutoCAD 2000
 90
    32768
280
     0
281
     1
  0
CLASS
  1
DICTIONARYVAR
  2
AcDbDictionaryVar
  3
AutoCAD 2000
 90
    32768
280
     0
281
     0
  0
CLASS
  1
RASTERVARIABLES
  2
AcDbRasterVariables
  3
ISM
 90
    32768
280
     0
281
     0
  0
CLASS
  1
IMAGEDEF
  2
AcDbRasterImageDef
  3
ISM
 90
    32768
280
     0
281
     0
  0
CLASS
  1
IMAGEDEF_REACTOR
  2
AcDbRasterImageDefReactor
  3
ISM
 90
    32769
280
     0
281
     0
  0
CLASS
  1
IDBUFFER
  2
AcDbIdBuffer
  3
AutoCAD 2000
 90
    32768
280
     0
281
     0
  0
CLASS
  1
SPATIAL_FILTER
  2
AcDbSpatialFilter
  3
AutoCAD 2000
 90
    32768
280
     0
281
     0
  0
CLASS
  1
XRECORD
  2
AcDbXrecord
  3
AutoCAD 2000
 90
    32768
280
     0
281
     0
  0
CLASS
  1
SORTENTSTABLE
  2
AcDbSortentsTable
  3
AutoCAD 2000
 90
    32768
280
     0
281
     0
  0
CLASS
  1
LAYER_INDEX
  2
AcDbLayerIndex
  3
AutoCAD 2000
 90
    32768
280
     0
281
     0
  0
CLASS
  1
SPATIAL_INDEX
  2
AcDbSpatialIndex
  3
AutoCAD 2000
 90
    32768
280
     0
281
     0
  0
CLASS
  1
OBJECT_PTR
  2
CAseDLPNTableRecord
  3
"ASE-LPNTableRecord"
 90
    32769
280
     0
281
     0
  0
CLASS
  1
LAYOUT
  2
AcDbLayout
  3
AutoCAD 2000
 90
        0
280
     0
281
     0
  0
CLASS
  1
PLOTSETTINGS
  2
AcDbPlotSettings
  3
AutoCAD 2000
 90
    32768
280
     0
281
     0
  0
CLASS
  1
ACDBDICTIONARYWDFLT
  2
AcDbDictionaryWithDefault
  3
AutoCAD 2000
 90
        0
280
     0
281
     0
  0
CLASS
  1
ACDBPLACEHOLDER
  2
AcDbPlaceHolder
  3
AutoCAD 2000
 90
        0
280
     0
281
     0
  0
CLASS
  1
VBA_PROJECT
  2
AcDbVbaProject
  3
acadvba
 90
    32768
280
     0
281
     0
  0
CLASS
  1
WIPEOUT
  2
AcDbWipeout
  3
WipeOut|AutoCAD Express Tool|expresstools@autodesk.com
 90
    32895
280
     0
281
     1
  0
CLASS
  1
WIPEOUTVARIABLES
  2
AcDbWipeoutVariables
  3
WipeOut|AutoCAD Express Tool|expresstools@autodesk.com
 90
        0
280
     0
281
     0
  0
CLASS
  1
RTEXT
  2
RText
  3
RText|AutoCAD Express Tool|expresstools@autodesk.com
 90
    32768
280
     0
281
     1
  0
CLASS
  1
ARCALIGNEDTEXT
  2
AcDbArcAlignedText
  3
ATEXT|AutoCAD Express Tool|expresstools@autodesk.com
 90
    32768
280
     0
281
     1
  0
ENDSEC
  0
SECTION
  2
TABLES
  0
TABLE
  2
VPORT
  5
7
100
AcDbSymbolTable
 70
     1
  0
VPORT
  5
15
100
AcDbSymbolTableRecord
100
AcDbViewportTableRecord
  2
*ACTIVE
 70
     0
 10
0.0
 20
0.0
 11
1.0
 21
1.0
 12
6.591288
 22
4.579184
 13
0.0
 23
0.0
 14
1.0
 24
1.0
 15
0.0
 25
0.0
 16
0.0
 26
0.0
 36
1.0
 17
0.0
 27
0.0
 37
0.0
 40
9.158369
 41
0.688564
 42
50.0
 43
0.0
 44
0.0
 50
0.0
 51
0.0
 71
     0
 72
   100
 73
     1
 74
     1
 75
     0
 76
     0
 77
     0
 78
     0
281
     0
 65
     0
110
0.0
120
0.0
130
0.0
111
1.0
121
0.0
131
0.0
112
0.0
122
1.0
132
0.0
345
0
346
0
 79
     0
146
0.0
  0
ENDTAB
  0
TABLE
  2
LTYPE
  5
4
100
AcDbSymbolTable
 70
     3
  0
LTYPE
  5
11
100
AcDbSymbolTableRecord
100
AcDbLinetypeTableRecord
  2
ByBlock
 70
    64
  3

 72
    65
 73
     0
 40
0.0
  0
LTYPE
  5
12
100
AcDbSymbolTableRecord
100
AcDbLinetypeTableRecord
  2
ByLayer
 70
    64
  3

 72
    65
 73
     0
 40
0.0
  0
LTYPE
  5
13
100
AcDbSymbolTableRecord
100
AcDbLinetypeTableRecord
  2
Continuous
 70
    64
  3
Solid line
 72
    65
 73
     0
 40
0.0
  0
ENDTAB
  0
TABLE
  2
LAYER
  5
2
100
AcDbSymbolTable
 70
     2
  0
LAYER
  5
14
100
AcDbSymbolTableRecord
100
AcDbLayerTableRecord
  2
0
 70
     0
 62
     7
  6
Continuous
290
     1
370
    -3
390
1D
  0
LAYER
  5
24
100
AcDbSymbolTableRecord
100
AcDbLayerTableRecord
  2
RÚteg 1
 70
     0
 62
     7
  6
Continuous
290
     1
370
    -3
390
1F
  0
ENDTAB
  0
TABLE
  2
STYLE
  5
3
100
AcDbSymbolTable
 70
     1
  0
STYLE
  5
17
100
AcDbSymbolTableRecord
100
AcDbTextStyleTableRecord
  2
Standard
 70
     0
 40
0.0
 41
1.0
 50
0.0
 71
     0
 42
0.0
  3
txt
  4

  0
ENDTAB
  0
TABLE
  2
VIEW
  5
5
100
AcDbSymbolTable
 70
     0
  0
ENDTAB
  0
TABLE
  2
UCS
  5
6
100
AcDbSymbolTable
 70
     0
  0
ENDTAB
  0
TABLE
  2
APPID
  5
8
100
AcDbSymbolTable
 70
     1
  0
APPID
  5
16
100
AcDbSymbolTableRecord
100
AcDbRegAppTableRecord
  2
ACAD
 70
     0
  0
ENDTAB
  0
TABLE
  2
DIMSTYLE
  5
9
100
AcDbSymbolTable
 70
     1
100
AcDbDimStyleTable
 71
     0
  0
DIMSTYLE
105
18
100
AcDbSymbolTableRecord
100
AcDbDimStyleTableRecord
  2
Standard
 70
     0
  3

  4

 40
1.0
 41
0.18
 42
0.0625
 43
0.38
 44
0.18
 45
0.0
 46
0.0
 47
0.0
 48
0.0
 71
     0
 72
     0
 73
     1
 74
     1
 75
     0
 76
     0
 77
     0
 78
     0
 79
     0
140
0.18
141
0.09
142
0.0
143
25.4
144
1.0
145
0.0
146
1.0
147
0.09
148
0.0
170
     0
171
     2
172
     0
173
     0
174
     0
175
     0
176
     0
177
     0
178
     0
179
     0
271
     4
272
     4
273
     2
274
     2
275
     0
276
     0
277
     2
278
    46
279
     0
280
     0
281
     0
282
     0
283
     1
284
     0
285
     0
286
     0
288
     0
340
17
341
0
342
0
343
0
344
0
371
    -2
372
    -2
  0
ENDTAB
  0
TABLE
  2
BLOCK_RECORD
  5
1
100
AcDbSymbolTable
 70
     0
  0
BLOCK_RECORD
  5
A
100
AcDbSymbolTableRecord
100
AcDbBlockTableRecord
  2
*MODEL_SPACE
340
20
  0
BLOCK_RECORD
  5
B
100
AcDbSymbolTableRecord
100
AcDbBlockTableRecord
  2
*PAPER_SPACE
340
21
  0
ENDTAB
  0
ENDSEC
  0
SECTION
  2
BLOCKS
  0
BLOCK
  5
D
100
AcDbEntity
  8
0
100
AcDbBlockBegin
  2
*MODEL_SPACE
 70
     0
 10
0.0
 20
0.0
 30
0.0
  3
*MODEL_SPACE
  1

  0
ENDBLK
  5
E
100
AcDbEntity
  8
0
100
AcDbBlockEnd
  0
BLOCK
  5
F
100
AcDbEntity
 67
     1
  8
0
100
AcDbBlockBegin
  2
*PAPER_SPACE
 70
     0
 10
0.0
 20
0.0
 30
0.0
  3
*PAPER_SPACE
  1

  0
ENDBLK
  5
10
100
AcDbEntity
 67
     1
  8
0
100
AcDbBlockEnd
  0
ENDSEC
  0
SECTION
  2
ENTITIES
  0
SPLINE
  5
25
100
AcDbEntity
  8
RÚteg 1
 62
     7
100
AcDbSpline
210
0.0
220
0.0
230
1.0
 70
     1
 71
     3
 72
    16
 73
    12
 74
     0
 42
0.0000000001
 43
0.0000000001
 40
0.0
 40
0.0
 40
0.0
 40
0.0
 40
0.3333333333333333
 40
0.3333333333333333
 40
0.3333333333333333
 40
0.3333333333333333
 40
0.6666666666666666
 40
0.6666666666666666
 40
0.6666666666666666
 40
0.6666666666666666
 40
1.0
 40
1.0
 40
1.0
 40
1.0
 10
-29.633500000000002
 20
9.8338999999999999
 30
0.0
 10
-29.426200000000001
 20
9.6824999999999992
 30
0.0
 10
-29.0215
 20
7.9219999999999997
 30
0.0
 10
-28.935199999999998
 20
7.5202
 30
0.0
 10
-28.935199999999998
 20
7.5202
 30
0.0
 10
-28.802
 20
6.9015000000000004
 30
0.0
 10
-28.182200000000002
 20
6.0132000000000003
 30
0.0
 10
-28.166
 20
5.2774999999999999
 30
0.0
 10
-28.166
 20
5.2774999999999999
 30
0.0
 10
-28.9145
 20
5.7786
 30
0.0
 10
-29.633500000000002
 20
8.4253
 30
0.0
 10
-29.633500000000002
 20
9.8338999999999999
 30
0.0
  0
SPLINE
  5
26
100
AcDbEntity
  8
RÚteg 1
 62
     7
100
AcDbSpline
210
0.0
220
0.0
230
1.0
 70
     1
 71
     3
 72
    60
 73
    56
 74
     0
 42
0.0000000001
 43
0.0000000001
 40
0.0
 40
0.0
 40
0.0
 40
0.0
 40
0.0714285714285714
 40
0.0714285714285714
 40
0.0714285714285714
 40
0.0714285714285714
 40
0.1428571428571429
 40
0.1428571428571429
 40
0.1428571428571429
 40
0.1428571428571429
 40
0.2142857142857143
 40
0.2142857142857143
 40
0.2142857142857143
 40
0.2142857142857143
 40
0.2857142857142857
 40
0.2857142857142857
 40
0.2857142857142857
 40
0.2857142857142857
 40
0.3571428571428571
 40
0.3571428571428571
 40
0.3571428571428571
 40
0.3571428571428571
 40
0.4285714285714285
 40
0.4285714285714285
 40
0.4285714285714285
 40
0.4285714285714285
 40
0.4999999999999999
 40
0.4999999999999999
 40
0.4999999999999999
 40
0.4999999999999999
 40
0.5714285714285713
 40
0.5714285714285713
 40
0.5714285714285713
 40
0.5714285714285713
 40
0.6428571428571427
 40
0.6428571428571427
 40
0.6428571428571427
 40
0.6428571428571427
 40
0.7142857142857141
 40
0.7142857142857141
 40
0.7142857142857141
 40
0.7142857142857141
 40
0.7857142857142855
 40
0.7857142857142855
 40
0.7857142857142855
 40
0.7857142857142855
 40
0.8571428571428569
 40
0.8571428571428569
 40
0.8571428571428569
 40
0.8571428571428569
 40
0.9285714285714283
 40
0.9285714285714283
 40
0.9285714285714283
 40
0.9285714285714283
 40
1.0
 40
1.0
 40
1.0
 40
1.0
 10
-30.724900000000002
 20
71.501099999999994
 30
0.0
 10
-28.914999999999999
 20
71.501099999999994
 30
0.0
 10
-27.447399999999998
 20
70.033199999999994
 30
0.0
 10
-27.447399999999998
 20
68.223600000000005
 30
0.0
 10
-27.447399999999998
 20
68.223600000000005
 30
0.0
 10
-27.447399999999998
 20
67.483800000000002
 30
0.0
 10
-27.692799999999998
 20
66.801500000000004
 30
0.0
 10
-28.106100000000001
 20
66.252799999999993
 30
0.0
 10
-28.106100000000001
 20
66.252799999999993
 30
0.0
 10
-28.106100000000001
 20
66.252799999999993
 30
0.0
 10
-26.956800000000001
 20
66.252799999999993
 30
0.0
 10
-26.956800000000001
 20
66.252799999999993
 30
0.0
 10
-26.956800000000001
 20
66.252799999999993
 30
0.0
 10
-26.136099999999999
 20
66.252799999999993
 30
0.0
 10
-25.464700000000001
 20
65.581599999999995
 30
0.0
 10
-25.464700000000001
 20
64.760800000000003
 30
0.0
 10
-25.464700000000001
 20
64.760800000000003
 30
0.0
 10
-25.464700000000001
 20
64.760800000000003
 30
0.0
 10
-25.464700000000001
 20
62.819099999999999
 30
0.0
 10
-25.464700000000001
 20
62.819099999999999
 30
0.0
 10
-25.464700000000001
 20
62.819099999999999
 30
0.0
 10
-9.8667999999999996
 20
60.301699999999997
 30
0.0
 10
2.0499999999999998
 20
46.774000000000001
 30
0.0
 10
2.0499999999999998
 20
30.466699999999999
 30
0.0
 10
2.0499999999999998
 20
30.466699999999999
 30
0.0
 10
2.0499999999999998
 20
12.3687
 30
0.0
 10
-12.626899999999999
 20
-2.3083
 30
0.0
 10
-30.724900000000002
 20
-2.3083
 30
0.0
 10
-30.724900000000002
 20
-2.3083
 30
0.0
 10
-48.823099999999997
 20
-2.3083
 30
0.0
 10
-63.5
 20
12.3687
 30
0.0
 10
-63.5
 20
30.466699999999999
 30
0.0
 10
-63.5
 20
30.466699999999999
 30
0.0
 10
-63.5
 20
46.774000000000001
 30
0.0
 10
-51.583199999999998
 20
60.301699999999997
 30
0.0
 10
-35.985300000000002
 20
62.819099999999999
 30
0.0
 10
-35.985300000000002
 20
62.819099999999999
 30
0.0
 10
-35.985300000000002
 20
62.819099999999999
 30
0.0
 10
-35.985300000000002
 20
64.760800000000003
 30
0.0
 10
-35.985300000000002
 20
64.760800000000003
 30
0.0
 10
-35.985300000000002
 20
64.760800000000003
 30
0.0
 10
-35.985300000000002
 20
65.581599999999995
 30
0.0
 10
-35.313800000000001
 20
66.252799999999993
 30
0.0
 10
-34.493299999999998
 20
66.252799999999993
 30
0.0
 10
-34.493299999999998
 20
66.252799999999993
 30
0.0
 10
-34.493299999999998
 20
66.252799999999993
 30
0.0
 10
-33.343499999999999
 20
66.252799999999993
 30
0.0
 10
-33.343499999999999
 20
66.252799999999993
 30
0.0
 10
-33.343499999999999
 20
66.252799999999993
 30
0.0
 10
-33.757199999999997
 20
66.801500000000004
 30
0.0
 10
-34.002400000000002
 20
67.483800000000002
 30
0.0
 10
-34.002400000000002
 20
68.223600000000005
 30
0.0
 10
-34.002400000000002
 20
68.223600000000005
 30
0.0
 10
-34.002400000000002
 20
70.033199999999994
 30
0.0
 10
-32.534599999999998
 20
71.501099999999994
 30
0.0
 10
-30.724900000000002
 20
71.501099999999994
 30
0.0
  0
SPLINE
  5
27
100
AcDbEntity
  8
RÚteg 1
 62
     7
100
AcDbSpline
210
0.0
220
0.0
230
1.0
 70
     1
 71
     3
 72
    20
 73
    16
 74
     0
 42
0.0000000001
 43
0.0000000001
 40
0.0
 40
0.0
 40
0.0
 40
0.0
 40
0.25
 40
0.25
 40
0.25
 40
0.25
 40
0.5
 40
0.5
 40
0.5
 40
0.5
 40
0.75
 40
0.75
 40
0.75
 40
0.75
 40
1.0
 40
1.0
 40
1.0
 40
1.0
 10
-30.724900000000002
 20
69.796800000000005
 30
0.0
 10
-29.856200000000001
 20
69.796800000000005
 30
0.0
 10
-29.151700000000002
 20
69.092399999999998
 30
0.0
 10
-29.151700000000002
 20
68.223600000000005
 30
0.0
 10
-29.151700000000002
 20
68.223600000000005
 30
0.0
 10
-29.151700000000002
 20
67.354799999999997
 30
0.0
 10
-29.856200000000001
 20
66.650400000000005
 30
0.0
 10
-30.724900000000002
 20
66.650400000000005
 30
0.0
 10
-30.724900000000002
 20
66.650400000000005
 30
0.0
 10
-31.593800000000002
 20
66.650400000000005
 30
0.0
 10
-32.298099999999998
 20
67.354799999999997
 30
0.0
 10
-32.298099999999998
 20
68.223600000000005
 30
0.0
 10
-32.298099999999998
 20
68.223600000000005
 30
0.0
 10
-32.298099999999998
 20
69.092399999999998
 30
0.0
 10
-31.593800000000002
 20
69.796800000000005
 30
0.0
 10
-30.724900000000002
 20
69.796800000000005
 30
0.0
  0
SPLINE
  5
28
100
AcDbEntity
  8
RÚteg 1
 62
     7
100
AcDbSpline
210
0.0
220
0.0
230
1.0
 70
     1
 71
     3
 72
   248
 73
   244
 74
     0
 42
0.0000000001
 43
0.0000000001
 40
0.0
 40
0.0
 40
0.0
 40
0.0
 40
0.0163934426229508
 40
0.0163934426229508
 40
0.0163934426229508
 40
0.0163934426229508
 40
0.0327868852459016
 40
0.0327868852459016
 40
0.0327868852459016
 40
0.0327868852459016
 40
0.0491803278688525
 40
0.0491803278688525
 40
0.0491803278688525
 40
0.0491803278688525
 40
0.0655737704918033
 40
0.0655737704918033
 40
0.0655737704918033
 40
0.0655737704918033
 40
0.0819672131147541
 40
0.0819672131147541
 40
0.0819672131147541
 40
0.0819672131147541
 40
0.0983606557377049
 40
0.0983606557377049
 40
0.0983606557377049
 40
0.0983606557377049
 40
0.1147540983606558
 40
0.1147540983606558
 40
0.1147540983606558
 40
0.1147540983606558
 40
0.1311475409836066
 40
0.1311475409836066
 40
0.1311475409836066
 40
0.1311475409836066
 40
0.1475409836065574
 40
0.1475409836065574
 40
0.1475409836065574
 40
0.1475409836065574
 40
0.1639344262295082
 40
0.1639344262295082
 40
0.1639344262295082
 40
0.1639344262295082
 40
0.180327868852459
 40
0.180327868852459
 40
0.180327868852459
 40
0.180327868852459
 40
0.1967213114754098
 40
0.1967213114754098
 40
0.1967213114754098
 40
0.1967213114754098
 40
0.2131147540983606
 40
0.2131147540983606
 40
0.2131147540983606
 40
0.2131147540983606
 40
0.2295081967213114
 40
0.2295081967213114
 40
0.2295081967213114
 40
0.2295081967213114
 40
0.2459016393442622
 40
0.2459016393442622
 40
0.2459016393442622
 40
0.2459016393442622
 40
0.2622950819672131
 40
0.2622950819672131
 40
0.2622950819672131
 40
0.2622950819672131
 40
0.2786885245901639
 40
0.2786885245901639
 40
0.2786885245901639
 40
0.2786885245901639
 40
0.2950819672131148
 40
0.2950819672131148
 40
0.2950819672131148
 40
0.2950819672131148
 40
0.3114754098360656
 40
0.3114754098360656
 40
0.3114754098360656
 40
0.3114754098360656
 40
0.3278688524590164
 40
0.3278688524590164
 40
0.3278688524590164
 40
0.3278688524590164
 40
0.3442622950819673
 40
0.3442622950819673
 40
0.3442622950819673
 40
0.3442622950819673
 40
0.3606557377049181
 40
0.3606557377049181
 40
0.3606557377049181
 40
0.3606557377049181
 40
0.3770491803278689
 40
0.3770491803278689
 40
0.3770491803278689
 40
0.3770491803278689
 40
0.3934426229508198
 40
0.3934426229508198
 40
0.3934426229508198
 40
0.3934426229508198
 40
0.4098360655737706
 40
0.4098360655737706
 40
0.4098360655737706
 40
0.4098360655737706
 40
0.4262295081967215
 40
0.4262295081967215
 40
0.4262295081967215
 40
0.4262295081967215
 40
0.4426229508196723
 40
0.4426229508196723
 40
0.4426229508196723
 40
0.4426229508196723
 40
0.4590163934426231
 40
0.4590163934426231
 40
0.4590163934426231
 40
0.4590163934426231
 40
0.475409836065574
 40
0.475409836065574
 40
0.475409836065574
 40
0.475409836065574
 40
0.4918032786885248
 40
0.4918032786885248
 40
0.4918032786885248
 40
0.4918032786885248
 40
0.5081967213114756
 40
0.5081967213114756
 40
0.5081967213114756
 40
0.5081967213114756
 40
0.5245901639344265
 40
0.5245901639344265
 40
0.5245901639344265
 40
0.5245901639344265
 40
0.5409836065573773
 40
0.5409836065573773
 40
0.5409836065573773
 40
0.5409836065573773
 40
0.5573770491803282
 40
0.5573770491803282
 40
0.5573770491803282
 40
0.5573770491803282
 40
0.573770491803279
 40
0.573770491803279
 40
0.573770491803279
 40
0.573770491803279
 40
0.5901639344262298
 40
0.5901639344262298
 40
0.5901639344262298
 40
0.5901639344262298
 40
0.6065573770491807
 40
0.6065573770491807
 40
0.6065573770491807
 40
0.6065573770491807
 40
0.6229508196721315
 40
0.6229508196721315
 40
0.6229508196721315
 40
0.6229508196721315
 40
0.6393442622950823
 40
0.6393442622950823
 40
0.6393442622950823
 40
0.6393442622950823
 40
0.6557377049180332
 40
0.6557377049180332
 40
0.6557377049180332
 40
0.6557377049180332
 40
0.672131147540984
 40
0.672131147540984
 40
0.672131147540984
 40
0.672131147540984
 40
0.6885245901639349
 40
0.6885245901639349
 40
0.6885245901639349
 40
0.6885245901639349
 40
0.7049180327868857
 40
0.7049180327868857
 40
0.7049180327868857
 40
0.7049180327868857
 40
0.7213114754098365
 40
0.7213114754098365
 40
0.7213114754098365
 40
0.7213114754098365
 40
0.7377049180327874
 40
0.7377049180327874
 40
0.7377049180327874
 40
0.7377049180327874
 40
0.7540983606557382
 40
0.7540983606557382
 40
0.7540983606557382
 40
0.7540983606557382
 40
0.7704918032786891
 40
0.7704918032786891
 40
0.7704918032786891
 40
0.7704918032786891
 40
0.7868852459016399
 40
0.7868852459016399
 40
0.7868852459016399
 40
0.7868852459016399
 40
0.8032786885245907
 40
0.8032786885245907
 40
0.8032786885245907
 40
0.8032786885245907
 40
0.8196721311475416
 40
0.8196721311475416
 40
0.8196721311475416
 40
0.8196721311475416
 40
0.8360655737704924
 40
0.8360655737704924
 40
0.8360655737704924
 40
0.8360655737704924
 40
0.8524590163934432
 40
0.8524590163934432
 40
0.8524590163934432
 40
0.8524590163934432
 40
0.8688524590163941
 40
0.8688524590163941
 40
0.8688524590163941
 40
0.8688524590163941
 40
0.8852459016393449
 40
0.8852459016393449
 40
0.8852459016393449
 40
0.8852459016393449
 40
0.9016393442622958
 40
0.9016393442622958
 40
0.9016393442622958
 40
0.9016393442622958
 40
0.9180327868852466
 40
0.9180327868852466
 40
0.9180327868852466
 40
0.9180327868852466
 40
0.9344262295081974
 40
0.9344262295081974
 40
0.9344262295081974
 40
0.9344262295081974
 40
0.9508196721311483
 40
0.9508196721311483
 40
0.9508196721311483
 40
0.9508196721311483
 40
0.9672131147540991
 40
0.9672131147540991
 40
0.9672131147540991
 40
0.9672131147540991
 40
0.9836065573770499
 40
0.9836065573770499
 40
0.9836065573770499
 40
0.9836065573770499
 40
1.0
 40
1.0
 40
1.0
 40
1.0
 10
-30.725000000000001
 20
60.357500000000002
 30
0.0
 10
-25.776
 20
60.357500000000002
 30
0.0
 10
-21.108000000000001
 20
59.153100000000002
 30
0.0
 10
-16.997
 20
57.023000000000003
 30
0.0
 10
-16.997
 20
57.023000000000003
 30
0.0
 10
-16.997
 20
57.023000000000003
 30
0.0
 10
-20.9833
 20
57.023000000000003
 30
0.0
 10
-20.9833
 20
57.023000000000003
 30
0.0
 10
-20.9833
 20
57.023000000000003
 30
0.0
 10
-20.770099999999999
 20
56.704300000000003
 30
0.0
 10
-20.344200000000001
 20
56.395000000000003
 30
0.0
 10
-20.0014
 20
55.919499999999999
 30
0.0
 10
-20.0014
 20
55.919499999999999
 30
0.0
 10
-19.688400000000001
 20
55.484999999999999
 30
0.0
 10
-19.4285
 20
55.070900000000002
 30
0.0
 10
-18.991499999999998
 20
54.767000000000003
 30
0.0
 10
-18.991499999999998
 20
54.767000000000003
 30
0.0
 10
-17.5366
 20
53.755400000000002
 30
0.0
 10
-17.656400000000001
 20
54.0107
 30
0.0
 10
-15.577199999999999
 20
54.0107
 30
0.0
 10
-15.577199999999999
 20
54.0107
 30
0.0
 10
-15.577199999999999
 20
54.0107
 30
0.0
 10
-15.2681
 20
54.0107
 30
0.0
 10
-15.2681
 20
54.0107
 30
0.0
 10
-15.2681
 20
54.0107
 30
0.0
 10
-15.0311
 20
54.0107
 30
0.0
 10
-14.8048
 20
53.9392
 30
0.0
 10
-14.8048
 20
53.701999999999998
 30
0.0
 10
-14.8048
 20
53.701999999999998
 30
0.0
 10
-14.8048
 20
53.249099999999999
 30
0.0
 10
-16.142399999999999
 20
52.113700000000001
 30
0.0
 10
-16.613
 20
51.957099999999997
 30
0.0
 10
-16.613
 20
51.957099999999997
 30
0.0
 10
-17.197199999999999
 20
51.762999999999998
 30
0.0
 10
-18.736699999999999
 20
51.076099999999997
 30
0.0
 10
-19.284199999999998
 20
51.076099999999997
 30
0.0
 10
-19.284199999999998
 20
51.076099999999997
 30
0.0
 10
-19.284199999999998
 20
51.076099999999997
 30
0.0
 10
-19.361499999999999
 20
51.076099999999997
 30
0.0
 10
-19.361499999999999
 20
51.076099999999997
 30
0.0
 10
-19.361499999999999
 20
51.076099999999997
 30
0.0
 10
-20.607600000000001
 20
51.076099999999997
 30
0.0
 10
-20.6203
 20
53.037500000000001
 30
0.0
 10
-21.9619
 20
53.804499999999997
 30
0.0
 10
-21.9619
 20
53.804499999999997
 30
0.0
 10
-22.6934
 20
54.222499999999997
 30
0.0
 10
-24.804099999999998
 20
55.441000000000003
 30
0.0
 10
-24.999199999999998
 20
56.173299999999998
 30
0.0
 10
-24.999199999999998
 20
56.173299999999998
 30
0.0
 10
-25.4849
 20
56.043500000000002
 30
0.0
 10
-25.056999999999999
 20
54.8157
 30
0.0
 10
-24.992100000000001
 20
54.249899999999997
 30
0.0
 10
-24.992100000000001
 20
54.249899999999997
 30
0.0
 10
-24.9132
 20
53.5627
 30
0.0
 10
-24.722799999999999
 20
52.673000000000002
 30
0.0
 10
-24.457100000000001
 20
52.158999999999999
 30
0.0
 10
-24.457100000000001
 20
52.158999999999999
 30
0.0
 10
-23.9285
 20
51.136200000000002
 30
0.0
 10
-22.785599999999999
 20
50.211300000000001
 30
0.0
 10
-21.523800000000001
 20
49.917299999999997
 30
0.0
 10
-21.523800000000001
 20
49.917299999999997
 30
0.0
 10
-21.5562
 20
49.5304
 30
0.0
 10
-23.014600000000002
 20
48.758899999999997
 30
0.0
 10
-23.454699999999999
 20
48.758899999999997
 30
0.0
 10
-23.454699999999999
 20
48.758899999999997
 30
0.0
 10
-23.454699999999999
 20
48.758899999999997
 30
0.0
 10
-23.686599999999999
 20
48.758899999999997
 30
0.0
 10
-23.686599999999999
 20
48.758899999999997
 30
0.0
 10
-23.686599999999999
 20
48.758899999999997
 30
0.0
 10
-24.082599999999999
 20
48.758899999999997
 30
0.0
 10
-25.095700000000001
 20
50.429499999999997
 30
0.0
 10
-26.1265
 20
50.798699999999997
 30
0.0
 10
-26.1265
 20
50.798699999999997
 30
0.0
 10
-26.717700000000001
 20
51.010300000000001
 30
0.0
 10
-27.2531
 20
51.1479
 30
0.0
 10
-27.936699999999998
 20
51.228200000000001
 30
0.0
 10
-27.936699999999998
 20
51.228200000000001
 30
0.0
 10
-28.650700000000001
 20
51.312100000000001
 30
0.0
 10
-29.417000000000002
 20
51.5794
 30
0.0
 10
-29.864999999999998
 20
51.616599999999998
 30
0.0
 10
-29.864999999999998
 20
51.616599999999998
 30
0.0
 10
-29.583200000000001
 20
50.406700000000001
 30
0.0
 10
-29.153099999999998
 20
49.077800000000003
 30
0.0
 10
-28.367100000000001
 20
48.326300000000003
 30
0.0
 10
-28.367100000000001
 20
48.326300000000003
 30
0.0
 10
-28.022099999999998
 20
47.996699999999997
 30
0.0
 10
-27.298200000000001
 20
47.607100000000003
 30
0.0
 10
-26.770499999999998
 20
47.528599999999997
 30
0.0
 10
-26.770499999999998
 20
47.528599999999997
 30
0.0
 10
-26.357299999999999
 20
47.467399999999998
 30
0.0
 10
-24.715800000000002
 20
47.458100000000002
 30
0.0
 10
-24.6905
 20
47.446100000000001
 30
0.0
 10
-24.6905
 20
47.446100000000001
 30
0.0
 10
-24.9209
 20
47.010599999999997
 30
0.0
 10
-26.252199999999998
 20
45.9788
 30
0.0
 10
-26.930199999999999
 20
45.9788
 30
0.0
 10
-26.930199999999999
 20
45.9788
 30
0.0
 10
-26.930199999999999
 20
45.9788
 30
0.0
 10
-27.007400000000001
 20
45.9788
 30
0.0
 10
-27.007400000000001
 20
45.9788
 30
0.0
 10
-27.007400000000001
 20
45.9788
 30
0.0
 10
-27.850000000000001
 20
45.9788
 30
0.0
 10
-28.863
 20
47.069299999999998
 30
0.0
 10
-29.801100000000002
 20
47.355400000000003
 30
0.0
 10
-29.801100000000002
 20
47.355400000000003
 30
0.0
 10
-30.895800000000001
 20
47.689300000000003
 30
0.0
 10
-32.530999999999999
 20
47.399099999999997
 30
0.0
 10
-33.726700000000001
 20
47.677999999999997
 30
0.0
 10
-33.726700000000001
 20
47.677999999999997
 30
0.0
 10
-33.4116
 20
46.4983
 30
0.0
 10
-31.221499999999999
 20
44.051000000000002
 30
0.0
 10
-29.555099999999999
 20
44.273699999999998
 30
0.0
 10
-29.555099999999999
 20
44.273699999999998
 30
0.0
 10
-29.555099999999999
 20
44.273699999999998
 30
0.0
 10
-27.790900000000001
 20
44.515900000000002
 30
0.0
 10
-27.790900000000001
 20
44.515900000000002
 30
0.0
 10
-27.790900000000001
 20
44.515900000000002
 30
0.0
 10
-27.790900000000001
 20
44.515900000000002
 30
0.0
 10
-27.779699999999998
 20
44.433999999999997
 30
0.0
 10
-27.779699999999998
 20
44.433999999999997
 30
0.0
 10
-27.779699999999998
 20
44.433999999999997
 30
0.0
 10
-27.9297
 20
43.872100000000003
 30
0.0
 10
-29.759599999999999
 20
42.580500000000001
 30
0.0
 10
-30.560099999999998
 20
42.580500000000001
 30
0.0
 10
-30.560099999999998
 20
42.580500000000001
 30
0.0
 10
-30.560099999999998
 20
42.580500000000001
 30
0.0
 10
-30.6374
 20
42.580500000000001
 30
0.0
 10
-30.6374
 20
42.580500000000001
 30
0.0
 10
-30.6374
 20
42.580500000000001
 30
0.0
 10
-31.328900000000001
 20
42.580500000000001
 30
0.0
 10
-32.164700000000003
 20
43.893599999999999
 30
0.0
 10
-33.803600000000003
 20
43.893599999999999
 30
0.0
 10
-33.803600000000003
 20
43.893599999999999
 30
0.0
 10
-33.803600000000003
 20
43.893599999999999
 30
0.0
 10
-34.807899999999997
 20
43.893599999999999
 30
0.0
 10
-34.807899999999997
 20
43.893599999999999
 30
0.0
 10
-34.807899999999997
 20
43.893599999999999
 30
0.0
 10
-35.383099999999999
 20
43.893599999999999
 30
0.0
 10
-36.607199999999999
 20
43.728499999999997
 30
0.0
 10
-37.356499999999997
 20
44.125100000000003
 30
0.0
 10
-37.356499999999997
 20
44.125100000000003
 30
0.0
 10
-37.2393
 20
43.621899999999997
 30
0.0
 10
-36.299300000000002
 20
42.111499999999999
 30
0.0
 10
-35.922800000000002
 20
41.774500000000003
 30
0.0
 10
-35.922800000000002
 20
41.774500000000003
 30
0.0
 10
-35.281199999999998
 20
41.1995
 30
0.0
 10
-34.281399999999998
 20
40.726999999999997
 30
0.0
 10
-33.109000000000002
 20
40.726999999999997
 30
0.0
 10
-33.109000000000002
 20
40.726999999999997
 30
0.0
 10
-32.013300000000001
 20
40.726999999999997
 30
0.0
 10
-31.5151
 20
41.207099999999997
 30
0.0
 10
-30.791699999999999
 20
41.267699999999998
 30
0.0
 10
-30.791699999999999
 20
41.267699999999998
 30
0.0
 10
-30.800799999999999
 20
40.859400000000001
 30
0.0
 10
-31.679300000000001
 20
40.078200000000002
 30
0.0
 10
-31.971399999999999
 20
39.821199999999997
 30
0.0
 10
-31.971399999999999
 20
39.821199999999997
 30
0.0
 10
-32.474899999999998
 20
39.377800000000001
 30
0.0
 10
-32.796799999999998
 20
38.8917
 30
0.0
 10
-33.206600000000002
 20
38.353200000000001
 30
0.0
 10
-33.206600000000002
 20
38.353200000000001
 30
0.0
 10
-33.663400000000003
 20
37.753700000000002
 30
0.0
 10
-33.867600000000003
 20
37.428400000000003
 30
0.0
 10
-34.190100000000001
 20
36.710700000000003
 30
0.0
 10
-34.190100000000001
 20
36.710700000000003
 30
0.0
 10
-34.409399999999998
 20
36.222499999999997
 30
0.0
 10
-34.720500000000001
 20
35.140999999999998
 30
0.0
 10
-34.962400000000002
 20
34.780099999999997
 30
0.0
 10
-34.962400000000002
 20
34.780099999999997
 30
0.0
 10
-34.962400000000002
 20
34.780099999999997
 30
0.0
 10
-34.962400000000002
 20
34.393799999999999
 30
0.0
 10
-34.962400000000002
 20
34.393799999999999
 30
0.0
 10
-34.962400000000002
 20
34.393799999999999
 30
0.0
 10
-35.224600000000002
 20
34.002299999999998
 30
0.0
 10
-35.657499999999999
 20
31.0244
 30
0.0
 10
-35.657499999999999
 20
30.300599999999999
 30
0.0
 10
-35.657499999999999
 20
30.300599999999999
 30
0.0
 10
-35.657499999999999
 20
29.735700000000001
 30
0.0
 10
-35.6355
 20
29.1647
 30
0.0
 10
-35.477699999999999
 20
28.703900000000001
 30
0.0
 10
-35.477699999999999
 20
28.703900000000001
 30
0.0
 10
-35.462699999999998
 20
28.660799999999998
 30
0.0
 10
-35.347900000000003
 20
27.905200000000001
 30
0.0
 10
-35.347299999999997
 20
27.894100000000002
 30
0.0
 10
-35.347299999999997
 20
27.894100000000002
 30
0.0
 10
-35.329300000000003
 20
27.481999999999999
 30
0.0
 10
-35.600999999999999
 20
27.630199999999999
 30
0.0
 10
-35.937600000000003
 20
27.5686
 30
0.0
 10
-35.937600000000003
 20
27.5686
 30
0.0
 10
-36.404499999999999
 20
27.4833
 30
0.0
 10
-36.962299999999999
 20
27.208100000000002
 30
0.0
 10
-37.296300000000002
 20
27.2697
 30
0.0
 10
-37.296300000000002
 20
27.2697
 30
0.0
 10
-37.859099999999998
 20
27.373699999999999
 30
0.0
 10
-38.087200000000003
 20
27.5976
 30
0.0
 10
-38.823799999999999
 20
27.5976
 30
0.0
 10
-38.823799999999999
 20
27.5976
 30
0.0
 10
-38.823799999999999
 20
27.5976
 30
0.0
 10
-39.441800000000001
 20
27.5976
 30
0.0
 10
-39.441800000000001
 20
27.5976
 30
0.0
 10
-39.441800000000001
 20
27.5976
 30
0.0
 10
-41.1387
 20
27.5976
 30
0.0
 10
-42.810699999999997
 20
26.115200000000002
 30
0.0
 10
-43.843699999999998
 20
25.357399999999998
 30
0.0
 10
-43.843699999999998
 20
25.357399999999998
 30
0.0
 10
-44.8264
 20
24.635899999999999
 30
0.0
 10
-47.007199999999997
 20
23.504200000000001
 30
0.0
 10
-48.632300000000001
 20
23.504200000000001
 30
0.0
 10
-48.632300000000001
 20
23.504200000000001
 30
0.0
 10
-50.5702
 20
23.504200000000001
 30
0.0
 10
-52.1785
 20
24.587700000000002
 30
0.0
 10
-53.390099999999997
 20
25.388400000000001
 30
0.0
 10
-53.390099999999997
 20
25.388400000000001
 30
0.0
 10
-54.4955
 20
26.118600000000001
 30
0.0
 10
-55.833100000000002
 20
28.2927
 30
0.0
 10
-57.128
 20
28.2927
 30
0.0
 10
-57.128
 20
28.2927
 30
0.0
 10
-57.499899999999997
 20
28.2927
 30
0.0
 10
-58.0989
 20
28.067299999999999
 30
0.0
 10
-58.3887
 20
27.9314
 30
0.0
 10
-58.3887
 20
27.9314
 30
0.0
 10
-58.886200000000002
 20
27.697800000000001
 30
0.0
 10
-59.112200000000001
 20
27.258900000000001
 30
0.0
 10
-59.290399999999998
 20
27.211400000000001
 30
0.0
 10
-59.290399999999998
 20
27.211400000000001
 30
0.0
 10
-59.290399999999998
 20
27.211400000000001
 30
0.0
 10
-59.290399999999998
 20
26.439
 30
0.0
 10
-59.290399999999998
 20
26.439
 30
0.0
 10
-59.290399999999998
 20
26.439
 30
0.0
 10
-59.290399999999998
 20
26.197900000000001
 30
0.0
 10
-59.149099999999997
 20
25.992100000000001
 30
0.0
 10
-59.058700000000002
 20
25.821300000000001
 30
0.0
 10
-59.058700000000002
 20
25.821300000000001
 30
0.0
 10
-59.614600000000003
 20
25.448699999999999
 30
0.0
 10
-59.954300000000003
 20
25.387899999999998
 30
0.0
 10
-60.158499999999997
 20
25.2349
 30
0.0
 10
-60.158499999999997
 20
25.2349
 30
0.0
 10
-60.4587
 20
26.933700000000002
 30
0.0
 10
-60.6158
 20
28.681699999999999
 30
0.0
 10
-60.6158
 20
30.466699999999999
 30
0.0
 10
-60.6158
 20
30.466699999999999
 30
0.0
 10
-60.6158
 20
46.972099999999998
 30
0.0
 10
-47.230400000000003
 20
60.357500000000002
 30
0.0
 10
-30.725000000000001
 20
60.357500000000002
 30
0.0
  0
SPLINE
  5
29
100
AcDbEntity
  8
RÚteg 1
 62
     7
100
AcDbSpline
210
0.0
220
0.0
230
1.0
 70
     1
 71
     3
 72
    20
 73
    16
 74
     0
 42
0.0000000001
 43
0.0000000001
 40
0.0
 40
0.0
 40
0.0
 40
0.0
 40
0.25
 40
0.25
 40
0.25
 40
0.25
 40
0.5
 40
0.5
 40
0.5
 40
0.5
 40
0.75
 40
0.75
 40
0.75
 40
0.75
 40
1.0
 40
1.0
 40
1.0
 40
1.0
 10
-14.394299999999999
 20
55.502499999999998
 30
0.0
 10
-13.8613
 20
55.1539
 30
0.0
 10
-13.338800000000001
 20
54.789900000000003
 30
0.0
 10
-12.829599999999999
 20
54.409199999999998
 30
0.0
 10
-12.829599999999999
 20
54.409199999999998
 30
0.0
 10
-12.9443
 20
54.372399999999999
 30
0.0
 10
-13.0732
 20
54.334600000000002
 30
0.0
 10
-13.230700000000001
 20
54.289499999999997
 30
0.0
 10
-13.230700000000001
 20
54.289499999999997
 30
0.0
 10
-13.9123
 20
54.094799999999999
 30
0.0
 10
-13.9817
 20
54.218000000000004
 30
0.0
 10
-14.1571
 20
54.813099999999999
 30
0.0
 10
-14.1571
 20
54.813099999999999
 30
0.0
 10
-14.230600000000001
 20
55.062800000000003
 30
0.0
 10
-14.308299999999999
 20
55.290999999999997
 30
0.0
 10
-14.394299999999999
 20
55.502499999999998
 30
0.0
  0
SPLINE
  5
2A
100
AcDbEntity
  8
RÚteg 1
 62
     7
100
AcDbSpline
210
0.0
220
0.0
230
1.0
 70
     1
 71
     3
 72
   140
 73
   136
 74
     0
 42
0.0000000001
 43
0.0000000001
 40
0.0
 40
0.0
 40
0.0
 40
0.0
 40
0.0294117647058824
 40
0.0294117647058824
 40
0.0294117647058824
 40
0.0294117647058824
 40
0.0588235294117647
 40
0.0588235294117647
 40
0.0588235294117647
 40
0.0588235294117647
 40
0.0882352941176471
 40
0.0882352941176471
 40
0.0882352941176471
 40
0.0882352941176471
 40
0.1176470588235294
 40
0.1176470588235294
 40
0.1176470588235294
 40
0.1176470588235294
 40
0.1470588235294118
 40
0.1470588235294118
 40
0.1470588235294118
 40
0.1470588235294118
 40
0.1764705882352941
 40
0.1764705882352941
 40
0.1764705882352941
 40
0.1764705882352941
 40
0.2058823529411765
 40
0.2058823529411765
 40
0.2058823529411765
 40
0.2058823529411765
 40
0.2352941176470589
 40
0.2352941176470589
 40
0.2352941176470589
 40
0.2352941176470589
 40
0.2647058823529412
 40
0.2647058823529412
 40
0.2647058823529412
 40
0.2647058823529412
 40
0.2941176470588235
 40
0.2941176470588235
 40
0.2941176470588235
 40
0.2941176470588235
 40
0.3235294117647059
 40
0.3235294117647059
 40
0.3235294117647059
 40
0.3235294117647059
 40
0.3529411764705883
 40
0.3529411764705883
 40
0.3529411764705883
 40
0.3529411764705883
 40
0.3823529411764706
 40
0.3823529411764706
 40
0.3823529411764706
 40
0.3823529411764706
 40
0.411764705882353
 40
0.411764705882353
 40
0.411764705882353
 40
0.411764705882353
 40
0.4411764705882353
 40
0.4411764705882353
 40
0.4411764705882353
 40
0.4411764705882353
 40
0.4705882352941177
 40
0.4705882352941177
 40
0.4705882352941177
 40
0.4705882352941177
 40
0.5
 40
0.5
 40
0.5
 40
0.5
 40
0.5294117647058824
 40
0.5294117647058824
 40
0.5294117647058824
 40
0.5294117647058824
 40
0.5588235294117647
 40
0.5588235294117647
 40
0.5588235294117647
 40
0.5588235294117647
 40
0.5882352941176471
 40
0.5882352941176471
 40
0.5882352941176471
 40
0.5882352941176471
 40
0.6176470588235294
 40
0.6176470588235294
 40
0.6176470588235294
 40
0.6176470588235294
 40
0.6470588235294118
 40
0.6470588235294118
 40
0.6470588235294118
 40
0.6470588235294118
 40
0.6764705882352942
 40
0.6764705882352942
 40
0.6764705882352942
 40
0.6764705882352942
 40
0.7058823529411765
 40
0.7058823529411765
 40
0.7058823529411765
 40
0.7058823529411765
 40
0.7352941176470589
 40
0.7352941176470589
 40
0.7352941176470589
 40
0.7352941176470589
 40
0.7647058823529412
 40
0.7647058823529412
 40
0.7647058823529412
 40
0.7647058823529412
 40
0.7941176470588236
 40
0.7941176470588236
 40
0.7941176470588236
 40
0.7941176470588236
 40
0.823529411764706
 40
0.823529411764706
 40
0.823529411764706
 40
0.823529411764706
 40
0.8529411764705883
 40
0.8529411764705883
 40
0.8529411764705883
 40
0.8529411764705883
 40
0.8823529411764707
 40
0.8823529411764707
 40
0.8823529411764707
 40
0.8823529411764707
 40
0.911764705882353
 40
0.911764705882353
 40
0.911764705882353
 40
0.911764705882353
 40
0.9411764705882354
 40
0.9411764705882354
 40
0.9411764705882354
 40
0.9411764705882354
 40
0.9705882352941178
 40
0.9705882352941178
 40
0.9705882352941178
 40
0.9705882352941178
 40
1.0
 40
1.0
 40
1.0
 40
1.0
 10
-9.5999999999999996
 20
51.611400000000003
 30
0.0
 10
-5.2397
 20
47.255200000000002
 30
0.0
 10
-2.2193999999999998
 20
41.557899999999997
 30
0.0
 10
-1.2075
 20
35.192700000000002
 30
0.0
 10
-1.2075
 20
35.192700000000002
 30
0.0
 10
-2.121
 20
35.329700000000003
 30
0.0
 10
-2.8772000000000002
 20
35.938499999999998
 30
0.0
 10
-3.8378000000000001
 20
35.938499999999998
 30
0.0
 10
-3.8378000000000001
 20
35.938499999999998
 30
0.0
 10
-3.8378000000000001
 20
35.938499999999998
 30
0.0
 10
-4.2240000000000002
 20
35.938499999999998
 30
0.0
 10
-4.2240000000000002
 20
35.938499999999998
 30
0.0
 10
-4.2240000000000002
 20
35.938499999999998
 30
0.0
 10
-6.3007999999999997
 20
35.938499999999998
 30
0.0
 10
-7.6557000000000004
 20
34.162100000000002
 30
0.0
 10
-8.4717000000000002
 20
34.162100000000002
 30
0.0
 10
-8.4717000000000002
 20
34.162100000000002
 30
0.0
 10
-9.1806000000000001
 20
34.162100000000002
 30
0.0
 10
-9.4262999999999995
 20
34.683399999999999
 30
0.0
 10
-9.6965000000000003
 20
35.100000000000001
 30
0.0
 10
-9.6965000000000003
 20
35.100000000000001
 30
0.0
 10
-9.9623000000000008
 20
35.509799999999998
 30
0.0
 10
-10.337999999999999
 20
35.959699999999998
 30
0.0
 10
-10.6343
 20
36.402000000000001
 30
0.0
 10
-10.6343
 20
36.402000000000001
 30
0.0
 10
-10.539999999999999
 20
36.454999999999998
 30
0.0
 10
-10.551600000000001
 20
36.479199999999999
 30
0.0
 10
-10.4023
 20
36.479199999999999
 30
0.0
 10
-10.4023
 20
36.479199999999999
 30
0.0
 10
-10.0207
 20
36.479199999999999
 30
0.0
 10
-9.1095000000000006
 20
36.015700000000002
 30
0.0
 10
-8.0856999999999992
 20
36.015700000000002
 30
0.0
 10
-8.0856999999999992
 20
36.015700000000002
 30
0.0
 10
-8.0856999999999992
 20
36.015700000000002
 30
0.0
 10
-7.6219999999999999
 20
36.015700000000002
 30
0.0
 10
-7.6219999999999999
 20
36.015700000000002
 30
0.0
 10
-7.6219999999999999
 20
36.015700000000002
 30
0.0
 10
-6.1205999999999996
 20
36.015700000000002
 30
0.0
 10
-3.8631000000000002
 20
37.7774
 30
0.0
 10
-3.3744000000000001
 20
38.796100000000003
 30
0.0
 10
-3.3744000000000001
 20
38.796100000000003
 30
0.0
 10
-6.2595999999999998
 20
38.796100000000003
 30
0.0
 10
-7.0873999999999997
 20
39.726700000000001
 30
0.0
 10
-9.3213000000000008
 20
38.255600000000001
 30
0.0
 10
-9.3213000000000008
 20
38.255600000000001
 30
0.0
 10
-10.145300000000001
 20
37.713000000000001
 30
0.0
 10
-10.501099999999999
 20
36.997900000000001
 30
0.0
 10
-11.5426
 20
38.042200000000001
 30
0.0
 10
-11.5426
 20
38.042200000000001
 30
0.0
 10
-11.728999999999999
 20
38.229399999999998
 30
0.0
 10
-12.190799999999999
 20
38.813400000000001
 30
0.0
 10
-12.3104
 20
39.050800000000002
 30
0.0
 10
-12.3104
 20
39.050800000000002
 30
0.0
 10
-12.4155
 20
39.258699999999997
 30
0.0
 10
-12.817299999999999
 20
40.340699999999998
 30
0.0
 10
-12.565
 20
40.340699999999998
 30
0.0
 10
-12.565
 20
40.340699999999998
 30
0.0
 10
-12.147
 20
40.340699999999998
 30
0.0
 10
-11.2933
 20
39.645699999999998
 30
0.0
 10
-10.016400000000001
 20
39.645699999999998
 30
0.0
 10
-10.016400000000001
 20
39.645699999999998
 30
0.0
 10
-10.016400000000001
 20
39.645699999999998
 30
0.0
 10
-9.9390999999999998
 20
39.645699999999998
 30
0.0
 10
-9.9390999999999998
 20
39.645699999999998
 30
0.0
 10
-9.9390999999999998
 20
39.645699999999998
 30
0.0
 10
-8.7205999999999992
 20
39.645699999999998
 30
0.0
 10
-5.5949
 20
41.423699999999997
 30
0.0
 10
-5.2282999999999999
 20
42.117199999999997
 30
0.0
 10
-5.2282999999999999
 20
42.117199999999997
 30
0.0
 10
-6.6074999999999999
 20
42.147799999999997
 30
0.0
 10
-7.4294000000000002
 20
42.7348
 30
0.0
 10
-9.0896000000000008
 20
42.7348
 30
0.0
 10
-9.0896000000000008
 20
42.7348
 30
0.0
 10
-9.0896000000000008
 20
42.7348
 30
0.0
 10
-9.2439
 20
42.7348
 30
0.0
 10
-9.2439
 20
42.7348
 30
0.0
 10
-9.2439
 20
42.7348
 30
0.0
 10
-9.9061000000000003
 20
42.7348
 30
0.0
 10
-10.9139
 20
42.368499999999997
 30
0.0
 10
-11.3155
 20
42.103299999999997
 30
0.0
 10
-11.3155
 20
42.103299999999997
 30
0.0
 10
-12.211
 20
41.511499999999998
 30
0.0
 10
-12.01
 20
41.4221
 30
0.0
 10
-13.1829
 20
41.4221
 30
0.0
 10
-13.1829
 20
41.4221
 30
0.0
 10
-13.568199999999999
 20
41.997300000000003
 30
0.0
 10
-13.877800000000001
 20
42.876300000000001
 30
0.0
 10
-13.877800000000001
 20
43.816299999999998
 30
0.0
 10
-13.877800000000001
 20
43.816299999999998
 30
0.0
 10
-13.877800000000001
 20
43.816299999999998
 30
0.0
 10
-13.877800000000001
 20
44.202399999999997
 30
0.0
 10
-13.877800000000001
 20
44.202399999999997
 30
0.0
 10
-13.877800000000001
 20
44.202399999999997
 30
0.0
 10
-13.4878
 20
44.1937
 30
0.0
 10
-12.4009
 20
43.591500000000003
 30
0.0
 10
-11.553000000000001
 20
43.509399999999999
 30
0.0
 10
-11.553000000000001
 20
43.509399999999999
 30
0.0
 10
-10.750500000000001
 20
43.432099999999998
 30
0.0
 10
-9.6424000000000003
 20
43.865600000000001
 30
0.0
 10
-9.1546000000000003
 20
44.112900000000003
 30
0.0
 10
-9.1546000000000003
 20
44.112900000000003
 30
0.0
 10
-8.4316999999999993
 20
44.479300000000002
 30
0.0
 10
-8.0391999999999992
 20
44.921599999999998
 30
0.0
 10
-7.5594000000000001
 20
45.529699999999998
 30
0.0
 10
-7.5594000000000001
 20
45.529699999999998
 30
0.0
 10
-7.2971000000000004
 20
45.862299999999998
 30
0.0
 10
-6.2638999999999996
 20
46.910400000000003
 30
0.0
 10
-6.2320000000000002
 20
47.291800000000002
 30
0.0
 10
-6.2320000000000002
 20
47.291800000000002
 30
0.0
 10
-7.7343000000000002
 20
47.166699999999999
 30
0.0
 10
-9.4260999999999999
 20
47.6648
 30
0.0
 10
-10.721399999999999
 20
47.224299999999999
 30
0.0
 10
-10.721399999999999
 20
47.224299999999999
 30
0.0
 10
-11.548500000000001
 20
46.942999999999998
 30
0.0
 10
-11.7781
 20
46.861899999999999
 30
0.0
 10
-12.256600000000001
 20
46.210999999999999
 30
0.0
 10
-12.256600000000001
 20
46.210999999999999
 30
0.0
 10
-12.549300000000001
 20
45.813099999999999
 30
0.0
 10
-12.990600000000001
 20
45.052
 30
0.0
 10
-13.6463
 20
45.052
 30
0.0
 10
-13.6463
 20
45.052
 30
0.0
 10
-13.6463
 20
45.052
 30
0.0
 10
-13.877800000000001
 20
45.052
 30
0.0
 10
-13.877800000000001
 20
45.052
 30
0.0
 10
-13.877800000000001
 20
45.052
 30
0.0
 10
-13.9465
 20
45.344799999999999
 30
0.0
 10
-14.1098
 20
45.619700000000002
 30
0.0
 10
-14.1098
 20
45.9788
 30
0.0
 10
-14.1098
 20
45.9788
 30
0.0
 10
-14.1098
 20
47.445099999999996
 30
0.0
 10
-13.696199999999999
 20
49.259700000000002
 30
0.0
 10
-12.415900000000001
 20
49.459400000000002
 30
0.0
 10
-12.415900000000001
 20
49.459400000000002
 30
0.0
 10
-11.476000000000001
 20
49.605499999999999
 30
0.0
 10
-12.6309
 20
51.502899999999997
 30
0.0
 10
-9.5999999999999996
 20
51.611400000000003
 30
0.0
  0
SPLINE
  5
2B
100
AcDbEntity
  8
RÚteg 1
 62
     7
100
AcDbSpline
210
0.0
220
0.0
230
1.0
 70
     1
 71
     3
 72
    36
 73
    32
 74
     0
 42
0.0000000001
 43
0.0000000001
 40
0.0
 40
0.0
 40
0.0
 40
0.0
 40
0.125
 40
0.125
 40
0.125
 40
0.125
 40
0.25
 40
0.25
 40
0.25
 40
0.25
 40
0.375
 40
0.375
 40
0.375
 40
0.375
 40
0.5
 40
0.5
 40
0.5
 40
0.5
 40
0.625
 40
0.625
 40
0.625
 40
0.625
 40
0.75
 40
0.75
 40
0.75
 40
0.75
 40
0.875
 40
0.875
 40
0.875
 40
0.875
 40
1.0
 40
1.0
 40
1.0
 40
1.0
 10
-1.1621999999999999
 20
34.899700000000003
 30
0.0
 10
-0.9469
 20
33.453299999999999
 30
0.0
 10
-0.8342000000000001
 20
31.973299999999998
 30
0.0
 10
-0.8342000000000001
 20
30.466699999999999
 30
0.0
 10
-0.8342000000000001
 20
30.466699999999999
 30
0.0
 10
-0.8342000000000001
 20
29.890799999999999
 30
0.0
 10
-0.8521
 20
29.319199999999999
 30
0.0
 10
-0.8844
 20
28.7516
 30
0.0
 10
-0.8844
 20
28.7516
 30
0.0
 10
-1.0526
 20
29.009499999999999
 30
0.0
 10
-1.1970000000000001
 20
29.2239
 30
0.0
 10
-1.2665999999999999
 20
29.319199999999999
 30
0.0
 10
-1.2665999999999999
 20
29.319199999999999
 30
0.0
 10
-1.8492
 20
30.1175
 30
0.0
 10
-2.0870000000000002
 20
30.491
 30
0.0
 10
-2.9571000000000001
 20
31.026900000000001
 30
0.0
 10
-2.9571000000000001
 20
31.026900000000001
 30
0.0
 10
-3.9403000000000001
 20
31.6325
 30
0.0
 10
-7.8217999999999996
 20
31.535599999999999
 30
0.0
 10
-7.931
 20
32.849299999999999
 30
0.0
 10
-7.931
 20
32.849299999999999
 30
0.0
 10
-6.9531999999999998
 20
32.849299999999999
 30
0.0
 10
-6.5186000000000002
 20
32.3857
 30
0.0
 10
-5.6143000000000001
 20
32.3857
 30
0.0
 10
-5.6143000000000001
 20
32.3857
 30
0.0
 10
-5.6143000000000001
 20
32.3857
 30
0.0
 10
-5.0735999999999999
 20
32.3857
 30
0.0
 10
-5.0735999999999999
 20
32.3857
 30
0.0
 10
-5.0735999999999999
 20
32.3857
 30
0.0
 10
-3.0499000000000001
 20
32.3857
 30
0.0
 10
-2.0958999999999999
 20
34.356400000000001
 30
0.0
 10
-1.1621999999999999
 20
34.899700000000003
 30
0.0
  0
SPLINE
  5
2C
100
AcDbEntity
  8
RÚteg 1
 62
     7
100
AcDbSpline
210
0.0
220
0.0
230
1.0
 70
     1
 71
     3
 72
   476
 73
   472
 74
     0
 42
0.0000000001
 43
0.0000000001
 40
0.0
 40
0.0
 40
0.0
 40
0.0
 40
0.0084745762711864
 40
0.0084745762711864
 40
0.0084745762711864
 40
0.0084745762711864
 40
0.0169491525423729
 40
0.0169491525423729
 40
0.0169491525423729
 40
0.0169491525423729
 40
0.0254237288135593
 40
0.0254237288135593
 40
0.0254237288135593
 40
0.0254237288135593
 40
0.0338983050847458
 40
0.0338983050847458
 40
0.0338983050847458
 40
0.0338983050847458
 40
0.0423728813559322
 40
0.0423728813559322
 40
0.0423728813559322
 40
0.0423728813559322
 40
0.0508474576271186
 40
0.0508474576271186
 40
0.0508474576271186
 40
0.0508474576271186
 40
0.0593220338983051
 40
0.0593220338983051
 40
0.0593220338983051
 40
0.0593220338983051
 40
0.0677966101694915
 40
0.0677966101694915
 40
0.0677966101694915
 40
0.0677966101694915
 40
0.076271186440678
 40
0.076271186440678
 40
0.076271186440678
 40
0.076271186440678
 40
0.0847457627118644
 40
0.0847457627118644
 40
0.0847457627118644
 40
0.0847457627118644
 40
0.0932203389830509
 40
0.0932203389830509
 40
0.0932203389830509
 40
0.0932203389830509
 40
0.1016949152542373
 40
0.1016949152542373
 40
0.1016949152542373
 40
0.1016949152542373
 40
0.1101694915254238
 40
0.1101694915254238
 40
0.1101694915254238
 40
0.1101694915254238
 40
0.1186440677966102
 40
0.1186440677966102
 40
0.1186440677966102
 40
0.1186440677966102
 40
0.1271186440677966
 40
0.1271186440677966
 40
0.1271186440677966
 40
0.1271186440677966
 40
0.1355932203389831
 40
0.1355932203389831
 40
0.1355932203389831
 40
0.1355932203389831
 40
0.1440677966101695
 40
0.1440677966101695
 40
0.1440677966101695
 40
0.1440677966101695
 40
0.152542372881356
 40
0.152542372881356
 40
0.152542372881356
 40
0.152542372881356
 40
0.1610169491525424
 40
0.1610169491525424
 40
0.1610169491525424
 40
0.1610169491525424
 40
0.1694915254237289
 40
0.1694915254237289
 40
0.1694915254237289
 40
0.1694915254237289
 40
0.1779661016949153
 40
0.1779661016949153
 40
0.1779661016949153
 40
0.1779661016949153
 40
0.1864406779661018
 40
0.1864406779661018
 40
0.1864406779661018
 40
0.1864406779661018
 40
0.1949152542372882
 40
0.1949152542372882
 40
0.1949152542372882
 40
0.1949152542372882
 40
0.2033898305084746
 40
0.2033898305084746
 40
0.2033898305084746
 40
0.2033898305084746
 40
0.2118644067796611
 40
0.2118644067796611
 40
0.2118644067796611
 40
0.2118644067796611
 40
0.2203389830508475
 40
0.2203389830508475
 40
0.2203389830508475
 40
0.2203389830508475
 40
0.228813559322034
 40
0.228813559322034
 40
0.228813559322034
 40
0.228813559322034
 40
0.2372881355932204
 40
0.2372881355932204
 40
0.2372881355932204
 40
0.2372881355932204
 40
0.2457627118644069
 40
0.2457627118644069
 40
0.2457627118644069
 40
0.2457627118644069
 40
0.2542372881355933
 40
0.2542372881355933
 40
0.2542372881355933
 40
0.2542372881355933
 40
0.2627118644067797
 40
0.2627118644067797
 40
0.2627118644067797
 40
0.2627118644067797
 40
0.2711864406779662
 40
0.2711864406779662
 40
0.2711864406779662
 40
0.2711864406779662
 40
0.2796610169491526
 40
0.2796610169491526
 40
0.2796610169491526
 40
0.2796610169491526
 40
0.288135593220339
 40
0.288135593220339
 40
0.288135593220339
 40
0.288135593220339
 40
0.2966101694915254
 40
0.2966101694915254
 40
0.2966101694915254
 40
0.2966101694915254
 40
0.3050847457627118
 40
0.3050847457627118
 40
0.3050847457627118
 40
0.3050847457627118
 40
0.3135593220338983
 40
0.3135593220338983
 40
0.3135593220338983
 40
0.3135593220338983
 40
0.3220338983050847
 40
0.3220338983050847
 40
0.3220338983050847
 40
0.3220338983050847
 40
0.3305084745762711
 40
0.3305084745762711
 40
0.3305084745762711
 40
0.3305084745762711
 40
0.3389830508474575
 40
0.3389830508474575
 40
0.3389830508474575
 40
0.3389830508474575
 40
0.3474576271186439
 40
0.3474576271186439
 40
0.3474576271186439
 40
0.3474576271186439
 40
0.3559322033898303
 40
0.3559322033898303
 40
0.3559322033898303
 40
0.3559322033898303
 40
0.3644067796610168
 40
0.3644067796610168
 40
0.3644067796610168
 40
0.3644067796610168
 40
0.3728813559322032
 40
0.3728813559322032
 40
0.3728813559322032
 40
0.3728813559322032
 40
0.3813559322033896
 40
0.3813559322033896
 40
0.3813559322033896
 40
0.3813559322033896
 40
0.389830508474576
 40
0.389830508474576
 40
0.389830508474576
 40
0.389830508474576
 40
0.3983050847457624
 40
0.3983050847457624
 40
0.3983050847457624
 40
0.3983050847457624
 40
0.4067796610169489
 40
0.4067796610169489
 40
0.4067796610169489
 40
0.4067796610169489
 40
0.4152542372881353
 40
0.4152542372881353
 40
0.4152542372881353
 40
0.4152542372881353
 40
0.4237288135593217
 40
0.4237288135593217
 40
0.4237288135593217
 40
0.4237288135593217
 40
0.4322033898305081
 40
0.4322033898305081
 40
0.4322033898305081
 40
0.4322033898305081
 40
0.4406779661016945
 40
0.4406779661016945
 40
0.4406779661016945
 40
0.4406779661016945
 40
0.4491525423728809
 40
0.4491525423728809
 40
0.4491525423728809
 40
0.4491525423728809
 40
0.4576271186440674
 40
0.4576271186440674
 40
0.4576271186440674
 40
0.4576271186440674
 40
0.4661016949152538
 40
0.4661016949152538
 40
0.4661016949152538
 40
0.4661016949152538
 40
0.4745762711864402
 40
0.4745762711864402
 40
0.4745762711864402
 40
0.4745762711864402
 40
0.4830508474576266
 40
0.4830508474576266
 40
0.4830508474576266
 40
0.4830508474576266
 40
0.491525423728813
 40
0.491525423728813
 40
0.491525423728813
 40
0.491525423728813
 40
0.4999999999999994
 40
0.4999999999999994
 40
0.4999999999999994
 40
0.4999999999999994
 40
0.5084745762711859
 40
0.5084745762711859
 40
0.5084745762711859
 40
0.5084745762711859
 40
0.5169491525423723
 40
0.5169491525423723
 40
0.5169491525423723
 40
0.5169491525423723
 40
0.5254237288135587
 40
0.5254237288135587
 40
0.5254237288135587
 40
0.5254237288135587
 40
0.5338983050847451
 40
0.5338983050847451
 40
0.5338983050847451
 40
0.5338983050847451
 40
0.5423728813559315
 40
0.5423728813559315
 40
0.5423728813559315
 40
0.5423728813559315
 40
0.550847457627118
 40
0.550847457627118
 40
0.550847457627118
 40
0.550847457627118
 40
0.5593220338983044
 40
0.5593220338983044
 40
0.5593220338983044
 40
0.5593220338983044
 40
0.5677966101694908
 40
0.5677966101694908
 40
0.5677966101694908
 40
0.5677966101694908
 40
0.5762711864406772
 40
0.5762711864406772
 40
0.5762711864406772
 40
0.5762711864406772
 40
0.5847457627118636
 40
0.5847457627118636
 40
0.5847457627118636
 40
0.5847457627118636
 40
0.59322033898305
 40
0.59322033898305
 40
0.59322033898305
 40
0.59322033898305
 40
0.6016949152542365
 40
0.6016949152542365
 40
0.6016949152542365
 40
0.6016949152542365
 40
0.6101694915254229
 40
0.6101694915254229
 40
0.6101694915254229
 40
0.6101694915254229
 40
0.6186440677966093
 40
0.6186440677966093
 40
0.6186440677966093
 40
0.6186440677966093
 40
0.6271186440677957
 40
0.6271186440677957
 40
0.6271186440677957
 40
0.6271186440677957
 40
0.6355932203389821
 40
0.6355932203389821
 40
0.6355932203389821
 40
0.6355932203389821
 40
0.6440677966101686
 40
0.6440677966101686
 40
0.6440677966101686
 40
0.6440677966101686
 40
0.652542372881355
 40
0.652542372881355
 40
0.652542372881355
 40
0.652542372881355
 40
0.6610169491525414
 40
0.6610169491525414
 40
0.6610169491525414
 40
0.6610169491525414
 40
0.6694915254237278
 40
0.6694915254237278
 40
0.6694915254237278
 40
0.6694915254237278
 40
0.6779661016949142
 40
0.6779661016949142
 40
0.6779661016949142
 40
0.6779661016949142
 40
0.6864406779661006
 40
0.6864406779661006
 40
0.6864406779661006
 40
0.6864406779661006
 40
0.6949152542372871
 40
0.6949152542372871
 40
0.6949152542372871
 40
0.6949152542372871
 40
0.7033898305084735
 40
0.7033898305084735
 40
0.7033898305084735
 40
0.7033898305084735
 40
0.7118644067796599
 40
0.7118644067796599
 40
0.7118644067796599
 40
0.7118644067796599
 40
0.7203389830508463
 40
0.7203389830508463
 40
0.7203389830508463
 40
0.7203389830508463
 40
0.7288135593220327
 40
0.7288135593220327
 40
0.7288135593220327
 40
0.7288135593220327
 40
0.7372881355932192
 40
0.7372881355932192
 40
0.7372881355932192
 40
0.7372881355932192
 40
0.7457627118644056
 40
0.7457627118644056
 40
0.7457627118644056
 40
0.7457627118644056
 40
0.754237288135592
 40
0.754237288135592
 40
0.754237288135592
 40
0.754237288135592
 40
0.7627118644067784
 40
0.7627118644067784
 40
0.7627118644067784
 40
0.7627118644067784
 40
0.7711864406779648
 40
0.7711864406779648
 40
0.7711864406779648
 40
0.7711864406779648
 40
0.7796610169491512
 40
0.7796610169491512
 40
0.7796610169491512
 40
0.7796610169491512
 40
0.7881355932203377
 40
0.7881355932203377
 40
0.7881355932203377
 40
0.7881355932203377
 40
0.7966101694915241
 40
0.7966101694915241
 40
0.7966101694915241
 40
0.7966101694915241
 40
0.8050847457627105
 40
0.8050847457627105
 40
0.8050847457627105
 40
0.8050847457627105
 40
0.8135593220338969
 40
0.8135593220338969
 40
0.8135593220338969
 40
0.8135593220338969
 40
0.8220338983050833
 40
0.8220338983050833
 40
0.8220338983050833
 40
0.8220338983050833
 40
0.8305084745762698
 40
0.8305084745762698
 40
0.8305084745762698
 40
0.8305084745762698
 40
0.8389830508474562
 40
0.8389830508474562
 40
0.8389830508474562
 40
0.8389830508474562
 40
0.8474576271186426
 40
0.8474576271186426
 40
0.8474576271186426
 40
0.8474576271186426
 40
0.855932203389829
 40
0.855932203389829
 40
0.855932203389829
 40
0.855932203389829
 40
0.8644067796610154
 40
0.8644067796610154
 40
0.8644067796610154
 40
0.8644067796610154
 40
0.8728813559322018
 40
0.8728813559322018
 40
0.8728813559322018
 40
0.8728813559322018
 40
0.8813559322033883
 40
0.8813559322033883
 40
0.8813559322033883
 40
0.8813559322033883
 40
0.8898305084745747
 40
0.8898305084745747
 40
0.8898305084745747
 40
0.8898305084745747
 40
0.8983050847457611
 40
0.8983050847457611
 40
0.8983050847457611
 40
0.8983050847457611
 40
0.9067796610169475
 40
0.9067796610169475
 40
0.9067796610169475
 40
0.9067796610169475
 40
0.9152542372881339
 40
0.9152542372881339
 40
0.9152542372881339
 40
0.9152542372881339
 40
0.9237288135593204
 40
0.9237288135593204
 40
0.9237288135593204
 40
0.9237288135593204
 40
0.9322033898305068
 40
0.9322033898305068
 40
0.9322033898305068
 40
0.9322033898305068
 40
0.9406779661016932
 40
0.9406779661016932
 40
0.9406779661016932
 40
0.9406779661016932
 40
0.9491525423728796
 40
0.9491525423728796
 40
0.9491525423728796
 40
0.9491525423728796
 40
0.957627118644066
 40
0.957627118644066
 40
0.957627118644066
 40
0.957627118644066
 40
0.9661016949152524
 40
0.9661016949152524
 40
0.9661016949152524
 40
0.9661016949152524
 40
0.9745762711864389
 40
0.9745762711864389
 40
0.9745762711864389
 40
0.9745762711864389
 40
0.9830508474576253
 40
0.9830508474576253
 40
0.9830508474576253
 40
0.9830508474576253
 40
0.9915254237288117
 40
0.9915254237288117
 40
0.9915254237288117
 40
0.9915254237288117
 40
1.0
 40
1.0
 40
1.0
 40
1.0
 10
-1.0009999999999999
 20
27.303699999999999
 30
0.0
 10
-2.5811999999999999
 20
12.285
 30
0.0
 10
-15.288
 20
0.5759
 30
0.0
 10
-30.725000000000001
 20
0.5759
 30
0.0
 10
-30.725000000000001
 20
0.5759
 30
0.0
 10
-40.658099999999997
 20
0.5759
 30
0.0
 10
-49.4602
 20
5.4248000000000003
 30
0.0
 10
-54.895499999999998
 20
12.883599999999999
 30
0.0
 10
-54.895499999999998
 20
12.883599999999999
 30
0.0
 10
-54.895499999999998
 20
12.883599999999999
 30
0.0
 10
-51.953200000000002
 20
12.6145
 30
0.0
 10
-51.953200000000002
 20
12.6145
 30
0.0
 10
-51.953200000000002
 20
12.6145
 30
0.0
 10
-51.953200000000002
 20
12.6145
 30
0.0
 10
-51.412799999999997
 20
12.6145
 30
0.0
 10
-51.412799999999997
 20
12.6145
 30
0.0
 10
-51.412799999999997
 20
12.6145
 30
0.0
 10
-50.1372
 20
12.6145
 30
0.0
 10
-47.857399999999998
 20
12.8637
 30
0.0
 10
-46.478400000000001
 20
13.086
 30
0.0
 10
-46.478400000000001
 20
13.086
 30
0.0
 10
-45.7254
 20
13.2074
 30
0.0
 10
-44.859900000000003
 20
13.400399999999999
 30
0.0
 10
-44.134500000000003
 20
13.522600000000001
 30
0.0
 10
-44.134500000000003
 20
13.522600000000001
 30
0.0
 10
-43.384599999999999
 20
13.649100000000001
 30
0.0
 10
-42.363300000000002
 20
14.0379
 30
0.0
 10
-41.836100000000002
 20
14.081799999999999
 30
0.0
 10
-41.836100000000002
 20
14.081799999999999
 30
0.0
 10
-41.885399999999997
 20
13.4871
 30
0.0
 10
-43.0717
 20
12.1585
 30
0.0
 10
-43.0717
 20
10.9154
 30
0.0
 10
-43.0717
 20
10.9154
 30
0.0
 10
-43.0717
 20
10.9154
 30
0.0
 10
-43.0717
 20
9.9885000000000002
 30
0.0
 10
-43.0717
 20
9.9885000000000002
 30
0.0
 10
-43.0717
 20
9.9885000000000002
 30
0.0
 10
-43.0717
 20
9.3673000000000002
 30
0.0
 10
-42.859699999999997
 20
8.5105000000000004
 30
0.0
 10
-42.645600000000002
 20
8.1271000000000004
 30
0.0
 10
-42.645600000000002
 20
8.1271000000000004
 30
0.0
 10
-42.645600000000002
 20
8.1271000000000004
 30
0.0
 10
-42.454000000000001
 20
7.2854000000000001
 30
0.0
 10
-42.454000000000001
 20
7.2854000000000001
 30
0.0
 10
-42.454000000000001
 20
7.2854000000000001
 30
0.0
 10
-42.087000000000003
 20
7.5311000000000003
 30
0.0
 10
-41.329599999999999
 20
8.3164999999999996
 30
0.0
 10
-40.861400000000003
 20
8.7050999999999998
 30
0.0
 10
-40.861400000000003
 20
8.7050999999999998
 30
0.0
 10
-40.316699999999997
 20
9.1572999999999993
 30
0.0
 10
-39.8277
 20
9.8127999999999993
 30
0.0
 10
-39.8277
 20
10.7607
 30
0.0
 10
-39.8277
 20
10.7607
 30
0.0
 10
-39.8277
 20
10.7607
 30
0.0
 10
-39.810600000000001
 20
12.3079
 30
0.0
 10
-39.810600000000001
 20
12.3079
 30
0.0
 10
-39.810600000000001
 20
12.3079
 30
0.0
 10
-39.810600000000001
 20
12.3079
 30
0.0
 10
-40.158700000000003
 20
14.8406
 30
0.0
 10
-40.158700000000003
 20
14.8406
 30
0.0
 10
-40.158700000000003
 20
14.8406
 30
0.0
 10
-40.158700000000003
 20
14.8406
 30
0.0
 10
-40.059699999999999
 20
14.854200000000001
 30
0.0
 10
-40.059699999999999
 20
14.854200000000001
 30
0.0
 10
-40.059699999999999
 20
14.854200000000001
 30
0.0
 10
-39.217300000000002
 20
14.872999999999999
 30
0.0
 10
-35.051699999999997
 20
16.996400000000001
 30
0.0
 10
-34.327800000000003
 20
17.4634
 30
0.0
 10
-34.327800000000003
 20
17.4634
 30
0.0
 10
-33.450800000000001
 20
18.029199999999999
 30
0.0
 10
-32.643300000000004
 20
18.515999999999998
 30
0.0
 10
-31.7805
 20
19.086500000000001
 30
0.0
 10
-31.7805
 20
19.086500000000001
 30
0.0
 10
-31.2897
 20
19.410900000000002
 30
0.0
 10
-29.615600000000001
 20
20.715199999999999
 30
0.0
 10
-29.242599999999999
 20
20.799499999999998
 30
0.0
 10
-29.242599999999999
 20
20.799499999999998
 30
0.0
 10
-29.242599999999999
 20
20.799499999999998
 30
0.0
 10
-29.822800000000001
 20
18.938400000000001
 30
0.0
 10
-29.822800000000001
 20
18.938400000000001
 30
0.0
 10
-29.822800000000001
 20
18.938400000000001
 30
0.0
 10
-29.822800000000001
 20
18.938400000000001
 30
0.0
 10
-30.096599999999999
 20
17.4802
 30
0.0
 10
-30.096599999999999
 20
17.4802
 30
0.0
 10
-30.096599999999999
 20
17.4802
 30
0.0
 10
-31.167200000000001
 20
16.763200000000001
 30
0.0
 10
-32.9069
 20
17.304099999999998
 30
0.0
 10
-34.068100000000001
 20
16.508600000000001
 30
0.0
 10
-34.068100000000001
 20
16.508600000000001
 30
0.0
 10
-34.7607
 20
16.033899999999999
 30
0.0
 10
-36.398699999999998
 20
14.2705
 30
0.0
 10
-36.816000000000003
 20
14.158899999999999
 30
0.0
 10
-36.816000000000003
 20
14.158899999999999
 30
0.0
 10
-36.6785
 20
13.971399999999999
 30
0.0
 10
-34.695700000000002
 20
13.3094
 30
0.0
 10
-34.267200000000003
 20
13.3094
 30
0.0
 10
-34.267200000000003
 20
13.3094
 30
0.0
 10
-34.267200000000003
 20
13.3094
 30
0.0
 10
-33.881300000000003
 20
13.3094
 30
0.0
 10
-33.881300000000003
 20
13.3094
 30
0.0
 10
-33.881300000000003
 20
13.3094
 30
0.0
 10
-32.797699999999999
 20
13.3094
 30
0.0
 10
-30.8569
 20
14.302899999999999
 30
0.0
 10
-30.791699999999999
 20
15.085800000000001
 30
0.0
 10
-30.791699999999999
 20
15.085800000000001
 30
0.0
 10
-30.791699999999999
 20
15.085800000000001
 30
0.0
 10
-30.560099999999998
 20
15.085800000000001
 30
0.0
 10
-30.560099999999998
 20
15.085800000000001
 30
0.0
 10
-30.560099999999998
 20
15.085800000000001
 30
0.0
 10
-30.560099999999998
 20
12.284599999999999
 30
0.0
 10
-31.3474
 20
12.764799999999999
 30
0.0
 10
-33.655500000000004
 20
12.3117
 30
0.0
 10
-33.655500000000004
 20
12.3117
 30
0.0
 10
-34.738100000000003
 20
12.0992
 30
0.0
 10
-34.905000000000001
 20
11.8772
 30
0.0
 10
-35.471699999999998
 20
11.1159
 30
0.0
 10
-35.471699999999998
 20
11.1159
 30
0.0
 10
-35.911900000000003
 20
10.5246
 30
0.0
 10
-36.938800000000001
 20
10.0108
 30
0.0
 10
-37.124699999999997
 20
9.7568000000000001
 30
0.0
 10
-37.124699999999997
 20
9.7568000000000001
 30
0.0
 10
-36.393799999999999
 20
9.4060000000000006
 30
0.0
 10
-34.834800000000001
 20
9.1388999999999996
 30
0.0
 10
-33.726700000000001
 20
9.1388999999999996
 30
0.0
 10
-33.726700000000001
 20
9.1388999999999996
 30
0.0
 10
-31.666899999999998
 20
9.1388999999999996
 30
0.0
 10
-31.456099999999999
 20
10.726900000000001
 30
0.0
 10
-30.482800000000001
 20
11.3788
 30
0.0
 10
-30.482800000000001
 20
11.3788
 30
0.0
 10
-30.482800000000001
 20
9.4405999999999999
 30
0.0
 10
-31.062799999999999
 20
8.2776999999999994
 30
0.0
 10
-30.133900000000001
 20
6.3216999999999999
 30
0.0
 10
-30.133900000000001
 20
6.3216999999999999
 30
0.0
 10
-29.645499999999998
 20
5.2927
 30
0.0
 10
-28.3111
 20
3.4460000000000002
 30
0.0
 10
-27.470800000000001
 20
2.8831000000000002
 30
0.0
 10
-27.470800000000001
 20
2.8831000000000002
 30
0.0
 10
-27.396799999999999
 20
3.2324999999999999
 30
0.0
 10
-27.398599999999998
 20
4.6677999999999997
 30
0.0
 10
-27.300599999999999
 20
5.3390000000000004
 30
0.0
 10
-27.300599999999999
 20
5.3390000000000004
 30
0.0
 10
-27.169
 20
6.2412000000000001
 30
0.0
 10
-27.1462
 20
6.8815
 30
0.0
 10
-27.391999999999999
 20
7.8278999999999996
 30
0.0
 10
-27.391999999999999
 20
7.8278999999999996
 30
0.0
 10
-27.591899999999999
 20
8.5983999999999998
 30
0.0
 10
-27.8948
 20
9.2124000000000006
 30
0.0
 10
-28.316099999999999
 20
9.7612000000000005
 30
0.0
 10
-28.316099999999999
 20
9.7612000000000005
 30
0.0
 10
-28.672999999999998
 20
10.226599999999999
 30
0.0
 10
-29.307700000000001
 20
10.8619
 30
0.0
 10
-29.324300000000001
 20
11.610300000000001
 30
0.0
 10
-29.324300000000001
 20
11.610300000000001
 30
0.0
 10
-28.401499999999999
 20
10.9923
 30
0.0
 10
-28.377400000000002
 20
10.532
 30
0.0
 10
-27.049900000000001
 20
9.8689
 30
0.0
 10
-27.049900000000001
 20
9.8689
 30
0.0
 10
-26.226500000000001
 20
9.4574999999999996
 30
0.0
 10
-24.6844
 20
9.2933000000000003
 30
0.0
 10
-23.918099999999999
 20
9.2933000000000003
 30
0.0
 10
-23.918099999999999
 20
9.2933000000000003
 30
0.0
 10
-23.918099999999999
 20
9.2933000000000003
 30
0.0
 10
-23.686599999999999
 20
9.2933000000000003
 30
0.0
 10
-23.686599999999999
 20
9.2933000000000003
 30
0.0
 10
-23.686599999999999
 20
9.2933000000000003
 30
0.0
 10
-23.810500000000001
 20
9.7584
 30
0.0
 10
-25.529599999999999
 20
11.885400000000001
 30
0.0
 10
-25.945799999999998
 20
12.2087
 30
0.0
 10
-25.945799999999998
 20
12.2087
 30
0.0
 10
-26.369
 20
12.537100000000001
 30
0.0
 10
-27.106300000000001
 20
12.973800000000001
 30
0.0
 10
-27.7089
 20
13.0715
 30
0.0
 10
-27.7089
 20
13.0715
 30
0.0
 10
-28.108499999999999
 20
13.1358
 30
0.0
 10
-28.4756
 20
13.19
 30
0.0
 10
-28.796700000000001
 20
13.2967
 30
0.0
 10
-28.796700000000001
 20
13.2967
 30
0.0
 10
-29.162500000000001
 20
13.418200000000001
 30
0.0
 10
-29.419499999999999
 20
13.7158
 30
0.0
 10
-29.633500000000002
 20
13.7729
 30
0.0
 10
-29.633500000000002
 20
13.7729
 30
0.0
 10
-29.633500000000002
 20
13.7729
 30
0.0
 10
-29.633500000000002
 20
15.9353
 30
0.0
 10
-29.633500000000002
 20
15.9353
 30
0.0
 10
-29.633500000000002
 20
15.9353
 30
0.0
 10
-29.633500000000002
 20
16.230699999999999
 30
0.0
 10
-29.6569
 20
15.9636
 30
0.0
 10
-29.556000000000001
 20
16.167000000000002
 30
0.0
 10
-29.556000000000001
 20
16.167000000000002
 30
0.0
 10
-29.359300000000001
 20
16.0959
 30
0.0
 10
-28.347300000000001
 20
15.1267
 30
0.0
 10
-27.8063
 20
14.8276
 30
0.0
 10
-27.8063
 20
14.8276
 30
0.0
 10
-27.2637
 20
14.5276
 30
0.0
 10
-26.179500000000001
 20
14.158899999999999
 30
0.0
 10
-25.3856
 20
14.158899999999999
 30
0.0
 10
-25.3856
 20
14.158899999999999
 30
0.0
 10
-23.984100000000002
 20
14.158899999999999
 30
0.0
 10
-23.191600000000001
 20
14.702500000000001
 30
0.0
 10
-22.296299999999999
 20
14.777100000000001
 30
0.0
 10
-22.296299999999999
 20
14.777100000000001
 30
0.0
 10
-22.296299999999999
 20
14.777100000000001
 30
0.0
 10
-22.296299999999999
 20
13.7729
 30
0.0
 10
-22.296299999999999
 20
13.7729
 30
0.0
 10
-22.296299999999999
 20
13.7729
 30
0.0
 10
-22.296299999999999
 20
12.3431
 30
0.0
 10
-21.850999999999999
 20
10.065899999999999
 30
0.0
 10
-20.210999999999999
 20
10.065899999999999
 30
0.0
 10
-20.210999999999999
 20
10.065899999999999
 30
0.0
 10
-19.282800000000002
 20
10.065899999999999
 30
0.0
 10
-19.207000000000001
 20
10.8125
 30
0.0
 10
-18.898099999999999
 20
11.4558
 30
0.0
 10
-18.898099999999999
 20
11.4558
 30
0.0
 10
-18.409700000000001
 20
11.325799999999999
 30
0.0
 10
-18.176600000000001
 20
10.838100000000001
 30
0.0
 10
-17.508099999999999
 20
10.838100000000001
 30
0.0
 10
-17.508099999999999
 20
10.838100000000001
 30
0.0
 10
-17.098199999999999
 20
10.838100000000001
 30
0.0
 10
-16.4267
 20
11.1806
 30
0.0
 10
-16.4267
 20
11.532999999999999
 30
0.0
 10
-16.4267
 20
11.532999999999999
 30
0.0
 10
-16.4267
 20
11.532999999999999
 30
0.0
 10
-16.4267
 20
12.228300000000001
 30
0.0
 10
-16.4267
 20
12.228300000000001
 30
0.0
 10
-16.4267
 20
12.228300000000001
 30
0.0
 10
-16.4267
 20
12.859999999999999
 30
0.0
 10
-17.855699999999999
 20
14.964700000000001
 30
0.0
 10
-18.178000000000001
 20
15.6516
 30
0.0
 10
-18.178000000000001
 20
15.6516
 30
0.0
 10
-18.474499999999999
 20
16.283100000000001
 30
0.0
 10
-18.708300000000001
 20
16.755500000000001
 30
0.0
 10
-19.011099999999999
 20
17.366800000000001
 30
0.0
 10
-19.011099999999999
 20
17.366800000000001
 30
0.0
 10
-19.242999999999999
 20
17.8355
 30
0.0
 10
-19.651499999999999
 20
18.727900000000002
 30
0.0
 10
-19.9023
 20
19.102
 30
0.0
 10
-19.9023
 20
19.102
 30
0.0
 10
-19.9023
 20
19.102
 30
0.0
 10
-19.862500000000001
 20
19.4541
 30
0.0
 10
-19.862500000000001
 20
19.4541
 30
0.0
 10
-19.862500000000001
 20
19.4541
 30
0.0
 10
-19.862500000000001
 20
19.4541
 30
0.0
 10
-18.0486
 20
17.866199999999999
 30
0.0
 10
-18.0486
 20
17.866199999999999
 30
0.0
 10
-18.0486
 20
17.866199999999999
 30
0.0
 10
-18.087499999999999
 20
18.335000000000001
 30
0.0
 10
-18.9925
 20
18.998699999999999
 30
0.0
 10
-19.007999999999999
 20
19.7699
 30
0.0
 10
-19.007999999999999
 20
19.7699
 30
0.0
 10
-19.007999999999999
 20
19.7699
 30
0.0
 10
-18.2804
 20
19.179200000000002
 30
0.0
 10
-18.2804
 20
19.179200000000002
 30
0.0
 10
-18.2804
 20
19.179200000000002
 30
0.0
 10
-18.309100000000001
 20
19.525700000000001
 30
0.0
 10
-19.438700000000001
 20
21.231200000000001
 30
0.0
 10
-19.438700000000001
 20
21.496200000000002
 30
0.0
 10
-19.438700000000001
 20
21.496200000000002
 30
0.0
 10
-19.438700000000001
 20
21.496200000000002
 30
0.0
 10
-19.438700000000001
 20
21.650700000000001
 30
0.0
 10
-19.438700000000001
 20
21.650700000000001
 30
0.0
 10
-19.438700000000001
 20
21.650700000000001
 30
0.0
 10
-19.438700000000001
 20
21.7468
 30
0.0
 10
-18.4025
 20
23.055900000000001
 30
0.0
 10
-18.2804
 20
23.581399999999999
 30
0.0
 10
-18.2804
 20
23.581399999999999
 30
0.0
 10
-18.2804
 20
23.581399999999999
 30
0.0
 10
-18.0486
 20
23.581399999999999
 30
0.0
 10
-18.0486
 20
23.581399999999999
 30
0.0
 10
-18.0486
 20
23.581399999999999
 30
0.0
 10
-16.906500000000001
 20
23.581399999999999
 30
0.0
 10
-13.836600000000001
 20
23.258500000000002
 30
0.0
 10
-12.272600000000001
 20
23.0243
 30
0.0
 10
-12.272600000000001
 20
23.0243
 30
0.0
 10
-10.33
 20
22.733799999999999
 30
0.0
 10
-8.2702000000000009
 20
22.577500000000001
 30
0.0
 10
-6.0004
 20
22.577500000000001
 30
0.0
 10
-6.0004
 20
22.577500000000001
 30
0.0
 10
-6.2465999999999999
 20
22.733799999999999
 30
0.0
 10
-8.1348000000000003
 20
22.9041
 30
0.0
 10
-8.6197999999999997
 20
22.969899999999999
 30
0.0
 10
-8.6197999999999997
 20
22.969899999999999
 30
0.0
 10
-9.3335000000000008
 20
23.067
 30
0.0
 10
-10.2967
 20
23.3825
 30
0.0
 10
-11.0975
 20
23.504300000000001
 30
0.0
 10
-11.0975
 20
23.504300000000001
 30
0.0
 10
-11.7737
 20
23.607299999999999
 30
0.0
 10
-12.9863
 20
23.815100000000001
 30
0.0
 10
-13.5929
 20
24.021000000000001
 30
0.0
 10
-13.5929
 20
24.021000000000001
 30
0.0
 10
-13.986000000000001
 20
24.154699999999998
 30
0.0
 10
-14.411799999999999
 20
24.2288
 30
0.0
 10
-14.782500000000001
 20
24.376100000000001
 30
0.0
 10
-14.782500000000001
 20
24.376100000000001
 30
0.0
 10
-15.091200000000001
 20
24.498799999999999
 30
0.0
 10
-15.648099999999999
 20
24.761700000000001
 30
0.0
 10
-15.886200000000001
 20
24.817299999999999
 30
0.0
 10
-15.886200000000001
 20
24.817299999999999
 30
0.0
 10
-15.805400000000001
 20
24.9373
 30
0.0
 10
-15.7837
 20
25.048999999999999
 30
0.0
 10
-15.577199999999999
 20
25.048999999999999
 30
0.0
 10
-15.577199999999999
 20
25.048999999999999
 30
0.0
 10
-15.577199999999999
 20
25.048999999999999
 30
0.0
 10
-13.879
 20
25.0213
 30
0.0
 10
-13.879
 20
25.0213
 30
0.0
 10
-13.879
 20
25.0213
 30
0.0
 10
-13.879
 20
25.0213
 30
0.0
 10
-11.7926
 20
24.971499999999999
 30
0.0
 10
-11.7926
 20
24.971499999999999
 30
0.0
 10
-11.7926
 20
24.971499999999999
 30
0.0
 10
-12.452999999999999
 20
25.3903
 30
0.0
 10
-16.251899999999999
 20
25.861599999999999
 30
0.0
 10
-16.427499999999998
 20
26.532900000000001
 30
0.0
 10
-16.427499999999998
 20
26.532900000000001
 30
0.0
 10
-16.427499999999998
 20
26.532900000000001
 30
0.0
 10
-13.4918
 20
26.747900000000001
 30
0.0
 10
-13.4918
 20
26.747900000000001
 30
0.0
 10
-13.4918
 20
26.747900000000001
 30
0.0
 10
-14.053900000000001
 20
27.138500000000001
 30
0.0
 10
-16.821999999999999
 20
27.438800000000001
 30
0.0
 10
-16.887
 20
28.037800000000001
 30
0.0
 10
-16.887
 20
28.037800000000001
 30
0.0
 10
-16.887
 20
28.037800000000001
 30
0.0
 10
-15.727499999999999
 20
28.224900000000002
 30
0.0
 10
-15.727499999999999
 20
28.224900000000002
 30
0.0
 10
-15.727499999999999
 20
28.224900000000002
 30
0.0
 10
-15.727499999999999
 20
28.224900000000002
 30
0.0
 10
-17.508099999999999
 20
28.9876
 30
0.0
 10
-17.508099999999999
 20
28.9876
 30
0.0
 10
-17.508099999999999
 20
28.9876
 30
0.0
 10
-17.647400000000001
 20
30.666499999999999
 30
0.0
 10
-18.9556
 20
31.201799999999999
 30
0.0
 10
-19.5793
 20
32.145299999999999
 30
0.0
 10
-19.5793
 20
32.145299999999999
 30
0.0
 10
-19.5793
 20
32.145299999999999
 30
0.0
 10
-18.0486
 20
34.393799999999999
 30
0.0
 10
-18.0486
 20
34.393799999999999
 30
0.0
 10
-18.0486
 20
34.393799999999999
 30
0.0
 10
-18.0486
 20
33.245699999999999
 30
0.0
 10
-17.8443
 20
31.9087
 30
0.0
 10
-17.497
 20
31.0837
 30
0.0
 10
-17.497
 20
31.0837
 30
0.0
 10
-17.220300000000002
 20
30.426100000000002
 30
0.0
 10
-16.3566
 20
29.1999
 30
0.0
 10
-15.808999999999999
 20
28.833100000000002
 30
0.0
 10
-15.808999999999999
 20
28.833100000000002
 30
0.0
 10
-15.8621
 20
29.062200000000001
 30
0.0
 10
-16.569700000000001
 20
30.329699999999999
 30
0.0
 10
-16.762
 20
30.737200000000001
 30
0.0
 10
-16.762
 20
30.737200000000001
 30
0.0
 10
-16.927800000000001
 20
31.087900000000001
 30
0.0
 10
-17.3536
 20
32.621099999999998
 30
0.0
 10
-17.3536
 20
33.081000000000003
 30
0.0
 10
-17.3536
 20
33.081000000000003
 30
0.0
 10
-17.3536
 20
33.081000000000003
 30
0.0
 10
-17.3536
 20
34.780099999999997
 30
0.0
 10
-17.3536
 20
34.780099999999997
 30
0.0
 10
-17.3536
 20
34.780099999999997
 30
0.0
 10
-17.3536
 20
36.388399999999997
 30
0.0
 10
-16.6556
 20
38.2575
 30
0.0
 10
-15.828900000000001
 20
39.357100000000003
 30
0.0
 10
-15.828900000000001
 20
39.357100000000003
 30
0.0
 10
-15.461499999999999
 20
39.846600000000002
 30
0.0
 10
-15.0344
 20
40.826000000000001
 30
0.0
 10
-15.0344
 20
41.651699999999998
 30
0.0
 10
-15.0344
 20
41.651699999999998
 30
0.0
 10
-15.034700000000001
 20
42.250599999999999
 30
0.0
 10
-15.013999999999999
 20
42.6599
 30
0.0
 10
-14.976699999999999
 20
42.978099999999998
 30
0.0
 10
-14.976699999999999
 20
42.978099999999998
 30
0.0
 10
-14.923
 20
43.436199999999999
 30
0.0
 10
-14.8048
 20
44.121600000000001
 30
0.0
 10
-14.8048
 20
44.433999999999997
 30
0.0
 10
-14.8048
 20
44.433999999999997
 30
0.0
 10
-14.8048
 20
44.433999999999997
 30
0.0
 10
-14.545
 20
44.436300000000003
 30
0.0
 10
-14.545
 20
44.436300000000003
 30
0.0
 10
-14.545
 20
44.436300000000003
 30
0.0
 10
-14.545
 20
44.436300000000003
 30
0.0
 10
-14.2643
 20
40.263399999999997
 30
0.0
 10
-14.2643
 20
40.263399999999997
 30
0.0
 10
-14.2643
 20
40.263399999999997
 30
0.0
 10
-14.1662
 20
39.0623
 30
0.0
 10
-16.3385
 20
38.588799999999999
 30
0.0
 10
-16.302900000000001
 20
36.246600000000001
 30
0.0
 10
-16.302900000000001
 20
36.246600000000001
 30
0.0
 10
-16.302900000000001
 20
36.246600000000001
 30
0.0
 10
-16.272300000000001
 20
35.706800000000001
 30
0.0
 10
-16.272300000000001
 20
35.706800000000001
 30
0.0
 10
-16.272300000000001
 20
35.706800000000001
 30
0.0
 10
-16.272300000000001
 20
35.706800000000001
 30
0.0
 10
-16.272300000000001
 20
35.166400000000003
 30
0.0
 10
-16.272300000000001
 20
35.166400000000003
 30
0.0
 10
-16.272300000000001
 20
35.166400000000003
 30
0.0
 10
-16.272300000000001
 20
34.606200000000001
 30
0.0
 10
-16.482800000000001
 20
34.274999999999999
 30
0.0
 10
-16.581199999999999
 20
33.853299999999997
 30
0.0
 10
-16.581199999999999
 20
33.853299999999997
 30
0.0
 10
-16.581199999999999
 20
33.853299999999997
 30
0.0
 10
-16.349399999999999
 20
33.853299999999997
 30
0.0
 10
-16.349399999999999
 20
33.853299999999997
 30
0.0
 10
-16.349399999999999
 20
33.853299999999997
 30
0.0
 10
-15.821899999999999
 20
33.853299999999997
 30
0.0
 10
-14.4292
 20
34.957099999999997
 30
0.0
 10
-14.089700000000001
 20
35.300800000000002
 30
0.0
 10
-14.089700000000001
 20
35.300800000000002
 30
0.0
 10
-13.4175
 20
35.981099999999998
 30
0.0
 10
-13.105600000000001
 20
36.771000000000001
 30
0.0
 10
-13.105600000000001
 20
38.101100000000002
 30
0.0
 10
-13.105600000000001
 20
38.101100000000002
 30
0.0
 10
-13.105600000000001
 20
38.101100000000002
 30
0.0
 10
-13.105600000000001
 20
38.796100000000003
 30
0.0
 10
-13.105600000000001
 20
38.796100000000003
 30
0.0
 10
-13.105600000000001
 20
38.796100000000003
 30
0.0
 10
-12.7662
 20
38.7057
 30
0.0
 10
-12.2553
 20
37.441699999999997
 30
0.0
 10
-12.0245
 20
37.097000000000001
 30
0.0
 10
-12.0245
 20
37.097000000000001
 30
0.0
 10
-12.0245
 20
36.162100000000002
 30
0.0
 10
-12.136799999999999
 20
36.064399999999999
 30
0.0
 10
-12.844099999999999
 20
35.522599999999997
 30
0.0
 10
-12.844099999999999
 20
35.522599999999997
 30
0.0
 10
-13.556100000000001
 20
34.976900000000001
 30
0.0
 10
-13.6402
 20
34.981200000000001
 30
0.0
 10
-14.000999999999999
 20
34.0535
 30
0.0
 10
-14.000999999999999
 20
34.0535
 30
0.0
 10
-14.5562
 20
32.627299999999998
 30
0.0
 10
-14.457100000000001
 20
31.1555
 30
0.0
 10
-15.113799999999999
 20
29.9145
 30
0.0
 10
-15.113799999999999
 20
29.9145
 30
0.0
 10
-13.991099999999999
 20
29.939399999999999
 30
0.0
 10
-12.3256
 20
30.9131
 30
0.0
 10
-11.721
 20
31.542100000000001
 30
0.0
 10
-11.721
 20
31.542100000000001
 30
0.0
 10
-10.4658
 20
32.847799999999999
 30
0.0
 10
-11.471399999999999
 20
34.024999999999999
 30
0.0
 10
-11.0975
 20
35.629600000000003
 30
0.0
 10
-11.0975
 20
35.629600000000003
 30
0.0
 10
-10.6851
 20
35.595100000000002
 30
0.0
 10
-9.4758999999999993
 20
33.6083
 30
0.0
 10
-9.4758999999999993
 20
33.081000000000003
 30
0.0
 10
-9.4758999999999993
 20
33.081000000000003
 30
0.0
 10
-9.4758999999999993
 20
31.9252
 30
0.0
 10
-11.3293
 20
30.581199999999999
 30
0.0
 10
-11.3293
 20
29.219100000000001
 30
0.0
 10
-11.3293
 20
29.219100000000001
 30
0.0
 10
-11.6584
 20
28.728000000000002
 30
0.0
 10
-11.482900000000001
 20
27.2056
 30
0.0
 10
-11.7155
 20
26.2072
 30
0.0
 10
-11.7155
 20
26.2072
 30
0.0
 10
-10.768800000000001
 20
26.427900000000001
 30
0.0
 10
-9.2223000000000006
 20
27.1813
 30
0.0
 10
-8.7256
 20
27.851299999999998
 30
0.0
 10
-8.7256
 20
27.851299999999998
 30
0.0
 10
-7.8484999999999996
 20
29.034600000000001
 30
0.0
 10
-8.3171999999999997
 20
30.1083
 30
0.0
 10
-8.3171999999999997
 20
31.767900000000001
 30
0.0
 10
-8.3171999999999997
 20
31.767900000000001
 30
0.0
 10
-8.3171999999999997
 20
31.767900000000001
 30
0.0
 10
-8.3171999999999997
 20
31.999700000000001
 30
0.0
 10
-8.3171999999999997
 20
31.999700000000001
 30
0.0
 10
-8.3171999999999997
 20
31.999700000000001
 30
0.0
 10
-8.0035000000000007
 20
31.916
 30
0.0
 10
-7.1113999999999997
 20
30.6264
 30
0.0
 10
-6.7916999999999996
 20
30.281500000000001
 30
0.0
 10
-6.7916999999999996
 20
30.281500000000001
 30
0.0
 10
-6.0396000000000001
 20
29.4697
 30
0.0
 10
-5.9927000000000001
 20
29.3432
 30
0.0
 10
-4.9987000000000004
 20
28.753599999999999
 30
0.0
 10
-4.9987000000000004
 20
28.753599999999999
 30
0.0
 10
-4.1284000000000001
 20
28.237300000000001
 30
0.0
 10
-2.4853999999999998
 20
27.5501
 30
0.0
 10
-1.0009999999999999
 20
27.303699999999999
 30
0.0
  0
SPLINE
  5
2D
100
AcDbEntity
  8
RÚteg 1
 62
     7
100
AcDbSpline
210
0.0
220
0.0
230
1.0
 70
     1
 71
     3
 72
    96
 73
    92
 74
     0
 42
0.0000000001
 43
0.0000000001
 40
0.0
 40
0.0
 40
0.0
 40
0.0
 40
0.0434782608695652
 40
0.0434782608695652
 40
0.0434782608695652
 40
0.0434782608695652
 40
0.0869565217391304
 40
0.0869565217391304
 40
0.0869565217391304
 40
0.0869565217391304
 40
0.1304347826086957
 40
0.1304347826086957
 40
0.1304347826086957
 40
0.1304347826086957
 40
0.1739130434782609
 40
0.1739130434782609
 40
0.1739130434782609
 40
0.1739130434782609
 40
0.2173913043478261
 40
0.2173913043478261
 40
0.2173913043478261
 40
0.2173913043478261
 40
0.2608695652173913
 40
0.2608695652173913
 40
0.2608695652173913
 40
0.2608695652173913
 40
0.3043478260869565
 40
0.3043478260869565
 40
0.3043478260869565
 40
0.3043478260869565
 40
0.3478260869565217
 40
0.3478260869565217
 40
0.3478260869565217
 40
0.3478260869565217
 40
0.3913043478260869
 40
0.3913043478260869
 40
0.3913043478260869
 40
0.3913043478260869
 40
0.4347826086956521
 40
0.4347826086956521
 40
0.4347826086956521
 40
0.4347826086956521
 40
0.4782608695652173
 40
0.4782608695652173
 40
0.4782608695652173
 40
0.4782608695652173
 40
0.5217391304347825
 40
0.5217391304347825
 40
0.5217391304347825
 40
0.5217391304347825
 40
0.5652173913043477
 40
0.5652173913043477
 40
0.5652173913043477
 40
0.5652173913043477
 40
0.6086956521739129
 40
0.6086956521739129
 40
0.6086956521739129
 40
0.6086956521739129
 40
0.6521739130434781
 40
0.6521739130434781
 40
0.6521739130434781
 40
0.6521739130434781
 40
0.6956521739130432
 40
0.6956521739130432
 40
0.6956521739130432
 40
0.6956521739130432
 40
0.7391304347826084
 40
0.7391304347826084
 40
0.7391304347826084
 40
0.7391304347826084
 40
0.7826086956521736
 40
0.7826086956521736
 40
0.7826086956521736
 40
0.7826086956521736
 40
0.8260869565217388
 40
0.8260869565217388
 40
0.8260869565217388
 40
0.8260869565217388
 40
0.869565217391304
 40
0.869565217391304
 40
0.869565217391304
 40
0.869565217391304
 40
0.9130434782608692
 40
0.9130434782608692
 40
0.9130434782608692
 40
0.9130434782608692
 40
0.9565217391304344
 40
0.9565217391304344
 40
0.9565217391304344
 40
0.9565217391304344
 40
1.0
 40
1.0
 40
1.0
 40
1.0
 10
-54.980800000000002
 20
13.0009
 30
0.0
 10
-57.0717
 20
15.8995
 30
0.0
 10
-58.6556
 20
19.1873
 30
0.0
 10
-59.603400000000001
 20
22.734999999999999
 30
0.0
 10
-59.603400000000001
 20
22.734999999999999
 30
0.0
 10
-59.586300000000001
 20
22.724799999999998
 30
0.0
 10
-59.568399999999997
 20
22.714500000000001
 30
0.0
 10
-59.549799999999998
 20
22.704000000000001
 30
0.0
 10
-59.549799999999998
 20
22.704000000000001
 30
0.0
 10
-59.184399999999997
 20
22.497399999999999
 30
0.0
 10
-58.515900000000002
 20
22.345700000000001
 30
0.0
 10
-57.977499999999999
 20
22.345700000000001
 30
0.0
 10
-57.977499999999999
 20
22.345700000000001
 30
0.0
 10
-57.977499999999999
 20
22.345700000000001
 30
0.0
 10
-56.664499999999997
 20
22.345700000000001
 30
0.0
 10
-56.664499999999997
 20
22.345700000000001
 30
0.0
 10
-56.664499999999997
 20
22.345700000000001
 30
0.0
 10
-54.983899999999998
 20
22.345700000000001
 30
0.0
 10
-49.8429
 20
22.3828
 30
0.0
 10
-48.477699999999999
 20
21.728000000000002
 30
0.0
 10
-48.477699999999999
 20
21.728000000000002
 30
0.0
 10
-48.477699999999999
 20
21.728000000000002
 30
0.0
 10
-48.453299999999999
 20
21.653700000000001
 30
0.0
 10
-48.453299999999999
 20
21.653700000000001
 30
0.0
 10
-48.453299999999999
 20
21.653700000000001
 30
0.0
 10
-48.453299999999999
 20
21.653700000000001
 30
0.0
 10
-49.802300000000002
 20
21.205500000000001
 30
0.0
 10
-49.802300000000002
 20
21.205500000000001
 30
0.0
 10
-49.802300000000002
 20
21.205500000000001
 30
0.0
 10
-49.802300000000002
 20
21.205500000000001
 30
0.0
 10
-48.157800000000002
 20
20.869
 30
0.0
 10
-48.157800000000002
 20
20.869
 30
0.0
 10
-48.157800000000002
 20
20.869
 30
0.0
 10
-48.157800000000002
 20
20.869
 30
0.0
 10
-48.324800000000003
 20
20.657900000000001
 30
0.0
 10
-48.324800000000003
 20
20.657900000000001
 30
0.0
 10
-48.324800000000003
 20
20.657900000000001
 30
0.0
 10
-48.324800000000003
 20
20.657900000000001
 30
0.0
 10
-50.591500000000003
 20
20.356300000000001
 30
0.0
 10
-50.591500000000003
 20
20.356300000000001
 30
0.0
 10
-50.591500000000003
 20
20.356300000000001
 30
0.0
 10
-50.591500000000003
 20
20.356300000000001
 30
0.0
 10
-49.327599999999997
 20
19.796900000000001
 30
0.0
 10
-49.327599999999997
 20
19.796900000000001
 30
0.0
 10
-49.327599999999997
 20
19.796900000000001
 30
0.0
 10
-49.3645
 20
19.353400000000001
 30
0.0
 10
-50.0381
 20
19.5655
 30
0.0
 10
-50.717700000000001
 20
19.5655
 30
0.0
 10
-50.717700000000001
 20
19.5655
 30
0.0
 10
-51.3354
 20
19.5655
 30
0.0
 10
-51.953200000000002
 20
19.5655
 30
0.0
 10
-52.571100000000001
 20
19.5655
 30
0.0
 10
-52.571100000000001
 20
19.5655
 30
0.0
 10
-52.2194
 20
19.259599999999999
 30
0.0
 10
-50.931100000000001
 20
19.177199999999999
 30
0.0
 10
-50.871299999999998
 20
18.663599999999999
 30
0.0
 10
-50.871299999999998
 20
18.663599999999999
 30
0.0
 10
-50.871299999999998
 20
18.663599999999999
 30
0.0
 10
-56.201099999999997
 20
18.870200000000001
 30
0.0
 10
-56.201099999999997
 20
18.870200000000001
 30
0.0
 10
-56.201099999999997
 20
18.870200000000001
 30
0.0
 10
-56.029600000000002
 20
18.3964
 30
0.0
 10
-50.031799999999997
 20
17.5579
 30
0.0
 10
-49.095700000000001
 20
17.4802
 30
0.0
 10
-49.095700000000001
 20
17.4802
 30
0.0
 10
-49.027099999999997
 20
16.6557
 30
0.0
 10
-48.480600000000003
 20
15.799099999999999
 30
0.0
 10
-47.952399999999997
 20
15.3797
 30
0.0
 10
-47.952399999999997
 20
15.3797
 30
0.0
 10
-47.646900000000002
 20
15.1374
 30
0.0
 10
-47.261699999999998
 20
14.991899999999999
 30
0.0
 10
-46.863900000000001
 20
14.8461
 30
0.0
 10
-46.863900000000001
 20
14.8461
 30
0.0
 10
-46.454700000000003
 20
14.696199999999999
 30
0.0
 10
-46.1798
 20
14.246700000000001
 30
0.0
 10
-45.852200000000003
 20
14.158899999999999
 30
0.0
 10
-45.852200000000003
 20
14.158899999999999
 30
0.0
 10
-45.852200000000003
 20
14.158899999999999
 30
0.0
 10
-45.852200000000003
 20
13.7729
 30
0.0
 10
-45.852200000000003
 20
13.7729
 30
0.0
 10
-45.852200000000003
 20
13.7729
 30
0.0
 10
-46.206200000000003
 20
13.7729
 30
0.0
 10
-47.570999999999998
 20
13.5298
 30
0.0
 10
-48.097299999999997
 20
13.4694
 30
0.0
 10
-48.097299999999997
 20
13.4694
 30
0.0
 10
-48.897199999999998
 20
13.3775
 30
0.0
 10
-49.766399999999997
 20
13.3644
 30
0.0
 10
-50.562899999999999
 20
13.3094
 30
0.0
 10
-50.562899999999999
 20
13.3094
 30
0.0
 10
-52.113599999999998
 20
13.202299999999999
 30
0.0
 10
-53.490099999999998
 20
13.006
 30
0.0
 10
-54.980800000000002
 20
13.0009
 30
0.0
  0
SPLINE
  5
2E
100
AcDbEntity
  8
RÚteg 1
 62
     7
100
AcDbSpline
210
0.0
220
0.0
230
1.0
 70
     1
 71
     3
 72
    20
 73
    16
 74
     0
 42
0.0000000001
 43
0.0000000001
 40
0.0
 40
0.0
 40
0.0
 40
0.0
 40
0.25
 40
0.25
 40
0.25
 40
0.25
 40
0.5
 40
0.5
 40
0.5
 40
0.5
 40
0.75
 40
0.75
 40
0.75
 40
0.75
 40
1.0
 40
1.0
 40
1.0
 40
1.0
 10
-34.885100000000001
 20
10.2203
 30
0.0
 10
-34.009799999999998
 20
10.424200000000001
 30
0.0
 10
-31.645
 20
11.597200000000001
 30
0.0
 10
-31.486999999999998
 20
11.610300000000001
 30
0.0
 10
-31.486999999999998
 20
11.610300000000001
 30
0.0
 10
-31.486999999999998
 20
11.610300000000001
 30
0.0
 10
-31.486999999999998
 20
11.4558
 30
0.0
 10
-31.486999999999998
 20
11.4558
 30
0.0
 10
-31.486999999999998
 20
11.4558
 30
0.0
 10
-32.063899999999997
 20
11.3017
 30
0.0
 10
-33.470500000000001
 20
9.7363
 30
0.0
 10
-34.885100000000001
 20
10.065899999999999
 30
0.0
 10
-34.885100000000001
 20
10.065899999999999
 30
0.0
 10
-34.885100000000001
 20
10.065899999999999
 30
0.0
 10
-34.885100000000001
 20
10.2203
 30
0.0
 10
-34.885100000000001
 20
10.2203
 30
0.0
  0
SPLINE
  5
2F
100
AcDbEntity
  8
RÚteg 1
 62
     7
100
AcDbSpline
210
0.0
220
0.0
230
1.0
 70
     1
 71
     3
 72
    12
 73
     8
 74
     0
 42
0.0000000001
 43
0.0000000001
 40
0.0
 40
0.0
 40
0.0
 40
0.0
 40
0.5
 40
0.5
 40
0.5
 40
0.5
 40
1.0
 40
1.0
 40
1.0
 40
1.0
 10
-25.694400000000002
 20
10.529199999999999
 30
0.0
 10
-26.607900000000001
 20
10.529199999999999
 30
0.0
 10
-27.999500000000001
 20
11.4673
 30
0.0
 10
-28.3203
 20
12.0738
 30
0.0
 10
-28.3203
 20
12.0738
 30
0.0
 10
-28.3203
 20
12.0738
 30
0.0
 10
-25.694400000000002
 20
10.529199999999999
 30
0.0
 10
-25.694400000000002
 20
10.529199999999999
 30
0.0
  0
SPLINE
  5
30
100
AcDbEntity
  8
RÚteg 1
 62
     7
100
AcDbSpline
210
0.0
220
0.0
230
1.0
 70
     1
 71
     3
 72
    24
 73
    20
 74
     0
 42
0.0000000001
 43
0.0000000001
 40
0.0
 40
0.0
 40
0.0
 40
0.0
 40
0.2
 40
0.2
 40
0.2
 40
0.2
 40
0.4
 40
0.4
 40
0.4
 40
0.4
 40
0.6000000000000001
 40
0.6000000000000001
 40
0.6000000000000001
 40
0.6000000000000001
 40
0.8
 40
0.8
 40
0.8
 40
0.8
 40
1.0
 40
1.0
 40
1.0
 40
1.0
 10
-41.210599999999999
 20
13.151400000000001
 30
0.0
 10
-41.210599999999999
 20
13.151400000000001
 30
0.0
 10
-41.122799999999998
 20
13.1412
 30
0.0
 10
-41.122799999999998
 20
13.1412
 30
0.0
 10
-41.122799999999998
 20
13.1412
 30
0.0
 10
-41.122799999999998
 20
13.1412
 30
0.0
 10
-41.659300000000002
 20
9.4445999999999994
 30
0.0
 10
-41.659300000000002
 20
9.4445999999999994
 30
0.0
 10
-41.659300000000002
 20
9.4445999999999994
 30
0.0
 10
-41.659300000000002
 20
9.4445999999999994
 30
0.0
 10
-41.926299999999998
 20
9.7481000000000009
 30
0.0
 10
-41.926299999999998
 20
9.7481000000000009
 30
0.0
 10
-41.926299999999998
 20
9.7481000000000009
 30
0.0
 10
-41.926299999999998
 20
9.7481000000000009
 30
0.0
 10
-41.669499999999999
 20
12.2224
 30
0.0
 10
-41.669499999999999
 20
12.2224
 30
0.0
 10
-41.669499999999999
 20
12.2224
 30
0.0
 10
-41.669499999999999
 20
12.2224
 30
0.0
 10
-41.210599999999999
 20
13.151400000000001
 30
0.0
 10
-41.210599999999999
 20
13.151400000000001
 30
0.0
  0
SPLINE
  5
31
100
AcDbEntity
  8
RÚteg 1
 62
     7
100
AcDbSpline
210
0.0
220
0.0
230
1.0
 70
     1
 71
     3
 72
    56
 73
    52
 74
     0
 42
0.0000000001
 43
0.0000000001
 40
0.0
 40
0.0
 40
0.0
 40
0.0
 40
0.0769230769230769
 40
0.0769230769230769
 40
0.0769230769230769
 40
0.0769230769230769
 40
0.1538461538461539
 40
0.1538461538461539
 40
0.1538461538461539
 40
0.1538461538461539
 40
0.2307692307692308
 40
0.2307692307692308
 40
0.2307692307692308
 40
0.2307692307692308
 40
0.3076923076923077
 40
0.3076923076923077
 40
0.3076923076923077
 40
0.3076923076923077
 40
0.3846153846153846
 40
0.3846153846153846
 40
0.3846153846153846
 40
0.3846153846153846
 40
0.4615384615384616
 40
0.4615384615384616
 40
0.4615384615384616
 40
0.4615384615384616
 40
0.5384615384615386
 40
0.5384615384615386
 40
0.5384615384615386
 40
0.5384615384615386
 40
0.6153846153846154
 40
0.6153846153846154
 40
0.6153846153846154
 40
0.6153846153846154
 40
0.6923076923076923
 40
0.6923076923076923
 40
0.6923076923076923
 40
0.6923076923076923
 40
0.7692307692307692
 40
0.7692307692307692
 40
0.7692307692307692
 40
0.7692307692307692
 40
0.846153846153846
 40
0.846153846153846
 40
0.846153846153846
 40
0.846153846153846
 40
0.9230769230769229
 40
0.9230769230769229
 40
0.9230769230769229
 40
0.9230769230769229
 40
1.0
 40
1.0
 40
1.0
 40
1.0
 10
-18.743400000000001
 20
13.386699999999999
 30
0.0
 10
-18.2989
 20
13.386699999999999
 30
0.0
 10
-18.1325
 20
13.720800000000001
 30
0.0
 10
-18.0486
 20
14.081799999999999
 30
0.0
 10
-18.0486
 20
14.081799999999999
 30
0.0
 10
-17.758800000000001
 20
14.0045
 30
0.0
 10
-17.662600000000001
 20
13.502800000000001
 30
0.0
 10
-17.662600000000001
 20
13.154999999999999
 30
0.0
 10
-17.662600000000001
 20
13.154999999999999
 30
0.0
 10
-17.662600000000001
 20
12.7471
 30
0.0
 10
-17.828299999999999
 20
12.3055
 30
0.0
 10
-18.2804
 20
12.3055
 30
0.0
 10
-18.2804
 20
12.3055
 30
0.0
 10
-18.2804
 20
12.3055
 30
0.0
 10
-18.589099999999998
 20
12.3055
 30
0.0
 10
-18.589099999999998
 20
12.3055
 30
0.0
 10
-18.589099999999998
 20
12.3055
 30
0.0
 10
-19.051600000000001
 20
12.3055
 30
0.0
 10
-19.0503
 20
12.4542
 30
0.0
 10
-19.361499999999999
 20
12.5372
 30
0.0
 10
-19.361499999999999
 20
12.5372
 30
0.0
 10
-19.4528
 20
12.145099999999999
 30
0.0
 10
-19.727799999999998
 20
11.9192
 30
0.0
 10
-20.210999999999999
 20
11.9192
 30
0.0
 10
-20.210999999999999
 20
11.9192
 30
0.0
 10
-20.210999999999999
 20
11.9192
 30
0.0
 10
-20.365500000000001
 20
11.9192
 30
0.0
 10
-20.365500000000001
 20
11.9192
 30
0.0
 10
-20.365500000000001
 20
11.9192
 30
0.0
 10
-20.956199999999999
 20
11.9192
 30
0.0
 10
-21.523800000000001
 20
12.708500000000001
 30
0.0
 10
-21.523800000000001
 20
13.3094
 30
0.0
 10
-21.523800000000001
 20
13.3094
 30
0.0
 10
-21.523800000000001
 20
13.3094
 30
0.0
 10
-21.523800000000001
 20
13.850199999999999
 30
0.0
 10
-21.523800000000001
 20
13.850199999999999
 30
0.0
 10
-21.523800000000001
 20
13.850199999999999
 30
0.0
 10
-21.075500000000002
 20
13.8011
 30
0.0
 10
-21.1629
 20
13.228
 30
0.0
 10
-20.2883
 20
13.154999999999999
 30
0.0
 10
-20.2883
 20
13.154999999999999
 30
0.0
 10
-20.2883
 20
13.154999999999999
 30
0.0
 10
-19.725300000000001
 20
13.7546
 30
0.0
 10
-19.725300000000001
 20
13.7546
 30
0.0
 10
-19.725300000000001
 20
13.7546
 30
0.0
 10
-19.513000000000002
 20
13.6602
 30
0.0
 10
-19.102499999999999
 20
13.386699999999999
 30
0.0
 10
-18.820900000000002
 20
13.386699999999999
 30
0.0
 10
-18.820900000000002
 20
13.386699999999999
 30
0.0
 10
-18.820900000000002
 20
13.386699999999999
 30
0.0
 10
-18.743400000000001
 20
13.386699999999999
 30
0.0
 10
-18.743400000000001
 20
13.386699999999999
 30
0.0
  0
SPLINE
  5
32
100
AcDbEntity
  8
RÚteg 1
 62
     7
100
AcDbSpline
210
0.0
220
0.0
230
1.0
 70
     1
 71
     3
 72
    24
 73
    20
 74
     0
 42
0.0000000001
 43
0.0000000001
 40
0.0
 40
0.0
 40
0.0
 40
0.0
 40
0.2
 40
0.2
 40
0.2
 40
0.2
 40
0.4
 40
0.4
 40
0.4
 40
0.4
 40
0.6000000000000001
 40
0.6000000000000001
 40
0.6000000000000001
 40
0.6000000000000001
 40
0.8
 40
0.8
 40
0.8
 40
0.8
 40
1.0
 40
1.0
 40
1.0
 40
1.0
 10
-45.620199999999997
 20
14.6997
 30
0.0
 10
-45.620199999999997
 20
14.6997
 30
0.0
 10
-44.707599999999999
 20
14.213900000000001
 30
0.0
 10
-44.707599999999999
 20
14.213900000000001
 30
0.0
 10
-44.707599999999999
 20
14.213900000000001
 30
0.0
 10
-44.707599999999999
 20
14.213900000000001
 30
0.0
 10
-44.6935
 20
13.9275
 30
0.0
 10
-44.6935
 20
13.9275
 30
0.0
 10
-44.6935
 20
13.9275
 30
0.0
 10
-44.935299999999998
 20
13.9071
 30
0.0
 10
-44.968000000000004
 20
13.850199999999999
 30
0.0
 10
-45.234400000000001
 20
13.850199999999999
 30
0.0
 10
-45.234400000000001
 20
13.850199999999999
 30
0.0
 10
-45.234400000000001
 20
13.850199999999999
 30
0.0
 10
-45.620199999999997
 20
13.850199999999999
 30
0.0
 10
-45.620199999999997
 20
13.850199999999999
 30
0.0
 10
-45.620199999999997
 20
13.850199999999999
 30
0.0
 10
-45.620199999999997
 20
13.850199999999999
 30
0.0
 10
-45.620199999999997
 20
14.6997
 30
0.0
 10
-45.620199999999997
 20
14.6997
 30
0.0
  0
SPLINE
  5
33
100
AcDbEntity
  8
RÚteg 1
 62
     7
100
AcDbSpline
210
0.0
220
0.0
230
1.0
 70
     1
 71
     3
 72
    24
 73
    20
 74
     0
 42
0.0000000001
 43
0.0000000001
 40
0.0
 40
0.0
 40
0.0
 40
0.0
 40
0.2
 40
0.2
 40
0.2
 40
0.2
 40
0.4
 40
0.4
 40
0.4
 40
0.4
 40
0.6000000000000001
 40
0.6000000000000001
 40
0.6000000000000001
 40
0.6000000000000001
 40
0.8
 40
0.8
 40
0.8
 40
0.8
 40
1.0
 40
1.0
 40
1.0
 40
1.0
 10
-41.754800000000003
 20
14.967599999999999
 30
0.0
 10
-41.754800000000003
 20
14.967599999999999
 30
0.0
 10
-42.912799999999997
 20
14.305
 30
0.0
 10
-42.912799999999997
 20
14.305
 30
0.0
 10
-42.912799999999997
 20
14.305
 30
0.0
 10
-42.912799999999997
 20
14.305
 30
0.0
 10
-43.226199999999999
 20
14.313599999999999
 30
0.0
 10
-43.226199999999999
 20
14.313599999999999
 30
0.0
 10
-43.226199999999999
 20
14.313599999999999
 30
0.0
 10
-43.497199999999999
 20
14.132
 30
0.0
 10
-43.778199999999998
 20
14.081799999999999
 30
0.0
 10
-44.230200000000004
 20
14.081799999999999
 30
0.0
 10
-44.230200000000004
 20
14.081799999999999
 30
0.0
 10
-44.381500000000003
 20
14.081799999999999
 30
0.0
 10
-44.577800000000003
 20
14.5556
 30
0.0
 10
-44.617100000000001
 20
14.705
 30
0.0
 10
-44.617100000000001
 20
14.705
 30
0.0
 10
-44.617100000000001
 20
14.705
 30
0.0
 10
-41.754800000000003
 20
14.967599999999999
 30
0.0
 10
-41.754800000000003
 20
14.967599999999999
 30
0.0
  0
SPLINE
  5
34
100
AcDbEntity
  8
RÚteg 1
 62
     7
100
AcDbSpline
210
0.0
220
0.0
230
1.0
 70
     1
 71
     3
 72
    16
 73
    12
 74
     0
 42
0.0000000001
 43
0.0000000001
 40
0.0
 40
0.0
 40
0.0
 40
0.0
 40
0.3333333333333333
 40
0.3333333333333333
 40
0.3333333333333333
 40
0.3333333333333333
 40
0.6666666666666666
 40
0.6666666666666666
 40
0.6666666666666666
 40
0.6666666666666666
 40
1.0
 40
1.0
 40
1.0
 40
1.0
 10
-23.7638
 20
15.549300000000001
 30
0.0
 10
-24.4251
 20
14.974299999999999
 30
0.0
 10
-27.956700000000001
 20
15.093999999999999
 30
0.0
 10
-28.242999999999999
 20
16.167000000000002
 30
0.0
 10
-28.242999999999999
 20
16.167000000000002
 30
0.0
 10
-27.710899999999999
 20
16.122800000000002
 30
0.0
 10
-26.888999999999999
 20
15.7958
 30
0.0
 10
-26.1907
 20
15.671099999999999
 30
0.0
 10
-26.1907
 20
15.671099999999999
 30
0.0
 10
-25.4255
 20
15.5341
 30
0.0
 10
-24.635100000000001
 20
15.549300000000001
 30
0.0
 10
-23.7638
 20
15.549300000000001
 30
0.0
  0
SPLINE
  5
35
100
AcDbEntity
  8
RÚteg 1
 62
     7
100
AcDbSpline
210
0.0
220
0.0
230
1.0
 70
     1
 71
     3
 72
    20
 73
    16
 74
     0
 42
0.0000000001
 43
0.0000000001
 40
0.0
 40
0.0
 40
0.0
 40
0.0
 40
0.25
 40
0.25
 40
0.25
 40
0.25
 40
0.5
 40
0.5
 40
0.5
 40
0.5
 40
0.75
 40
0.75
 40
0.75
 40
0.75
 40
1.0
 40
1.0
 40
1.0
 40
1.0
 10
-34.653599999999997
 20
14.6997
 30
0.0
 10
-34.560699999999997
 20
14.9556
 30
0.0
 10
-33.042099999999998
 20
15.327
 30
0.0
 10
-32.723300000000002
 20
15.4726
 30
0.0
 10
-32.723300000000002
 20
15.4726
 30
0.0
 10
-32.412599999999998
 20
15.615
 30
0.0
 10
-31.1021
 20
16.190000000000001
 30
0.0
 10
-30.8688
 20
16.244299999999999
 30
0.0
 10
-30.8688
 20
16.244299999999999
 30
0.0
 10
-31.056999999999999
 20
15.540699999999999
 30
0.0
 10
-33.216799999999999
 20
14.6997
 30
0.0
 10
-34.267200000000003
 20
14.6997
 30
0.0
 10
-34.267200000000003
 20
14.6997
 30
0.0
 10
-34.267200000000003
 20
14.6997
 30
0.0
 10
-34.653599999999997
 20
14.6997
 30
0.0
 10
-34.653599999999997
 20
14.6997
 30
0.0
  0
SPLINE
  5
36
100
AcDbEntity
  8
RÚteg 1
 62
     7
100
AcDbSpline
210
0.0
220
0.0
230
1.0
 70
     1
 71
     3
 72
    24
 73
    20
 74
     0
 42
0.0000000001
 43
0.0000000001
 40
0.0
 40
0.0
 40
0.0
 40
0.0
 40
0.2
 40
0.2
 40
0.2
 40
0.2
 40
0.4
 40
0.4
 40
0.4
 40
0.4
 40
0.6000000000000001
 40
0.6000000000000001
 40
0.6000000000000001
 40
0.6000000000000001
 40
0.8
 40
0.8
 40
0.8
 40
0.8
 40
1.0
 40
1.0
 40
1.0
 40
1.0
 10
-39.132800000000003
 20
16.3217
 30
0.0
 10
-39.132800000000003
 20
16.348800000000001
 30
0.0
 10
-38.793100000000003
 20
16.862200000000001
 30
0.0
 10
-38.592199999999998
 20
16.862200000000001
 30
0.0
 10
-38.592199999999998
 20
16.862200000000001
 30
0.0
 10
-38.592199999999998
 20
16.862200000000001
 30
0.0
 10
-38.437800000000003
 20
16.862200000000001
 30
0.0
 10
-38.437800000000003
 20
16.862200000000001
 30
0.0
 10
-38.437800000000003
 20
16.862200000000001
 30
0.0
 10
-38.236800000000002
 20
16.862200000000001
 30
0.0
 10
-37.770000000000003
 20
16.574000000000002
 30
0.0
 10
-37.742600000000003
 20
16.244299999999999
 30
0.0
 10
-37.742600000000003
 20
16.244299999999999
 30
0.0
 10
-37.742600000000003
 20
16.244299999999999
 30
0.0
 10
-38.979300000000002
 20
16.096
 30
0.0
 10
-38.979300000000002
 20
16.096
 30
0.0
 10
-38.979300000000002
 20
16.096
 30
0.0
 10
-39.0822
 20
16.077300000000001
 30
0.0
 10
-39.132800000000003
 20
16.2027
 30
0.0
 10
-39.132800000000003
 20
16.3217
 30
0.0
  0
SPLINE
  5
37
100
AcDbEntity
  8
RÚteg 1
 62
     7
100
AcDbSpline
210
0.0
220
0.0
230
1.0
 70
     1
 71
     3
 72
    24
 73
    20
 74
     0
 42
0.0000000001
 43
0.0000000001
 40
0.0
 40
0.0
 40
0.0
 40
0.0
 40
0.2
 40
0.2
 40
0.2
 40
0.2
 40
0.4
 40
0.4
 40
0.4
 40
0.4
 40
0.6000000000000001
 40
0.6000000000000001
 40
0.6000000000000001
 40
0.6000000000000001
 40
0.8
 40
0.8
 40
0.8
 40
0.8
 40
1.0
 40
1.0
 40
1.0
 40
1.0
 10
-37.974400000000003
 20
17.402899999999999
 30
0.0
 10
-37.974400000000003
 20
17.510200000000001
 30
0.0
 10
-37.672400000000003
 20
17.732700000000001
 30
0.0
 10
-37.588299999999997
 20
17.789000000000001
 30
0.0
 10
-37.588299999999997
 20
17.789000000000001
 30
0.0
 10
-37.588299999999997
 20
17.789000000000001
 30
0.0
 10
-36.465499999999999
 20
17.164400000000001
 30
0.0
 10
-36.465499999999999
 20
17.164400000000001
 30
0.0
 10
-36.465499999999999
 20
17.164400000000001
 30
0.0
 10
-36.465499999999999
 20
17.164400000000001
 30
0.0
 10
-36.487099999999998
 20
17.026
 30
0.0
 10
-36.487099999999998
 20
17.026
 30
0.0
 10
-36.487099999999998
 20
17.026
 30
0.0
 10
-36.487099999999998
 20
17.026
 30
0.0
 10
-37.494900000000001
 20
16.730399999999999
 30
0.0
 10
-37.494900000000001
 20
16.730399999999999
 30
0.0
 10
-37.494900000000001
 20
16.730399999999999
 30
0.0
 10
-37.617800000000003
 20
17.079899999999999
 30
0.0
 10
-37.974400000000003
 20
17.104500000000002
 30
0.0
 10
-37.974400000000003
 20
17.402899999999999
 30
0.0
  0
SPLINE
  5
38
100
AcDbEntity
  8
RÚteg 1
 62
     7
100
AcDbSpline
210
0.0
220
0.0
230
1.0
 70
     1
 71
     3
 72
    20
 73
    16
 74
     0
 42
0.0000000001
 43
0.0000000001
 40
0.0
 40
0.0
 40
0.0
 40
0.0
 40
0.25
 40
0.25
 40
0.25
 40
0.25
 40
0.5
 40
0.5
 40
0.5
 40
0.5
 40
0.75
 40
0.75
 40
0.75
 40
0.75
 40
1.0
 40
1.0
 40
1.0
 40
1.0
 10
-48.091700000000003
 20
18.1752
 30
0.0
 10
-47.6569
 20
18.383700000000001
 30
0.0
 10
-46.297400000000003
 20
18.6526
 30
0.0
 10
-46.238199999999999
 20
17.9437
 30
0.0
 10
-46.238199999999999
 20
17.9437
 30
0.0
 10
-46.549199999999999
 20
17.860499999999998
 30
0.0
 10
-46.547899999999998
 20
17.711500000000001
 30
0.0
 10
-47.010599999999997
 20
17.711500000000001
 30
0.0
 10
-47.010599999999997
 20
17.711500000000001
 30
0.0
 10
-47.010599999999997
 20
17.711500000000001
 30
0.0
 10
-47.087899999999998
 20
17.711500000000001
 30
0.0
 10
-47.087899999999998
 20
17.711500000000001
 30
0.0
 10
-47.087899999999998
 20
17.711500000000001
 30
0.0
 10
-47.405900000000003
 20
17.711500000000001
 30
0.0
 10
-47.941800000000001
 20
17.951499999999999
 30
0.0
 10
-48.091700000000003
 20
18.1752
 30
0.0
  0
SPLINE
  5
39
100
AcDbEntity
  8
RÚteg 1
 62
     7
100
AcDbSpline
210
0.0
220
0.0
230
1.0
 70
     1
 71
     3
 72
    32
 73
    28
 74
     0
 42
0.0000000001
 43
0.0000000001
 40
0.0
 40
0.0
 40
0.0
 40
0.0
 40
0.1428571428571429
 40
0.1428571428571429
 40
0.1428571428571429
 40
0.1428571428571429
 40
0.2857142857142857
 40
0.2857142857142857
 40
0.2857142857142857
 40
0.2857142857142857
 40
0.4285714285714286
 40
0.4285714285714286
 40
0.4285714285714286
 40
0.4285714285714286
 40
0.5714285714285714
 40
0.5714285714285714
 40
0.5714285714285714
 40
0.5714285714285714
 40
0.7142857142857142
 40
0.7142857142857142
 40
0.7142857142857142
 40
0.7142857142857142
 40
0.857142857142857
 40
0.857142857142857
 40
0.857142857142857
 40
0.857142857142857
 40
1.0
 40
1.0
 40
1.0
 40
1.0
 10
-46.933300000000003
 20
19.333600000000001
 30
0.0
 10
-46.631599999999999
 20
19.333600000000001
 30
0.0
 10
-46.3596
 20
19.2744
 30
0.0
 10
-46.161000000000001
 20
19.179200000000002
 30
0.0
 10
-46.161000000000001
 20
19.179200000000002
 30
0.0
 10
-46.161000000000001
 20
19.179200000000002
 30
0.0
 10
-46.335999999999999
 20
18.803799999999999
 30
0.0
 10
-46.335999999999999
 20
18.803799999999999
 30
0.0
 10
-46.335999999999999
 20
18.803799999999999
 30
0.0
 10
-46.335999999999999
 20
18.803799999999999
 30
0.0
 10
-46.331200000000003
 20
18.701799999999999
 30
0.0
 10
-46.331200000000003
 20
18.701799999999999
 30
0.0
 10
-46.331200000000003
 20
18.701799999999999
 30
0.0
 10
-46.331200000000003
 20
18.701799999999999
 30
0.0
 10
-47.869599999999998
 20
18.967300000000002
 30
0.0
 10
-47.869599999999998
 20
18.967300000000002
 30
0.0
 10
-47.869599999999998
 20
18.967300000000002
 30
0.0
 10
-47.869599999999998
 20
18.967300000000002
 30
0.0
 10
-47.860100000000003
 20
19.179200000000002
 30
0.0
 10
-47.860100000000003
 20
19.179200000000002
 30
0.0
 10
-47.860100000000003
 20
19.179200000000002
 30
0.0
 10
-47.583500000000001
 20
19.2437
 30
0.0
 10
-47.497100000000003
 20
19.333600000000001
 30
0.0
 10
-47.165100000000002
 20
19.333600000000001
 30
0.0
 10
-47.165100000000002
 20
19.333600000000001
 30
0.0
 10
-47.165100000000002
 20
19.333600000000001
 30
0.0
 10
-46.933300000000003
 20
19.333600000000001
 30
0.0
 10
-46.933300000000003
 20
19.333600000000001
 30
0.0
  0
SPLINE
  5
3A
100
AcDbEntity
  8
RÚteg 1
 62
     7
100
AcDbSpline
210
0.0
220
0.0
230
1.0
 70
     1
 71
     3
 72
    12
 73
     8
 74
     0
 42
0.0000000001
 43
0.0000000001
 40
0.0
 40
0.0
 40
0.0
 40
0.0
 40
0.5
 40
0.5
 40
0.5
 40
0.5
 40
1.0
 40
1.0
 40
1.0
 40
1.0
 10
-47.6282
 20
20.105899999999998
 30
0.0
 10
-47.273600000000002
 20
20.616399999999999
 30
0.0
 10
-46.290199999999999
 20
20.225999999999999
 30
0.0
 10
-45.774900000000002
 20
20.105899999999998
 30
0.0
 10
-45.774900000000002
 20
20.105899999999998
 30
0.0
 10
-45.841099999999997
 20
19.3109
 30
0.0
 10
-47.359299999999998
 20
20.034199999999998
 30
0.0
 10
-47.6282
 20
20.105899999999998
 30
0.0
  0
SPLINE
  5
3B
100
AcDbEntity
  8
RÚteg 1
 62
     7
100
AcDbSpline
210
0.0
220
0.0
230
1.0
 70
     1
 71
     3
 72
    20
 73
    16
 74
     0
 42
0.0000000001
 43
0.0000000001
 40
0.0
 40
0.0
 40
0.0
 40
0.0
 40
0.25
 40
0.25
 40
0.25
 40
0.25
 40
0.5
 40
0.5
 40
0.5
 40
0.5
 40
0.75
 40
0.75
 40
0.75
 40
0.75
 40
1.0
 40
1.0
 40
1.0
 40
1.0
 10
-45.1569
 20
20.878299999999999
 30
0.0
 10
-45.1569
 20
20.878299999999999
 30
0.0
 10
-45.388800000000003
 20
20.878299999999999
 30
0.0
 10
-45.388800000000003
 20
20.878299999999999
 30
0.0
 10
-45.388800000000003
 20
20.878299999999999
 30
0.0
 10
-45.950499999999998
 20
20.878299999999999
 30
0.0
 10
-46.659799999999997
 20
20.972799999999999
 30
0.0
 10
-46.7654
 20
21.500399999999999
 30
0.0
 10
-46.7654
 20
21.500399999999999
 30
0.0
 10
-46.7654
 20
21.500399999999999
 30
0.0
 10
-45.149099999999997
 20
21.234000000000002
 30
0.0
 10
-45.149099999999997
 20
21.234000000000002
 30
0.0
 10
-45.149099999999997
 20
21.234000000000002
 30
0.0
 10
-45.149099999999997
 20
21.234000000000002
 30
0.0
 10
-45.1569
 20
20.878299999999999
 30
0.0
 10
-45.1569
 20
20.878299999999999
 30
0.0
  0
SPLINE
  5
3C
100
AcDbEntity
  8
RÚteg 1
 62
     7
100
AcDbSpline
210
0.0
220
0.0
230
1.0
 70
     1
 71
     3
 72
    88
 73
    84
 74
     0
 42
0.0000000001
 43
0.0000000001
 40
0.0
 40
0.0
 40
0.0
 40
0.0
 40
0.0476190476190476
 40
0.0476190476190476
 40
0.0476190476190476
 40
0.0476190476190476
 40
0.0952380952380952
 40
0.0952380952380952
 40
0.0952380952380952
 40
0.0952380952380952
 40
0.1428571428571429
 40
0.1428571428571429
 40
0.1428571428571429
 40
0.1428571428571429
 40
0.1904761904761905
 40
0.1904761904761905
 40
0.1904761904761905
 40
0.1904761904761905
 40
0.2380952380952381
 40
0.2380952380952381
 40
0.2380952380952381
 40
0.2380952380952381
 40
0.2857142857142857
 40
0.2857142857142857
 40
0.2857142857142857
 40
0.2857142857142857
 40
0.3333333333333333
 40
0.3333333333333333
 40
0.3333333333333333
 40
0.3333333333333333
 40
0.3809523809523809
 40
0.3809523809523809
 40
0.3809523809523809
 40
0.3809523809523809
 40
0.4285714285714286
 40
0.4285714285714286
 40
0.4285714285714286
 40
0.4285714285714286
 40
0.4761904761904762
 40
0.4761904761904762
 40
0.4761904761904762
 40
0.4761904761904762
 40
0.5238095238095237
 40
0.5238095238095237
 40
0.5238095238095237
 40
0.5238095238095237
 40
0.5714285714285714
 40
0.5714285714285714
 40
0.5714285714285714
 40
0.5714285714285714
 40
0.6190476190476191
 40
0.6190476190476191
 40
0.6190476190476191
 40
0.6190476190476191
 40
0.6666666666666667
 40
0.6666666666666667
 40
0.6666666666666667
 40
0.6666666666666667
 40
0.7142857142857144
 40
0.7142857142857144
 40
0.7142857142857144
 40
0.7142857142857144
 40
0.7619047619047621
 40
0.7619047619047621
 40
0.7619047619047621
 40
0.7619047619047621
 40
0.8095238095238098
 40
0.8095238095238098
 40
0.8095238095238098
 40
0.8095238095238098
 40
0.8571428571428574
 40
0.8571428571428574
 40
0.8571428571428574
 40
0.8571428571428574
 40
0.9047619047619051
 40
0.9047619047619051
 40
0.9047619047619051
 40
0.9047619047619051
 40
0.9523809523809528
 40
0.9523809523809528
 40
0.9523809523809528
 40
0.9523809523809528
 40
1.0
 40
1.0
 40
1.0
 40
1.0
 10
-29.401800000000001
 20
17.402899999999999
 30
0.0
 10
-29.401800000000001
 20
17.816600000000001
 30
0.0
 10
-28.827100000000002
 20
19.724799999999998
 30
0.0
 10
-28.675000000000001
 20
20.2288
 30
0.0
 10
-28.675000000000001
 20
20.2288
 30
0.0
 10
-28.416499999999999
 20
21.084399999999999
 30
0.0
 10
-27.703499999999998
 20
22.072399999999998
 30
0.0
 10
-27.548100000000002
 20
22.654599999999999
 30
0.0
 10
-27.548100000000002
 20
22.654599999999999
 30
0.0
 10
-27.548100000000002
 20
22.654599999999999
 30
0.0
 10
-27.316199999999998
 20
22.654599999999999
 30
0.0
 10
-27.316199999999998
 20
22.654599999999999
 30
0.0
 10
-27.316199999999998
 20
22.654599999999999
 30
0.0
 10
-27.259
 20
21.965
 30
0.0
 10
-27.057700000000001
 20
21.8873
 30
0.0
 10
-27.3935
 20
21.187200000000001
 30
0.0
 10
-27.3935
 20
21.187200000000001
 30
0.0
 10
-27.0518
 20
21.195
 30
0.0
 10
-26.621300000000002
 20
21.577400000000001
 30
0.0
 10
-26.621300000000002
 20
21.882100000000001
 30
0.0
 10
-26.621300000000002
 20
21.882100000000001
 30
0.0
 10
-26.621300000000002
 20
21.882100000000001
 30
0.0
 10
-26.621300000000002
 20
22.5002
 30
0.0
 10
-26.621300000000002
 20
22.5002
 30
0.0
 10
-26.621300000000002
 20
22.5002
 30
0.0
 10
-26.621300000000002
 20
22.5002
 30
0.0
 10
-26.3125
 20
22.5002
 30
0.0
 10
-26.3125
 20
22.5002
 30
0.0
 10
-26.3125
 20
22.5002
 30
0.0
 10
-26.006900000000002
 20
22.5002
 30
0.0
 10
-25.4754
 20
21.827400000000001
 30
0.0
 10
-25.270700000000001
 20
21.611000000000001
 30
0.0
 10
-25.270700000000001
 20
21.611000000000001
 30
0.0
 10
-24.841000000000001
 20
21.1568
 30
0.0
 10
-24.720600000000001
 20
21.0749
 30
0.0
 10
-24.149999999999999
 20
20.801100000000002
 30
0.0
 10
-24.149999999999999
 20
20.801100000000002
 30
0.0
 10
-24.149999999999999
 20
20.801100000000002
 30
0.0
 10
-23.321400000000001
 20
21.5931
 30
0.0
 10
-23.321400000000001
 20
21.5931
 30
0.0
 10
-23.321400000000001
 20
21.5931
 30
0.0
 10
-23.321400000000001
 20
21.5931
 30
0.0
 10
-23.1189
 20
20.109500000000001
 30
0.0
 10
-23.1189
 20
20.109500000000001
 30
0.0
 10
-23.1189
 20
20.109500000000001
 30
0.0
 10
-23.1189
 20
20.109500000000001
 30
0.0
 10
-23.145700000000001
 20
19.874300000000002
 30
0.0
 10
-23.145700000000001
 20
19.874300000000002
 30
0.0
 10
-23.145700000000001
 20
19.874300000000002
 30
0.0
 10
-23.145700000000001
 20
19.874300000000002
 30
0.0
 10
-22.991399999999999
 20
19.874300000000002
 30
0.0
 10
-22.991399999999999
 20
19.874300000000002
 30
0.0
 10
-22.991399999999999
 20
19.874300000000002
 30
0.0
 10
-22.991399999999999
 20
19.874300000000002
 30
0.0
 10
-22.5945
 20
21.260899999999999
 30
0.0
 10
-22.5945
 20
21.260899999999999
 30
0.0
 10
-22.5945
 20
21.260899999999999
 30
0.0
 10
-22.5945
 20
21.260899999999999
 30
0.0
 10
-22.3735
 20
21.264399999999998
 30
0.0
 10
-22.3735
 20
21.264399999999998
 30
0.0
 10
-22.3735
 20
21.264399999999998
 30
0.0
 10
-22.3735
 20
21.264399999999998
 30
0.0
 10
-22.2775
 20
21.267199999999999
 30
0.0
 10
-22.2775
 20
21.267199999999999
 30
0.0
 10
-22.2775
 20
21.267199999999999
 30
0.0
 10
-22.2775
 20
21.267199999999999
 30
0.0
 10
-22.113
 20
15.8592
 30
0.0
 10
-22.113
 20
15.8592
 30
0.0
 10
-22.113
 20
15.8592
 30
0.0
 10
-22.113
 20
15.8592
 30
0.0
 10
-22.450700000000001
 20
15.8581
 30
0.0
 10
-22.450700000000001
 20
15.8581
 30
0.0
 10
-22.450700000000001
 20
15.8581
 30
0.0
 10
-23.091799999999999
 20
15.8581
 30
0.0
 10
-24.6995
 20
17.4802
 30
0.0
 10
-25.539999999999999
 20
17.4802
 30
0.0
 10
-25.539999999999999
 20
17.4802
 30
0.0
 10
-25.539999999999999
 20
17.4802
 30
0.0
 10
-26.0032
 20
17.4802
 30
0.0
 10
-26.0032
 20
17.4802
 30
0.0
 10
-26.0032
 20
17.4802
 30
0.0
 10
-26.678799999999999
 20
17.4802
 30
0.0
 10
-29.401800000000001
 20
16.5747
 30
0.0
 10
-29.401800000000001
 20
17.402899999999999
 30
0.0
  0
SPLINE
  5
3D
100
AcDbEntity
  8
RÚteg 1
 62
     7
100
AcDbSpline
210
0.0
220
0.0
230
1.0
 70
     1
 71
     3
 72
    44
 73
    40
 74
     0
 42
0.0000000001
 43
0.0000000001
 40
0.0
 40
0.0
 40
0.0
 40
0.0
 40
0.1
 40
0.1
 40
0.1
 40
0.1
 40
0.2
 40
0.2
 40
0.2
 40
0.2
 40
0.3
 40
0.3
 40
0.3
 40
0.3
 40
0.4
 40
0.4
 40
0.4
 40
0.4
 40
0.5
 40
0.5
 40
0.5
 40
0.5
 40
0.6
 40
0.6
 40
0.6
 40
0.6
 40
0.7
 40
0.7
 40
0.7
 40
0.7
 40
0.7999999999999999
 40
0.7999999999999999
 40
0.7999999999999999
 40
0.7999999999999999
 40
0.8999999999999999
 40
0.8999999999999999
 40
0.8999999999999999
 40
0.8999999999999999
 40
1.0
 40
1.0
 40
1.0
 40
1.0
 10
-45.1569
 20
19.5655
 30
0.0
 10
-45.1569
 20
19.7681
 30
0.0
 10
-44.684100000000001
 20
20.2577
 30
0.0
 10
-44.490099999999998
 20
20.3657
 30
0.0
 10
-44.490099999999998
 20
20.3657
 30
0.0
 10
-43.866100000000003
 20
20.712
 30
0.0
 10
-43.981299999999997
 20
20.343699999999998
 30
0.0
 10
-43.769199999999998
 20
21.0352
 30
0.0
 10
-43.769199999999998
 20
21.0352
 30
0.0
 10
-43.606000000000002
 20
21.567799999999998
 30
0.0
 10
-42.837800000000001
 20
22.2682
 30
0.0
 10
-42.1449
 20
22.2682
 30
0.0
 10
-42.1449
 20
22.2682
 30
0.0
 10
-41.853999999999999
 20
22.2682
 30
0.0
 10
-41.998800000000003
 20
22.217700000000001
 30
0.0
 10
-41.681600000000003
 20
22.191199999999998
 30
0.0
 10
-41.681600000000003
 20
22.191199999999998
 30
0.0
 10
-41.750399999999999
 20
21.933
 30
0.0
 10
-42.698900000000002
 20
21.750900000000001
 30
0.0
 10
-43.136000000000003
 20
21.097100000000001
 30
0.0
 10
-43.136000000000003
 20
21.097100000000001
 30
0.0
 10
-43.670999999999999
 20
20.296800000000001
 30
0.0
 10
-42.792499999999997
 20
19.874300000000002
 30
0.0
 10
-44.384700000000002
 20
19.874300000000002
 30
0.0
 10
-44.384700000000002
 20
19.874300000000002
 30
0.0
 10
-44.384700000000002
 20
19.874300000000002
 30
0.0
 10
-44.599699999999999
 20
19.626000000000001
 30
0.0
 10
-44.599699999999999
 20
19.626000000000001
 30
0.0
 10
-44.599699999999999
 20
19.626000000000001
 30
0.0
 10
-44.616300000000003
 20
18.802399999999999
 30
0.0
 10
-44.722999999999999
 20
19.258199999999999
 30
0.0
 10
-44.507199999999997
 20
18.425599999999999
 30
0.0
 10
-44.507199999999997
 20
18.425599999999999
 30
0.0
 10
-44.323099999999997
 20
17.715599999999998
 30
0.0
 10
-45.030099999999997
 20
18.604700000000001
 30
0.0
 10
-45.1569
 20
18.638400000000001
 30
0.0
 10
-45.1569
 20
18.638400000000001
 30
0.0
 10
-45.1569
 20
18.638400000000001
 30
0.0
 10
-45.1569
 20
19.5655
 30
0.0
 10
-45.1569
 20
19.5655
 30
0.0
  0
SPLINE
  5
3E
100
AcDbEntity
  8
RÚteg 1
 62
     7
100
AcDbSpline
210
0.0
220
0.0
230
1.0
 70
     1
 71
     3
 72
    20
 73
    16
 74
     0
 42
0.0000000001
 43
0.0000000001
 40
0.0
 40
0.0
 40
0.0
 40
0.0
 40
0.25
 40
0.25
 40
0.25
 40
0.25
 40
0.5
 40
0.5
 40
0.5
 40
0.5
 40
0.75
 40
0.75
 40
0.75
 40
0.75
 40
1.0
 40
1.0
 40
1.0
 40
1.0
 10
-45.079599999999999
 20
21.882100000000001
 30
0.0
 10
-45.425699999999999
 20
21.882100000000001
 30
0.0
 10
-46.148000000000003
 20
22.162600000000001
 30
0.0
 10
-46.238199999999999
 20
22.5002
 30
0.0
 10
-46.238199999999999
 20
22.5002
 30
0.0
 10
-46.238199999999999
 20
22.5002
 30
0.0
 10
-45.465800000000002
 20
22.5002
 30
0.0
 10
-45.465800000000002
 20
22.5002
 30
0.0
 10
-45.465800000000002
 20
22.5002
 30
0.0
 10
-45.007800000000003
 20
22.5002
 30
0.0
 10
-44.421100000000003
 20
22.32
 30
0.0
 10
-44.384700000000002
 20
21.882100000000001
 30
0.0
 10
-44.384700000000002
 20
21.882100000000001
 30
0.0
 10
-44.384700000000002
 20
21.882100000000001
 30
0.0
 10
-45.079599999999999
 20
21.882100000000001
 30
0.0
 10
-45.079599999999999
 20
21.882100000000001
 30
0.0
  0
SPLINE
  5
3F
100
AcDbEntity
  8
RÚteg 1
 62
     7
100
AcDbSpline
210
0.0
220
0.0
230
1.0
 70
     1
 71
     3
 72
    24
 73
    20
 74
     0
 42
0.0000000001
 43
0.0000000001
 40
0.0
 40
0.0
 40
0.0
 40
0.0
 40
0.2
 40
0.2
 40
0.2
 40
0.2
 40
0.4
 40
0.4
 40
0.4
 40
0.4
 40
0.6000000000000001
 40
0.6000000000000001
 40
0.6000000000000001
 40
0.6000000000000001
 40
0.8
 40
0.8
 40
0.8
 40
0.8
 40
1.0
 40
1.0
 40
1.0
 40
1.0
 10
-43.689599999999999
 20
22.654599999999999
 30
0.0
 10
-44.105400000000003
 20
22.654599999999999
 30
0.0
 10
-44.819200000000002
 20
22.979099999999999
 30
0.0
 10
-44.925199999999997
 20
23.272500000000001
 30
0.0
 10
-44.925199999999997
 20
23.272500000000001
 30
0.0
 10
-44.925199999999997
 20
23.272500000000001
 30
0.0
 10
-44.384700000000002
 20
23.272500000000001
 30
0.0
 10
-44.384700000000002
 20
23.272500000000001
 30
0.0
 10
-44.384700000000002
 20
23.272500000000001
 30
0.0
 10
-43.887999999999998
 20
23.272500000000001
 30
0.0
 10
-43.177599999999998
 20
23.128699999999998
 30
0.0
 10
-43.0717
 20
22.7317
 30
0.0
 10
-43.0717
 20
22.7317
 30
0.0
 10
-43.244900000000001
 20
22.691600000000001
 30
0.0
 10
-43.249299999999998
 20
22.654599999999999
 30
0.0
 10
-43.457900000000002
 20
22.654599999999999
 30
0.0
 10
-43.457900000000002
 20
22.654599999999999
 30
0.0
 10
-43.457900000000002
 20
22.654599999999999
 30
0.0
 10
-43.689599999999999
 20
22.654599999999999
 30
0.0
 10
-43.689599999999999
 20
22.654599999999999
 30
0.0
  0
SPLINE
  5
40
100
AcDbEntity
  8
RÚteg 1
 62
     7
100
AcDbSpline
210
0.0
220
0.0
230
1.0
 70
     1
 71
     3
 72
    92
 73
    88
 74
     0
 42
0.0000000001
 43
0.0000000001
 40
0.0
 40
0.0
 40
0.0
 40
0.0
 40
0.0454545454545455
 40
0.0454545454545455
 40
0.0454545454545455
 40
0.0454545454545455
 40
0.0909090909090909
 40
0.0909090909090909
 40
0.0909090909090909
 40
0.0909090909090909
 40
0.1363636363636364
 40
0.1363636363636364
 40
0.1363636363636364
 40
0.1363636363636364
 40
0.1818181818181818
 40
0.1818181818181818
 40
0.1818181818181818
 40
0.1818181818181818
 40
0.2272727272727273
 40
0.2272727272727273
 40
0.2272727272727273
 40
0.2272727272727273
 40
0.2727272727272728
 40
0.2727272727272728
 40
0.2727272727272728
 40
0.2727272727272728
 40
0.3181818181818182
 40
0.3181818181818182
 40
0.3181818181818182
 40
0.3181818181818182
 40
0.3636363636363637
 40
0.3636363636363637
 40
0.3636363636363637
 40
0.3636363636363637
 40
0.4090909090909092
 40
0.4090909090909092
 40
0.4090909090909092
 40
0.4090909090909092
 40
0.4545454545454546
 40
0.4545454545454546
 40
0.4545454545454546
 40
0.4545454545454546
 40
0.5000000000000001
 40
0.5000000000000001
 40
0.5000000000000001
 40
0.5000000000000001
 40
0.5454545454545455
 40
0.5454545454545455
 40
0.5454545454545455
 40
0.5454545454545455
 40
0.5909090909090909
 40
0.5909090909090909
 40
0.5909090909090909
 40
0.5909090909090909
 40
0.6363636363636364
 40
0.6363636363636364
 40
0.6363636363636364
 40
0.6363636363636364
 40
0.6818181818181818
 40
0.6818181818181818
 40
0.6818181818181818
 40
0.6818181818181818
 40
0.7272727272727272
 40
0.7272727272727272
 40
0.7272727272727272
 40
0.7272727272727272
 40
0.7727272727272726
 40
0.7727272727272726
 40
0.7727272727272726
 40
0.7727272727272726
 40
0.818181818181818
 40
0.818181818181818
 40
0.818181818181818
 40
0.818181818181818
 40
0.8636363636363634
 40
0.8636363636363634
 40
0.8636363636363634
 40
0.8636363636363634
 40
0.9090909090909088
 40
0.9090909090909088
 40
0.9090909090909088
 40
0.9090909090909088
 40
0.9545454545454543
 40
0.9545454545454543
 40
0.9545454545454543
 40
0.9545454545454543
 40
1.0
 40
1.0
 40
1.0
 40
1.0
 10
-36.352499999999999
 20
23.581399999999999
 30
0.0
 10
-36.352499999999999
 20
21.2103
 30
0.0
 10
-37.156500000000001
 20
19.1953
 30
0.0
 10
-38.791899999999998
 20
17.757000000000001
 30
0.0
 10
-38.791899999999998
 20
17.757000000000001
 30
0.0
 10
-39.721299999999999
 20
16.939299999999999
 30
0.0
 10
-40.066299999999998
 20
16.509499999999999
 30
0.0
 10
-41.420499999999997
 20
16.0608
 30
0.0
 10
-41.420499999999997
 20
16.0608
 30
0.0
 10
-42.643099999999997
 20
15.656000000000001
 30
0.0
 10
-43.462800000000001
 20
15.3947
 30
0.0
 10
-45.079599999999999
 20
15.3947
 30
0.0
 10
-45.079599999999999
 20
15.3947
 30
0.0
 10
-45.079599999999999
 20
15.3947
 30
0.0
 10
-45.697499999999998
 20
15.3947
 30
0.0
 10
-45.697499999999998
 20
15.3947
 30
0.0
 10
-45.697499999999998
 20
15.3947
 30
0.0
 10
-47.1539
 20
15.3947
 30
0.0
 10
-47.518000000000001
 20
16.1602
 30
0.0
 10
-48.091700000000003
 20
17.0168
 30
0.0
 10
-48.091700000000003
 20
17.0168
 30
0.0
 10
-47.888199999999998
 20
17.117799999999999
 30
0.0
 10
-48.155299999999997
 20
17.093800000000002
 30
0.0
 10
-47.860100000000003
 20
17.093800000000002
 30
0.0
 10
-47.860100000000003
 20
17.093800000000002
 30
0.0
 10
-47.860100000000003
 20
17.093800000000002
 30
0.0
 10
-47.319299999999998
 20
17.093800000000002
 30
0.0
 10
-47.319299999999998
 20
17.093800000000002
 30
0.0
 10
-47.319299999999998
 20
17.093800000000002
 30
0.0
 10
-45.875100000000003
 20
17.093800000000002
 30
0.0
 10
-44.003
 20
17.343499999999999
 30
0.0
 10
-43.332500000000003
 20
18.358699999999999
 30
0.0
 10
-43.332500000000003
 20
18.358699999999999
 30
0.0
 10
-42.961500000000001
 20
18.920000000000002
 30
0.0
 10
-42.544600000000003
 20
19.430499999999999
 30
0.0
 10
-42.208399999999997
 20
19.9377
 30
0.0
 10
-42.208399999999997
 20
19.9377
 30
0.0
 10
-41.885800000000003
 20
20.424399999999999
 30
0.0
 10
-41.627699999999997
 20
21.2484
 30
0.0
 10
-40.909399999999998
 20
21.264399999999998
 30
0.0
 10
-40.909399999999998
 20
21.264399999999998
 30
0.0
 10
-41.027700000000003
 20
20.756499999999999
 30
0.0
 10
-40.9696
 20
20.305599999999998
 30
0.0
 10
-40.445700000000002
 20
20.0288
 30
0.0
 10
-40.445700000000002
 20
20.0288
 30
0.0
 10
-40.445700000000002
 20
20.0288
 30
0.0
 10
-40.063600000000001
 20
20.121700000000001
 30
0.0
 10
-40.063600000000001
 20
20.121700000000001
 30
0.0
 10
-40.063600000000001
 20
20.121700000000001
 30
0.0
 10
-40.019500000000001
 20
20.279199999999999
 30
0.0
 10
-39.982399999999998
 20
20.2834
 30
0.0
 10
-39.982399999999998
 20
20.4923
 30
0.0
 10
-39.982399999999998
 20
20.4923
 30
0.0
 10
-39.982399999999998
 20
20.4923
 30
0.0
 10
-39.982399999999998
 20
20.724
 30
0.0
 10
-39.982399999999998
 20
20.724
 30
0.0
 10
-39.982399999999998
 20
20.724
 30
0.0
 10
-39.982399999999998
 20
21.535299999999999
 30
0.0
 10
-40.820599999999999
 20
22.872499999999999
 30
0.0
 10
-41.324800000000003
 20
23.242799999999999
 30
0.0
 10
-41.324800000000003
 20
23.242799999999999
 30
0.0
 10
-42.382599999999996
 20
24.020199999999999
 30
0.0
 10
-42.8889
 20
23.809699999999999
 30
0.0
 10
-44.230200000000004
 20
24.1221
 30
0.0
 10
-44.230200000000004
 20
24.1221
 30
0.0
 10
-44.230200000000004
 20
24.1221
 30
0.0
 10
-44.230200000000004
 20
24.276599999999998
 30
0.0
 10
-44.230200000000004
 20
24.276599999999998
 30
0.0
 10
-44.230200000000004
 20
24.276599999999998
 30
0.0
 10
-43.252699999999997
 20
24.537500000000001
 30
0.0
 10
-42.573799999999999
 20
25.229500000000002
 30
0.0
 10
-41.247100000000003
 20
24.7881
 30
0.0
 10
-41.247100000000003
 20
24.7881
 30
0.0
 10
-40.494199999999999
 20
24.537500000000001
 30
0.0
 10
-39.247599999999998
 20
23.8903
 30
0.0
 10
-38.360599999999998
 20
23.8903
 30
0.0
 10
-38.360599999999998
 20
23.8903
 30
0.0
 10
-38.360599999999998
 20
23.8903
 30
0.0
 10
-38.206099999999999
 20
23.8903
 30
0.0
 10
-38.206099999999999
 20
23.8903
 30
0.0
 10
-38.206099999999999
 20
23.8903
 30
0.0
 10
-37.5015
 20
23.8903
 30
0.0
 10
-36.569699999999997
 20
24.430900000000001
 30
0.0
 10
-36.506999999999998
 20
24.430900000000001
 30
0.0
 10
-36.506999999999998
 20
24.430900000000001
 30
0.0
 10
-36.225700000000003
 20
24.430900000000001
 30
0.0
 10
-36.352499999999999
 20
23.693100000000001
 30
0.0
 10
-36.352499999999999
 20
23.581399999999999
 30
0.0
  0
SPLINE
  5
41
100
AcDbEntity
  8
RÚteg 1
 62
     7
100
AcDbSpline
210
0.0
220
0.0
230
1.0
 70
     1
 71
     3
 72
    20
 73
    16
 74
     0
 42
0.0000000001
 43
0.0000000001
 40
0.0
 40
0.0
 40
0.0
 40
0.0
 40
0.25
 40
0.25
 40
0.25
 40
0.25
 40
0.5
 40
0.5
 40
0.5
 40
0.5
 40
0.75
 40
0.75
 40
0.75
 40
0.75
 40
1.0
 40
1.0
 40
1.0
 40
1.0
 10
-19.052700000000002
 20
24.894200000000001
 30
0.0
 10
-19.141300000000001
 20
24.773299999999999
 30
0.0
 10
-19.067
 20
24.739799999999999
 30
0.0
 10
-19.284199999999998
 20
24.739799999999999
 30
0.0
 10
-19.284199999999998
 20
24.739799999999999
 30
0.0
 10
-19.625
 20
24.739799999999999
 30
0.0
 10
-20.542100000000001
 20
24.8553
 30
0.0
 10
-20.597100000000001
 20
25.357700000000001
 30
0.0
 10
-20.597100000000001
 20
25.357700000000001
 30
0.0
 10
-20.597100000000001
 20
25.357700000000001
 30
0.0
 10
-19.979199999999999
 20
25.357700000000001
 30
0.0
 10
-19.979199999999999
 20
25.357700000000001
 30
0.0
 10
-19.979199999999999
 20
25.357700000000001
 30
0.0
 10
-19.674299999999999
 20
25.357700000000001
 30
0.0
 10
-19.185300000000002
 20
25.075700000000001
 30
0.0
 10
-19.052700000000002
 20
24.894200000000001
 30
0.0
  0
SPLINE
  5
42
100
AcDbEntity
  8
RÚteg 1
 62
     7
100
AcDbSpline
210
0.0
220
0.0
230
1.0
 70
     1
 71
     3
 72
    24
 73
    20
 74
     0
 42
0.0000000001
 43
0.0000000001
 40
0.0
 40
0.0
 40
0.0
 40
0.0
 40
0.2
 40
0.2
 40
0.2
 40
0.2
 40
0.4
 40
0.4
 40
0.4
 40
0.4
 40
0.6000000000000001
 40
0.6000000000000001
 40
0.6000000000000001
 40
0.6000000000000001
 40
0.8
 40
0.8
 40
0.8
 40
0.8
 40
1.0
 40
1.0
 40
1.0
 40
1.0
 10
-18.975100000000001
 20
25.898299999999999
 30
0.0
 10
-18.975100000000001
 20
25.898299999999999
 30
0.0
 10
-19.287700000000001
 20
25.834599999999998
 30
0.0
 10
-19.287700000000001
 20
25.834599999999998
 30
0.0
 10
-19.287700000000001
 20
25.834599999999998
 30
0.0
 10
-19.6846
 20
26.013200000000001
 30
0.0
 10
-20.034099999999999
 20
25.904900000000001
 30
0.0
 10
-20.2883
 20
26.284300000000002
 30
0.0
 10
-20.2883
 20
26.284300000000002
 30
0.0
 10
-20.205500000000001
 20
26.334099999999999
 30
0.0
 10
-20.021599999999999
 20
26.439
 30
0.0
 10
-19.9023
 20
26.439
 30
0.0
 10
-19.9023
 20
26.439
 30
0.0
 10
-19.533000000000001
 20
26.439
 30
0.0
 10
-19.304300000000001
 20
26.206499999999998
 30
0.0
 10
-18.975100000000001
 20
26.129999999999999
 30
0.0
 10
-18.975100000000001
 20
26.129999999999999
 30
0.0
 10
-18.975100000000001
 20
26.129999999999999
 30
0.0
 10
-18.975100000000001
 20
25.898299999999999
 30
0.0
 10
-18.975100000000001
 20
25.898299999999999
 30
0.0
  0
SPLINE
  5
43
100
AcDbEntity
  8
RÚteg 1
 62
     7
100
AcDbSpline
210
0.0
220
0.0
230
1.0
 70
     1
 71
     3
 72
    52
 73
    48
 74
     0
 42
0.0000000001
 43
0.0000000001
 40
0.0
 40
0.0
 40
0.0
 40
0.0
 40
0.0833333333333333
 40
0.0833333333333333
 40
0.0833333333333333
 40
0.0833333333333333
 40
0.1666666666666667
 40
0.1666666666666667
 40
0.1666666666666667
 40
0.1666666666666667
 40
0.25
 40
0.25
 40
0.25
 40
0.25
 40
0.3333333333333333
 40
0.3333333333333333
 40
0.3333333333333333
 40
0.3333333333333333
 40
0.4166666666666666
 40
0.4166666666666666
 40
0.4166666666666666
 40
0.4166666666666666
 40
0.4999999999999999
 40
0.4999999999999999
 40
0.4999999999999999
 40
0.4999999999999999
 40
0.5833333333333333
 40
0.5833333333333333
 40
0.5833333333333333
 40
0.5833333333333333
 40
0.6666666666666666
 40
0.6666666666666666
 40
0.6666666666666666
 40
0.6666666666666666
 40
0.75
 40
0.75
 40
0.75
 40
0.75
 40
0.8333333333333334
 40
0.8333333333333334
 40
0.8333333333333334
 40
0.8333333333333334
 40
0.9166666666666667
 40
0.9166666666666667
 40
0.9166666666666667
 40
0.9166666666666667
 40
1.0
 40
1.0
 40
1.0
 40
1.0
 10
-57.900199999999998
 20
25.9756
 30
0.0
 10
-57.900199999999998
 20
26.669799999999999
 30
0.0
 10
-56.8476
 20
26.976700000000001
 30
0.0
 10
-56.510300000000001
 20
26.516300000000001
 30
0.0
 10
-56.510300000000001
 20
26.516300000000001
 30
0.0
 10
-56.725200000000001
 20
26.2225
 30
0.0
 10
-57.050699999999999
 20
26.208300000000001
 30
0.0
 10
-57.050699999999999
 20
25.7437
 30
0.0
 10
-57.050699999999999
 20
25.7437
 30
0.0
 10
-57.050699999999999
 20
25.7437
 30
0.0
 10
-57.050699999999999
 20
25.666799999999999
 30
0.0
 10
-57.050699999999999
 20
25.666799999999999
 30
0.0
 10
-57.050699999999999
 20
25.666799999999999
 30
0.0
 10
-57.050699999999999
 20
25.031600000000001
 30
0.0
 10
-56.664499999999997
 20
25.052800000000001
 30
0.0
 10
-56.664499999999997
 20
24.662700000000001
 30
0.0
 10
-56.664499999999997
 20
24.662700000000001
 30
0.0
 10
-56.664499999999997
 20
24.467199999999998
 30
0.0
 10
-57.668500000000002
 20
24.387699999999999
 30
0.0
 10
-57.668500000000002
 20
23.735800000000001
 30
0.0
 10
-57.668500000000002
 20
23.735800000000001
 30
0.0
 10
-57.668500000000002
 20
23.7318
 30
0.0
 10
-57.457999999999998
 20
23.3127
 30
0.0
 10
-57.436999999999998
 20
23.272500000000001
 30
0.0
 10
-57.436999999999998
 20
23.272500000000001
 30
0.0
 10
-57.436999999999998
 20
23.272500000000001
 30
0.0
 10
-57.602800000000002
 20
23.049900000000001
 30
0.0
 10
-57.602800000000002
 20
23.049900000000001
 30
0.0
 10
-57.602800000000002
 20
23.049900000000001
 30
0.0
 10
-58.0289
 20
23.250800000000002
 30
0.0
 10
-58.595199999999998
 20
23.5671
 30
0.0
 10
-58.595199999999998
 20
24.199300000000001
 30
0.0
 10
-58.595199999999998
 20
24.199300000000001
 30
0.0
 10
-58.595199999999998
 20
24.199300000000001
 30
0.0
 10
-58.595199999999998
 20
24.3538
 30
0.0
 10
-58.595199999999998
 20
24.3538
 30
0.0
 10
-58.595199999999998
 20
24.3538
 30
0.0
 10
-58.595199999999998
 20
24.764800000000001
 30
0.0
 10
-57.907400000000003
 20
24.982700000000001
 30
0.0
 10
-57.745800000000003
 20
25.203299999999999
 30
0.0
 10
-57.745800000000003
 20
25.203299999999999
 30
0.0
 10
-57.839100000000002
 20
25.342500000000001
 30
0.0
 10
-57.900199999999998
 20
25.338899999999999
 30
0.0
 10
-57.900199999999998
 20
25.5121
 30
0.0
 10
-57.900199999999998
 20
25.5121
 30
0.0
 10
-57.900199999999998
 20
25.5121
 30
0.0
 10
-57.900199999999998
 20
25.9756
 30
0.0
 10
-57.900199999999998
 20
25.9756
 30
0.0
  0
SPLINE
  5
44
100
AcDbEntity
  8
RÚteg 1
 62
     7
100
AcDbSpline
210
0.0
220
0.0
230
1.0
 70
     1
 71
     3
 72
    32
 73
    28
 74
     0
 42
0.0000000001
 43
0.0000000001
 40
0.0
 40
0.0
 40
0.0
 40
0.0
 40
0.1428571428571429
 40
0.1428571428571429
 40
0.1428571428571429
 40
0.1428571428571429
 40
0.2857142857142857
 40
0.2857142857142857
 40
0.2857142857142857
 40
0.2857142857142857
 40
0.4285714285714286
 40
0.4285714285714286
 40
0.4285714285714286
 40
0.4285714285714286
 40
0.5714285714285714
 40
0.5714285714285714
 40
0.5714285714285714
 40
0.5714285714285714
 40
0.7142857142857142
 40
0.7142857142857142
 40
0.7142857142857142
 40
0.7142857142857142
 40
0.857142857142857
 40
0.857142857142857
 40
0.857142857142857
 40
0.857142857142857
 40
1.0
 40
1.0
 40
1.0
 40
1.0
 10
-21.755600000000001
 20
25.898299999999999
 30
0.0
 10
-22.0505
 20
25.898299999999999
 30
0.0
 10
-22.066199999999998
 20
26.459099999999999
 30
0.0
 10
-22.218900000000001
 20
26.747900000000001
 30
0.0
 10
-22.218900000000001
 20
26.747900000000001
 30
0.0
 10
-22.155899999999999
 20
26.8096
 30
0.0
 10
-22.035299999999999
 20
26.9025
 30
0.0
 10
-21.9102
 20
26.9025
 30
0.0
 10
-21.9102
 20
26.9025
 30
0.0
 10
-21.9102
 20
26.9025
 30
0.0
 10
-21.4467
 20
26.9025
 30
0.0
 10
-21.4467
 20
26.9025
 30
0.0
 10
-21.4467
 20
26.9025
 30
0.0
 10
-21.1646
 20
26.9025
 30
0.0
 10
-20.828800000000001
 20
26.689399999999999
 30
0.0
 10
-20.828800000000001
 20
26.439
 30
0.0
 10
-20.828800000000001
 20
26.439
 30
0.0
 10
-20.828800000000001
 20
26.439
 30
0.0
 10
-20.828800000000001
 20
26.284300000000002
 30
0.0
 10
-20.828800000000001
 20
26.284300000000002
 30
0.0
 10
-20.828800000000001
 20
26.284300000000002
 30
0.0
 10
-20.828800000000001
 20
26.104299999999999
 30
0.0
 10
-21.035
 20
25.898299999999999
 30
0.0
 10
-21.2151
 20
25.898299999999999
 30
0.0
 10
-21.2151
 20
25.898299999999999
 30
0.0
 10
-21.2151
 20
25.898299999999999
 30
0.0
 10
-21.755600000000001
 20
25.898299999999999
 30
0.0
 10
-21.755600000000001
 20
25.898299999999999
 30
0.0
  0
SPLINE
  5
45
100
AcDbEntity
  8
RÚteg 1
 62
     7
100
AcDbSpline
210
0.0
220
0.0
230
1.0
 70
     1
 71
     3
 72
    48
 73
    44
 74
     0
 42
0.0000000001
 43
0.0000000001
 40
0.0
 40
0.0
 40
0.0
 40
0.0
 40
0.0909090909090909
 40
0.0909090909090909
 40
0.0909090909090909
 40
0.0909090909090909
 40
0.1818181818181818
 40
0.1818181818181818
 40
0.1818181818181818
 40
0.1818181818181818
 40
0.2727272727272727
 40
0.2727272727272727
 40
0.2727272727272727
 40
0.2727272727272727
 40
0.3636363636363637
 40
0.3636363636363637
 40
0.3636363636363637
 40
0.3636363636363637
 40
0.4545454545454546
 40
0.4545454545454546
 40
0.4545454545454546
 40
0.4545454545454546
 40
0.5454545454545455
 40
0.5454545454545455
 40
0.5454545454545455
 40
0.5454545454545455
 40
0.6363636363636365
 40
0.6363636363636365
 40
0.6363636363636365
 40
0.6363636363636365
 40
0.7272727272727274
 40
0.7272727272727274
 40
0.7272727272727274
 40
0.7272727272727274
 40
0.8181818181818183
 40
0.8181818181818183
 40
0.8181818181818183
 40
0.8181818181818183
 40
0.9090909090909093
 40
0.9090909090909093
 40
0.9090909090909093
 40
0.9090909090909093
 40
1.0
 40
1.0
 40
1.0
 40
1.0
 10
-42.762900000000002
 20
25.5121
 30
0.0
 10
-42.358400000000003
 20
26.116299999999999
 30
0.0
 10
-40.279299999999999
 20
27.056699999999999
 30
0.0
 10
-39.287500000000001
 20
27.056699999999999
 30
0.0
 10
-39.287500000000001
 20
27.056699999999999
 30
0.0
 10
-39.287500000000001
 20
27.056699999999999
 30
0.0
 10
-38.515000000000001
 20
27.056699999999999
 30
0.0
 10
-38.515000000000001
 20
27.056699999999999
 30
0.0
 10
-38.515000000000001
 20
27.056699999999999
 30
0.0
 10
-38.563299999999998
 20
26.849299999999999
 30
0.0
 10
-38.746600000000001
 20
26.535699999999999
 30
0.0
 10
-38.746600000000001
 20
26.361599999999999
 30
0.0
 10
-38.746600000000001
 20
26.361599999999999
 30
0.0
 10
-38.746600000000001
 20
26.103999999999999
 30
0.0
 10
-38.536799999999999
 20
25.821300000000001
 30
0.0
 10
-38.283200000000001
 20
25.821300000000001
 30
0.0
 10
-38.283200000000001
 20
25.821300000000001
 30
0.0
 10
-38.283200000000001
 20
25.821300000000001
 30
0.0
 10
-37.974400000000003
 20
25.821300000000001
 30
0.0
 10
-37.974400000000003
 20
25.821300000000001
 30
0.0
 10
-37.974400000000003
 20
25.821300000000001
 30
0.0
 10
-37.637
 20
25.821300000000001
 30
0.0
 10
-37.693800000000003
 20
25.9756
 30
0.0
 10
-37.356499999999997
 20
25.9756
 30
0.0
 10
-37.356499999999997
 20
25.9756
 30
0.0
 10
-37.240299999999998
 20
25.9756
 30
0.0
 10
-36.807499999999997
 20
25.410499999999999
 30
0.0
 10
-36.738700000000001
 20
25.2805
 30
0.0
 10
-36.738700000000001
 20
25.2805
 30
0.0
 10
-36.738700000000001
 20
25.2805
 30
0.0
 10
-36.830300000000001
 20
25.054200000000002
 30
0.0
 10
-36.830300000000001
 20
25.054200000000002
 30
0.0
 10
-36.830300000000001
 20
25.054200000000002
 30
0.0
 10
-37.219299999999997
 20
25.0153
 30
0.0
 10
-37.541800000000002
 20
24.717700000000001
 30
0.0
 10
-38.264600000000002
 20
24.642600000000002
 30
0.0
 10
-38.264600000000002
 20
24.642600000000002
 30
0.0
 10
-38.7532
 20
24.591799999999999
 30
0.0
 10
-39.192300000000003
 20
24.796199999999999
 30
0.0
 10
-39.6629
 20
24.982500000000002
 30
0.0
 10
-39.6629
 20
24.982500000000002
 30
0.0
 10
-40.6235
 20
25.3626
 30
0.0
 10
-41.402700000000003
 20
25.5121
 30
0.0
 10
-42.762900000000002
 20
25.5121
 30
0.0
  0
SPLINE
  5
46
100
AcDbEntity
  8
RÚteg 1
 62
     7
100
AcDbSpline
210
0.0
220
0.0
230
1.0
 70
     1
 71
     3
 72
    28
 73
    24
 74
     0
 42
0.0000000001
 43
0.0000000001
 40
0.0
 40
0.0
 40
0.0
 40
0.0
 40
0.1666666666666667
 40
0.1666666666666667
 40
0.1666666666666667
 40
0.1666666666666667
 40
0.3333333333333333
 40
0.3333333333333333
 40
0.3333333333333333
 40
0.3333333333333333
 40
0.5
 40
0.5
 40
0.5
 40
0.5
 40
0.6666666666666666
 40
0.6666666666666666
 40
0.6666666666666666
 40
0.6666666666666666
 40
0.8333333333333333
 40
0.8333333333333333
 40
0.8333333333333333
 40
0.8333333333333333
 40
1.0
 40
1.0
 40
1.0
 40
1.0
 10
-19.670300000000001
 20
26.825199999999999
 30
0.0
 10
-19.961200000000002
 20
26.825199999999999
 30
0.0
 10
-19.816600000000001
 20
26.875900000000001
 30
0.0
 10
-20.133800000000001
 20
26.9025
 30
0.0
 10
-20.133800000000001
 20
26.9025
 30
0.0
 10
-20.133800000000001
 20
26.9025
 30
0.0
 10
-20.210999999999999
 20
27.133900000000001
 30
0.0
 10
-20.210999999999999
 20
27.133900000000001
 30
0.0
 10
-20.210999999999999
 20
27.133900000000001
 30
0.0
 10
-20.072199999999999
 20
27.217199999999998
 30
0.0
 10
-19.9648
 20
27.288599999999999
 30
0.0
 10
-19.747399999999999
 20
27.288599999999999
 30
0.0
 10
-19.747399999999999
 20
27.288599999999999
 30
0.0
 10
-19.747399999999999
 20
27.288599999999999
 30
0.0
 10
-19.593
 20
27.288599999999999
 30
0.0
 10
-19.593
 20
27.288599999999999
 30
0.0
 10
-19.593
 20
27.288599999999999
 30
0.0
 10
-19.210799999999999
 20
27.288599999999999
 30
0.0
 10
-18.9008
 20
27.279299999999999
 30
0.0
 10
-18.820900000000002
 20
26.979600000000001
 30
0.0
 10
-18.820900000000002
 20
26.979600000000001
 30
0.0
 10
-19.1126
 20
26.9117
 30
0.0
 10
-19.304099999999998
 20
26.825199999999999
 30
0.0
 10
-19.670300000000001
 20
26.825199999999999
 30
0.0
  0
SPLINE
  5
47
100
AcDbEntity
  8
RÚteg 1
 62
     7
100
AcDbSpline
210
0.0
220
0.0
230
1.0
 70
     1
 71
     3
 72
    28
 73
    24
 74
     0
 42
0.0000000001
 43
0.0000000001
 40
0.0
 40
0.0
 40
0.0
 40
0.0
 40
0.1666666666666667
 40
0.1666666666666667
 40
0.1666666666666667
 40
0.1666666666666667
 40
0.3333333333333333
 40
0.3333333333333333
 40
0.3333333333333333
 40
0.3333333333333333
 40
0.5
 40
0.5
 40
0.5
 40
0.5
 40
0.6666666666666666
 40
0.6666666666666666
 40
0.6666666666666666
 40
0.6666666666666666
 40
0.8333333333333333
 40
0.8333333333333333
 40
0.8333333333333333
 40
0.8333333333333333
 40
1.0
 40
1.0
 40
1.0
 40
1.0
 10
-19.898299999999999
 20
28.197399999999998
 30
0.0
 10
-19.780000000000001
 20
28.156600000000001
 30
0.0
 10
-19.7913
 20
28.138000000000002
 30
0.0
 10
-19.593
 20
28.138000000000002
 30
0.0
 10
-19.593
 20
28.138000000000002
 30
0.0
 10
-19.593
 20
28.138000000000002
 30
0.0
 10
-19.207000000000001
 20
28.138000000000002
 30
0.0
 10
-19.207000000000001
 20
28.138000000000002
 30
0.0
 10
-19.207000000000001
 20
28.138000000000002
 30
0.0
 10
-19.2437
 20
27.803699999999999
 30
0.0
 10
-19.537299999999998
 20
27.751999999999999
 30
0.0
 10
-19.9023
 20
27.751999999999999
 30
0.0
 10
-19.9023
 20
27.751999999999999
 30
0.0
 10
-19.9023
 20
27.751999999999999
 30
0.0
 10
-20.133800000000001
 20
27.751999999999999
 30
0.0
 10
-20.133800000000001
 20
27.751999999999999
 30
0.0
 10
-20.133800000000001
 20
27.751999999999999
 30
0.0
 10
-20.447099999999999
 20
27.751999999999999
 30
0.0
 10
-20.5337
 20
27.8233
 30
0.0
 10
-20.5946
 20
28.048999999999999
 30
0.0
 10
-20.5946
 20
28.048999999999999
 30
0.0
 10
-20.5946
 20
28.048999999999999
 30
0.0
 10
-19.898299999999999
 20
28.197399999999998
 30
0.0
 10
-19.898299999999999
 20
28.197399999999998
 30
0.0
  0
SPLINE
  5
48
100
AcDbEntity
  8
RÚteg 1
 62
     7
100
AcDbSpline
210
0.0
220
0.0
230
1.0
 70
     1
 71
     3
 72
    28
 73
    24
 74
     0
 42
0.0000000001
 43
0.0000000001
 40
0.0
 40
0.0
 40
0.0
 40
0.0
 40
0.1666666666666667
 40
0.1666666666666667
 40
0.1666666666666667
 40
0.1666666666666667
 40
0.3333333333333333
 40
0.3333333333333333
 40
0.3333333333333333
 40
0.3333333333333333
 40
0.5
 40
0.5
 40
0.5
 40
0.5
 40
0.6666666666666666
 40
0.6666666666666666
 40
0.6666666666666666
 40
0.6666666666666666
 40
0.8333333333333333
 40
0.8333333333333333
 40
0.8333333333333333
 40
0.8333333333333333
 40
1.0
 40
1.0
 40
1.0
 40
1.0
 10
-22.914300000000001
 20
28.060700000000001
 30
0.0
 10
-22.914300000000001
 20
28.379200000000001
 30
0.0
 10
-22.326499999999999
 20
28.446899999999999
 30
0.0
 10
-21.987400000000001
 20
28.446899999999999
 30
0.0
 10
-21.987400000000001
 20
28.446899999999999
 30
0.0
 10
-21.987400000000001
 20
28.446899999999999
 30
0.0
 10
-21.755600000000001
 20
28.446899999999999
 30
0.0
 10
-21.755600000000001
 20
28.446899999999999
 30
0.0
 10
-21.755600000000001
 20
28.446899999999999
 30
0.0
 10
-21.499099999999999
 20
28.446899999999999
 30
0.0
 10
-21.384499999999999
 20
28.157699999999998
 30
0.0
 10
-21.292200000000001
 20
27.983499999999999
 30
0.0
 10
-21.292200000000001
 20
27.983499999999999
 30
0.0
 10
-21.441600000000001
 20
27.6723
 30
0.0
 10
-21.346299999999999
 20
27.3658
 30
0.0
 10
-21.9102
 20
27.3658
 30
0.0
 10
-21.9102
 20
27.3658
 30
0.0
 10
-21.9102
 20
27.3658
 30
0.0
 10
-22.296299999999999
 20
27.3658
 30
0.0
 10
-22.296299999999999
 20
27.3658
 30
0.0
 10
-22.296299999999999
 20
27.3658
 30
0.0
 10
-22.511600000000001
 20
27.3658
 30
0.0
 10
-22.914300000000001
 20
27.9099
 30
0.0
 10
-22.914300000000001
 20
28.060700000000001
 30
0.0
  0
SPLINE
  5
49
100
AcDbEntity
  8
RÚteg 1
 62
     7
100
AcDbSpline
210
0.0
220
0.0
230
1.0
 70
     1
 71
     3
 72
    16
 73
    12
 74
     0
 42
0.0000000001
 43
0.0000000001
 40
0.0
 40
0.0
 40
0.0
 40
0.0
 40
0.3333333333333333
 40
0.3333333333333333
 40
0.3333333333333333
 40
0.3333333333333333
 40
0.6666666666666666
 40
0.6666666666666666
 40
0.6666666666666666
 40
0.6666666666666666
 40
1.0
 40
1.0
 40
1.0
 40
1.0
 10
-21.523800000000001
 20
28.833100000000002
 30
0.0
 10
-21.183900000000001
 20
29.341100000000001
 30
0.0
 10
-20.291599999999999
 20
29.056999999999999
 30
0.0
 10
-19.8249
 20
28.833100000000002
 30
0.0
 10
-19.8249
 20
28.833100000000002
 30
0.0
 10
-19.8249
 20
28.833100000000002
 30
0.0
 10
-19.916399999999999
 20
28.6069
 30
0.0
 10
-19.916399999999999
 20
28.6069
 30
0.0
 10
-19.916399999999999
 20
28.6069
 30
0.0
 10
-20.779499999999999
 20
28.601500000000001
 30
0.0
 10
-20.7818
 20
28.4405
 30
0.0
 10
-21.523800000000001
 20
28.833100000000002
 30
0.0
  0
SPLINE
  5
4A
100
AcDbEntity
  8
RÚteg 1
 62
     7
100
AcDbSpline
210
0.0
220
0.0
230
1.0
 70
     1
 71
     3
 72
    24
 73
    20
 74
     0
 42
0.0000000001
 43
0.0000000001
 40
0.0
 40
0.0
 40
0.0
 40
0.0
 40
0.2
 40
0.2
 40
0.2
 40
0.2
 40
0.4
 40
0.4
 40
0.4
 40
0.4
 40
0.6000000000000001
 40
0.6000000000000001
 40
0.6000000000000001
 40
0.6000000000000001
 40
0.8
 40
0.8
 40
0.8
 40
0.8
 40
1.0
 40
1.0
 40
1.0
 40
1.0
 10
-23.9954
 20
28.678799999999999
 30
0.0
 10
-23.959399999999999
 20
29.1126
 30
0.0
 10
-23.616199999999999
 20
29.759799999999998
 30
0.0
 10
-23.145700000000001
 20
29.759799999999998
 30
0.0
 10
-23.145700000000001
 20
29.759799999999998
 30
0.0
 10
-22.8443
 20
29.759799999999998
 30
0.0
 10
-22.450700000000001
 20
29.465299999999999
 30
0.0
 10
-22.450700000000001
 20
29.219100000000001
 30
0.0
 10
-22.450700000000001
 20
29.219100000000001
 30
0.0
 10
-22.450700000000001
 20
29.219100000000001
 30
0.0
 10
-22.450700000000001
 20
29.142199999999999
 30
0.0
 10
-22.450700000000001
 20
29.142199999999999
 30
0.0
 10
-22.450700000000001
 20
29.142199999999999
 30
0.0
 10
-22.450700000000001
 20
28.720199999999998
 30
0.0
 10
-23.0242
 20
28.369599999999998
 30
0.0
 10
-23.3004
 20
28.369599999999998
 30
0.0
 10
-23.3004
 20
28.369599999999998
 30
0.0
 10
-23.5398
 20
28.369599999999998
 30
0.0
 10
-23.657
 20
28.599699999999999
 30
0.0
 10
-23.9954
 20
28.678799999999999
 30
0.0
  0
SPLINE
  5
4B
100
AcDbEntity
  8
RÚteg 1
 62
     7
100
AcDbSpline
210
0.0
220
0.0
230
1.0
 70
     1
 71
     3
 72
    20
 73
    16
 74
     0
 42
0.0000000001
 43
0.0000000001
 40
0.0
 40
0.0
 40
0.0
 40
0.0
 40
0.25
 40
0.25
 40
0.25
 40
0.25
 40
0.5
 40
0.5
 40
0.5
 40
0.5
 40
0.75
 40
0.75
 40
0.75
 40
0.75
 40
1.0
 40
1.0
 40
1.0
 40
1.0
 10
-9.0943000000000005
 20
30.964400000000001
 30
0.0
 10
-9.0943000000000005
 20
30.964400000000001
 30
0.0
 10
-9.1668000000000003
 20
30.9956
 30
0.0
 10
-9.1668000000000003
 20
30.9956
 30
0.0
 10
-9.1668000000000003
 20
30.9956
 30
0.0
 10
-9.1668000000000003
 20
30.9956
 30
0.0
 10
-9.0124999999999993
 20
30.9956
 30
0.0
 10
-9.0124999999999993
 20
30.9956
 30
0.0
 10
-9.0124999999999993
 20
30.9956
 30
0.0
 10
-9.0124999999999993
 20
30.180099999999999
 30
0.0
 10
-9.7481000000000009
 20
28.115200000000002
 30
0.0
 10
-10.356400000000001
 20
28.041
 30
0.0
 10
-10.356400000000001
 20
28.041
 30
0.0
 10
-10.356400000000001
 20
28.041
 30
0.0
 10
-9.0943000000000005
 20
30.964400000000001
 30
0.0
 10
-9.0943000000000005
 20
30.964400000000001
 30
0.0
  0
SPLINE
  5
4C
100
AcDbEntity
  8
RÚteg 1
 62
     7
100
AcDbSpline
210
0.0
220
0.0
230
1.0
 70
     1
 71
     3
 72
    56
 73
    52
 74
     0
 42
0.0000000001
 43
0.0000000001
 40
0.0
 40
0.0
 40
0.0
 40
0.0
 40
0.0769230769230769
 40
0.0769230769230769
 40
0.0769230769230769
 40
0.0769230769230769
 40
0.1538461538461539
 40
0.1538461538461539
 40
0.1538461538461539
 40
0.1538461538461539
 40
0.2307692307692308
 40
0.2307692307692308
 40
0.2307692307692308
 40
0.2307692307692308
 40
0.3076923076923077
 40
0.3076923076923077
 40
0.3076923076923077
 40
0.3076923076923077
 40
0.3846153846153846
 40
0.3846153846153846
 40
0.3846153846153846
 40
0.3846153846153846
 40
0.4615384615384616
 40
0.4615384615384616
 40
0.4615384615384616
 40
0.4615384615384616
 40
0.5384615384615386
 40
0.5384615384615386
 40
0.5384615384615386
 40
0.5384615384615386
 40
0.6153846153846154
 40
0.6153846153846154
 40
0.6153846153846154
 40
0.6153846153846154
 40
0.6923076923076923
 40
0.6923076923076923
 40
0.6923076923076923
 40
0.6923076923076923
 40
0.7692307692307692
 40
0.7692307692307692
 40
0.7692307692307692
 40
0.7692307692307692
 40
0.846153846153846
 40
0.846153846153846
 40
0.846153846153846
 40
0.846153846153846
 40
0.9230769230769229
 40
0.9230769230769229
 40
0.9230769230769229
 40
0.9230769230769229
 40
1.0
 40
1.0
 40
1.0
 40
1.0
 10
-25.539999999999999
 20
29.219100000000001
 30
0.0
 10
-25.539999999999999
 20
30.122800000000002
 30
0.0
 10
-23.927600000000002
 20
31.073
 30
0.0
 10
-22.991399999999999
 20
31.073
 30
0.0
 10
-22.991399999999999
 20
31.073
 30
0.0
 10
-22.991399999999999
 20
31.073
 30
0.0
 10
-22.682300000000001
 20
31.073
 30
0.0
 10
-22.682300000000001
 20
31.073
 30
0.0
 10
-22.682300000000001
 20
31.073
 30
0.0
 10
-21.7392
 20
31.073
 30
0.0
 10
-19.513100000000001
 20
30.673100000000002
 30
0.0
 10
-19.438700000000001
 20
29.991499999999998
 30
0.0
 10
-19.438700000000001
 20
29.991499999999998
 30
0.0
 10
-20.299800000000001
 20
30.010899999999999
 30
0.0
 10
-21.3581
 20
30.609999999999999
 30
0.0
 10
-22.482399999999998
 20
30.488900000000001
 30
0.0
 10
-22.482399999999998
 20
30.488900000000001
 30
0.0
 10
-23.103100000000001
 20
30.4223
 30
0.0
 10
-24.767700000000001
 20
30.18
 30
0.0
 10
-24.767700000000001
 20
29.373799999999999
 30
0.0
 10
-24.767700000000001
 20
29.373799999999999
 30
0.0
 10
-24.767700000000001
 20
29.373799999999999
 30
0.0
 10
-24.767700000000001
 20
29.142199999999999
 30
0.0
 10
-24.767700000000001
 20
29.142199999999999
 30
0.0
 10
-24.767700000000001
 20
29.142199999999999
 30
0.0
 10
-24.767700000000001
 20
28.8459
 30
0.0
 10
-23.988800000000001
 20
28.053999999999998
 30
0.0
 10
-23.751300000000001
 20
27.532399999999999
 30
0.0
 10
-23.751300000000001
 20
27.532399999999999
 30
0.0
 10
-23.587399999999999
 20
27.1722
 30
0.0
 10
-23.1157
 20
26.162600000000001
 30
0.0
 10
-22.885300000000001
 20
25.849900000000002
 30
0.0
 10
-22.885300000000001
 20
25.849900000000002
 30
0.0
 10
-22.694800000000001
 20
25.5916
 30
0.0
 10
-21.797000000000001
 20
24.860199999999999
 30
0.0
 10
-21.4876
 20
24.698799999999999
 30
0.0
 10
-21.4876
 20
24.698799999999999
 30
0.0
 10
-21.115600000000001
 20
24.504799999999999
 30
0.0
 10
-19.9495
 20
24.169799999999999
 30
0.0
 10
-19.9023
 20
23.735800000000001
 30
0.0
 10
-19.9023
 20
23.735800000000001
 30
0.0
 10
-21.2287
 20
23.735800000000001
 30
0.0
 10
-22.912400000000002
 20
24.9085
 30
0.0
 10
-23.415099999999999
 20
25.7836
 30
0.0
 10
-23.415099999999999
 20
25.7836
 30
0.0
 10
-23.669499999999999
 20
26.226500000000001
 30
0.0
 10
-24.128900000000002
 20
27.344999999999999
 30
0.0
 10
-24.371500000000001
 20
27.607800000000001
 30
0.0
 10
-24.371500000000001
 20
27.607800000000001
 30
0.0
 10
-24.9085
 20
28.1904
 30
0.0
 10
-25.539999999999999
 20
28.0488
 30
0.0
 10
-25.539999999999999
 20
29.219100000000001
 30
0.0
  0
SPLINE
  5
4D
100
AcDbEntity
  8
RÚteg 1
 62
     7
100
AcDbSpline
210
0.0
220
0.0
230
1.0
 70
     1
 71
     3
 72
    16
 73
    12
 74
     0
 42
0.0000000001
 43
0.0000000001
 40
0.0
 40
0.0
 40
0.0
 40
0.0
 40
0.3333333333333333
 40
0.3333333333333333
 40
0.3333333333333333
 40
0.3333333333333333
 40
0.6666666666666666
 40
0.6666666666666666
 40
0.6666666666666666
 40
0.6666666666666666
 40
1.0
 40
1.0
 40
1.0
 40
1.0
 10
-1.8297000000000001
 20
28.446899999999999
 30
0.0
 10
-2.9380000000000002
 20
28.539200000000001
 30
0.0
 10
-6.0944000000000003
 20
30.125399999999999
 30
0.0
 10
-5.8457999999999997
 20
30.686699999999998
 30
0.0
 10
-5.8457999999999997
 20
30.686699999999998
 30
0.0
 10
-5.6767000000000003
 20
30.766500000000001
 30
0.0
 10
-2.6031
 20
28.665900000000001
 30
0.0
 10
-1.8297000000000001
 20
28.601500000000001
 30
0.0
 10
-1.8297000000000001
 20
28.601500000000001
 30
0.0
 10
-1.8297000000000001
 20
28.601500000000001
 30
0.0
 10
-1.8297000000000001
 20
28.446899999999999
 30
0.0
 10
-1.8297000000000001
 20
28.446899999999999
 30
0.0
  0
SPLINE
  5
4E
100
AcDbEntity
  8
RÚteg 1
 62
     7
100
AcDbSpline
210
0.0
220
0.0
230
1.0
 70
     1
 71
     3
 72
    44
 73
    40
 74
     0
 42
0.0000000001
 43
0.0000000001
 40
0.0
 40
0.0
 40
0.0
 40
0.0
 40
0.1
 40
0.1
 40
0.1
 40
0.1
 40
0.2
 40
0.2
 40
0.2
 40
0.2
 40
0.3
 40
0.3
 40
0.3
 40
0.3
 40
0.4
 40
0.4
 40
0.4
 40
0.4
 40
0.5
 40
0.5
 40
0.5
 40
0.5
 40
0.6
 40
0.6
 40
0.6
 40
0.6
 40
0.7
 40
0.7
 40
0.7
 40
0.7
 40
0.7999999999999999
 40
0.7999999999999999
 40
0.7999999999999999
 40
0.7999999999999999
 40
0.8999999999999999
 40
0.8999999999999999
 40
0.8999999999999999
 40
0.8999999999999999
 40
1.0
 40
1.0
 40
1.0
 40
1.0
 10
-29.7879
 20
28.678799999999999
 30
0.0
 10
-29.7879
 20
30.104600000000001
 30
0.0
 10
-29.206399999999999
 20
30.813400000000001
 30
0.0
 10
-28.367100000000001
 20
31.4283
 30
0.0
 10
-28.367100000000001
 20
31.4283
 30
0.0
 10
-27.7593
 20
31.873200000000001
 30
0.0
 10
-26.317799999999998
 20
32.540199999999999
 30
0.0
 10
-25.308499999999999
 20
32.540199999999999
 30
0.0
 10
-25.308499999999999
 20
32.540199999999999
 30
0.0
 10
-25.308499999999999
 20
32.540199999999999
 30
0.0
 10
-25.231000000000002
 20
32.540199999999999
 30
0.0
 10
-25.231000000000002
 20
32.540199999999999
 30
0.0
 10
-25.231000000000002
 20
32.540199999999999
 30
0.0
 10
-25.017299999999999
 20
32.540199999999999
 30
0.0
 10
-25.045400000000001
 20
32.480899999999998
 30
0.0
 10
-24.999199999999998
 20
32.308500000000002
 30
0.0
 10
-24.999199999999998
 20
32.308500000000002
 30
0.0
 10
-25.758400000000002
 20
32.245399999999997
 30
0.0
 10
-26.547000000000001
 20
31.638000000000002
 30
0.0
 10
-26.9877
 20
31.207699999999999
 30
0.0
 10
-26.9877
 20
31.207699999999999
 30
0.0
 10
-27.6387
 20
30.571899999999999
 30
0.0
 10
-27.838899999999999
 20
29.613199999999999
 30
0.0
 10
-28.166
 20
29.373799999999999
 30
0.0
 10
-28.166
 20
29.373799999999999
 30
0.0
 10
-28.261199999999999
 20
29.573
 30
0.0
 10
-28.4436
 20
30.068999999999999
 30
0.0
 10
-28.706600000000002
 20
30.068999999999999
 30
0.0
 10
-28.706600000000002
 20
30.068999999999999
 30
0.0
 10
-28.706600000000002
 20
30.068999999999999
 30
0.0
 10
-28.8611
 20
30.068999999999999
 30
0.0
 10
-28.8611
 20
30.068999999999999
 30
0.0
 10
-28.8611
 20
30.068999999999999
 30
0.0
 10
-29.2758
 20
30.068999999999999
 30
0.0
 10
-29.401800000000001
 20
29.3766
 30
0.0
 10
-29.401800000000001
 20
28.910299999999999
 30
0.0
 10
-29.401800000000001
 20
28.910299999999999
 30
0.0
 10
-29.401800000000001
 20
28.910299999999999
 30
0.0
 10
-29.7879
 20
28.678799999999999
 30
0.0
 10
-29.7879
 20
28.678799999999999
 30
0.0
  0
SPLINE
  5
4F
100
AcDbEntity
  8
RÚteg 1
 62
     7
100
AcDbSpline
210
0.0
220
0.0
230
1.0
 70
     1
 71
     3
 72
    20
 73
    16
 74
     0
 42
0.0000000001
 43
0.0000000001
 40
0.0
 40
0.0
 40
0.0
 40
0.0
 40
0.25
 40
0.25
 40
0.25
 40
0.25
 40
0.5
 40
0.5
 40
0.5
 40
0.5
 40
0.75
 40
0.75
 40
0.75
 40
0.75
 40
1.0
 40
1.0
 40
1.0
 40
1.0
 10
-13.6463
 20
31.4589
 30
0.0
 10
-13.5906
 20
31.6675
 30
0.0
 10
-12.978899999999999
 20
32.903700000000001
 30
0.0
 10
-12.8276
 20
33.188899999999997
 30
0.0
 10
-12.8276
 20
33.188899999999997
 30
0.0
 10
-12.583
 20
33.649500000000003
 30
0.0
 10
-12.4297
 20
34.748899999999999
 30
0.0
 10
-12.0245
 20
34.857199999999999
 30
0.0
 10
-12.0245
 20
34.857199999999999
 30
0.0
 10
-12.0245
 20
34.857199999999999
 30
0.0
 10
-12.0245
 20
34.4711
 30
0.0
 10
-12.0245
 20
34.4711
 30
0.0
 10
-12.0245
 20
34.4711
 30
0.0
 10
-12.0245
 20
33.631599999999999
 30
0.0
 10
-12.991300000000001
 20
31.530799999999999
 30
0.0
 10
-13.6463
 20
31.4589
 30
0.0
  0
SPLINE
  5
50
100
AcDbEntity
  8
RÚteg 1
 62
     7
100
AcDbSpline
210
0.0
220
0.0
230
1.0
 70
     1
 71
     3
 72
    20
 73
    16
 74
     0
 42
0.0000000001
 43
0.0000000001
 40
0.0
 40
0.0
 40
0.0
 40
0.0
 40
0.25
 40
0.25
 40
0.25
 40
0.25
 40
0.5
 40
0.5
 40
0.5
 40
0.5
 40
0.75
 40
0.75
 40
0.75
 40
0.75
 40
1.0
 40
1.0
 40
1.0
 40
1.0
 10
-3.8414999999999999
 20
34.408499999999997
 30
0.0
 10
-4.1041999999999996
 20
33.996299999999998
 30
0.0
 10
-5.5340999999999996
 20
33.467100000000002
 30
0.0
 10
-6.2320000000000002
 20
33.467100000000002
 30
0.0
 10
-6.2320000000000002
 20
33.467100000000002
 30
0.0
 10
-6.2320000000000002
 20
33.467100000000002
 30
0.0
 10
-6.6951000000000001
 20
33.467100000000002
 30
0.0
 10
-6.6951000000000001
 20
33.467100000000002
 30
0.0
 10
-6.6951000000000001
 20
33.467100000000002
 30
0.0
 10
-6.9039000000000001
 20
33.467100000000002
 30
0.0
 10
-6.9082999999999997
 20
33.503999999999998
 30
0.0
 10
-7.0873999999999997
 20
33.566899999999997
 30
0.0
 10
-7.0873999999999997
 20
33.566899999999997
 30
0.0
 10
-7.0873999999999997
 20
33.566899999999997
 30
0.0
 10
-3.8414999999999999
 20
34.408499999999997
 30
0.0
 10
-3.8414999999999999
 20
34.408499999999997
 30
0.0
  0
SPLINE
  5
51
100
AcDbEntity
  8
RÚteg 1
 62
     7
100
AcDbSpline
210
0.0
220
0.0
230
1.0
 70
     1
 71
     3
 72
    44
 73
    40
 74
     0
 42
0.0000000001
 43
0.0000000001
 40
0.0
 40
0.0
 40
0.0
 40
0.0
 40
0.1
 40
0.1
 40
0.1
 40
0.1
 40
0.2
 40
0.2
 40
0.2
 40
0.2
 40
0.3
 40
0.3
 40
0.3
 40
0.3
 40
0.4
 40
0.4
 40
0.4
 40
0.4
 40
0.5
 40
0.5
 40
0.5
 40
0.5
 40
0.6
 40
0.6
 40
0.6
 40
0.6
 40
0.7
 40
0.7
 40
0.7
 40
0.7
 40
0.7999999999999999
 40
0.7999999999999999
 40
0.7999999999999999
 40
0.7999999999999999
 40
0.8999999999999999
 40
0.8999999999999999
 40
0.8999999999999999
 40
0.8999999999999999
 40
1.0
 40
1.0
 40
1.0
 40
1.0
 10
-34.344299999999997
 20
28.138000000000002
 30
0.0
 10
-34.678400000000003
 20
29.572600000000001
 30
0.0
 10
-34.707299999999996
 20
30.933
 30
0.0
 10
-34.452599999999997
 20
32.417000000000002
 30
0.0
 10
-34.452599999999997
 20
32.417000000000002
 30
0.0
 10
-34.3018
 20
33.296799999999998
 30
0.0
 10
-33.808100000000003
 20
35.861899999999999
 30
0.0
 10
-33.109000000000002
 20
35.938499999999998
 30
0.0
 10
-33.109000000000002
 20
35.938499999999998
 30
0.0
 10
-33.2455
 20
35.3523
 30
0.0
 10
-33.427799999999998
 20
35.213500000000003
 30
0.0
 10
-33.600499999999997
 20
34.4223
 30
0.0
 10
-33.600499999999997
 20
34.4223
 30
0.0
 10
-33.712600000000002
 20
33.909799999999997
 30
0.0
 10
-33.871499999999997
 20
33.335799999999999
 30
0.0
 10
-33.958500000000001
 20
32.772399999999998
 30
0.0
 10
-33.958500000000001
 20
32.772399999999998
 30
0.0
 10
-34.126800000000003
 20
31.685300000000002
 30
0.0
 10
-34.2224
 20
30.166
 30
0.0
 10
-34.190100000000001
 20
29.373799999999999
 30
0.0
 10
-34.190100000000001
 20
29.373799999999999
 30
0.0
 10
-34.190100000000001
 20
29.373799999999999
 30
0.0
 10
-34.207900000000002
 20
28.909600000000001
 30
0.0
 10
-34.207900000000002
 20
28.909600000000001
 30
0.0
 10
-34.207900000000002
 20
28.909600000000001
 30
0.0
 10
-34.207900000000002
 20
28.909600000000001
 30
0.0
 10
-34.190100000000001
 20
28.833100000000002
 30
0.0
 10
-34.190100000000001
 20
28.833100000000002
 30
0.0
 10
-34.190100000000001
 20
28.833100000000002
 30
0.0
 10
-34.190100000000001
 20
28.833100000000002
 30
0.0
 10
-34.209200000000003
 20
28.446899999999999
 30
0.0
 10
-34.209200000000003
 20
28.446899999999999
 30
0.0
 10
-34.209200000000003
 20
28.446899999999999
 30
0.0
 10
-34.209200000000003
 20
28.446899999999999
 30
0.0
 10
-34.190100000000001
 20
28.138000000000002
 30
0.0
 10
-34.190100000000001
 20
28.138000000000002
 30
0.0
 10
-34.190100000000001
 20
28.138000000000002
 30
0.0
 10
-34.190100000000001
 20
28.138000000000002
 30
0.0
 10
-34.344299999999997
 20
28.138000000000002
 30
0.0
 10
-34.344299999999997
 20
28.138000000000002
 30
0.0
  0
SPLINE
  5
52
100
AcDbEntity
  8
RÚteg 1
 62
     7
100
AcDbSpline
210
0.0
220
0.0
230
1.0
 70
     1
 71
     3
 72
    24
 73
    20
 74
     0
 42
0.0000000001
 43
0.0000000001
 40
0.0
 40
0.0
 40
0.0
 40
0.0
 40
0.2
 40
0.2
 40
0.2
 40
0.2
 40
0.4
 40
0.4
 40
0.4
 40
0.4
 40
0.6000000000000001
 40
0.6000000000000001
 40
0.6000000000000001
 40
0.6000000000000001
 40
0.8
 40
0.8
 40
0.8
 40
0.8
 40
1.0
 40
1.0
 40
1.0
 40
1.0
 10
-8.9352999999999998
 20
37.019599999999997
 30
0.0
 10
-8.8413000000000004
 20
37.372799999999998
 30
0.0
 10
-7.7850000000000001
 20
37.398800000000001
 30
0.0
 10
-7.4489999999999998
 20
37.464199999999998
 30
0.0
 10
-7.4489999999999998
 20
37.464199999999998
 30
0.0
 10
-6.8827999999999996
 20
37.5747
 30
0.0
 10
-6.4565000000000001
 20
37.825099999999999
 30
0.0
 10
-5.9229000000000003
 20
37.869100000000003
 30
0.0
 10
-5.9229000000000003
 20
37.869100000000003
 30
0.0
 10
-5.9229000000000003
 20
37.869100000000003
 30
0.0
 10
-5.9229000000000003
 20
37.7149
 30
0.0
 10
-5.9229000000000003
 20
37.7149
 30
0.0
 10
-5.9229000000000003
 20
37.7149
 30
0.0
 10
-6.3857999999999997
 20
37.606900000000003
 30
0.0
 10
-6.6239999999999997
 20
37.344499999999996
 30
0.0
 10
-7.2667999999999999
 20
37.204799999999999
 30
0.0
 10
-7.2667999999999999
 20
37.204799999999999
 30
0.0
 10
-7.8293999999999997
 20
37.082900000000002
 30
0.0
 10
-8.2817000000000007
 20
37.019599999999997
 30
0.0
 10
-8.9352999999999998
 20
37.019599999999997
 30
0.0
  0
SPLINE
  5
53
100
AcDbEntity
  8
RÚteg 1
 62
     7
100
AcDbSpline
210
0.0
220
0.0
230
1.0
 70
     1
 71
     3
 72
    20
 73
    16
 74
     0
 42
0.0000000001
 43
0.0000000001
 40
0.0
 40
0.0
 40
0.0
 40
0.0
 40
0.25
 40
0.25
 40
0.25
 40
0.25
 40
0.5
 40
0.5
 40
0.5
 40
0.5
 40
0.75
 40
0.75
 40
0.75
 40
0.75
 40
1.0
 40
1.0
 40
1.0
 40
1.0
 10
-28.938300000000002
 20
38.796100000000003
 30
0.0
 10
-28.938300000000002
 20
38.796100000000003
 30
0.0
 10
-29.0183
 20
38.760599999999997
 30
0.0
 10
-29.0183
 20
38.760599999999997
 30
0.0
 10
-29.0183
 20
38.760599999999997
 30
0.0
 10
-29.0183
 20
38.760599999999997
 30
0.0
 10
-27.5901
 20
35.5336
 30
0.0
 10
-27.5901
 20
35.5336
 30
0.0
 10
-27.5901
 20
35.5336
 30
0.0
 10
-27.5901
 20
35.5336
 30
0.0
 10
-27.548100000000002
 20
35.243200000000002
 30
0.0
 10
-27.548100000000002
 20
35.243200000000002
 30
0.0
 10
-27.548100000000002
 20
35.243200000000002
 30
0.0
 10
-28.233799999999999
 20
35.606299999999997
 30
0.0
 10
-29.7395
 20
38.582299999999996
 30
0.0
 10
-28.938300000000002
 20
38.796100000000003
 30
0.0
  0
SPLINE
  5
54
100
AcDbEntity
  8
RÚteg 1
 62
     7
100
AcDbSpline
210
0.0
220
0.0
230
1.0
 70
     1
 71
     3
 72
    16
 73
    12
 74
     0
 42
0.0000000001
 43
0.0000000001
 40
0.0
 40
0.0
 40
0.0
 40
0.0
 40
0.3333333333333333
 40
0.3333333333333333
 40
0.3333333333333333
 40
0.3333333333333333
 40
0.6666666666666666
 40
0.6666666666666666
 40
0.6666666666666666
 40
0.6666666666666666
 40
1.0
 40
1.0
 40
1.0
 40
1.0
 10
-15.3453
 20
35.475200000000001
 30
0.0
 10
-15.4207
 20
35.657200000000003
 30
0.0
 10
-14.1098
 20
38.121499999999997
 30
0.0
 10
-14.1098
 20
39.104999999999997
 30
0.0
 10
-14.1098
 20
39.104999999999997
 30
0.0
 10
-14.1098
 20
39.104999999999997
 30
0.0
 10
-13.877800000000001
 20
39.104999999999997
 30
0.0
 10
-13.877800000000001
 20
39.104999999999997
 30
0.0
 10
-13.877800000000001
 20
39.104999999999997
 30
0.0
 10
-13.877800000000001
 20
37.849499999999999
 30
0.0
 10
-14.639200000000001
 20
35.948099999999997
 30
0.0
 10
-15.3453
 20
35.475200000000001
 30
0.0
  0
SPLINE
  5
55
100
AcDbEntity
  8
RÚteg 1
 62
     7
100
AcDbSpline
210
0.0
220
0.0
230
1.0
 70
     1
 71
     3
 72
    20
 73
    16
 74
     0
 42
0.0000000001
 43
0.0000000001
 40
0.0
 40
0.0
 40
0.0
 40
0.0
 40
0.25
 40
0.25
 40
0.25
 40
0.25
 40
0.5
 40
0.5
 40
0.5
 40
0.5
 40
0.75
 40
0.75
 40
0.75
 40
0.75
 40
1.0
 40
1.0
 40
1.0
 40
1.0
 10
-18.125399999999999
 20
38.7941
 30
0.0
 10
-18.5108
 20
38.220999999999997
 30
0.0
 10
-20.045200000000001
 20
37.946599999999997
 30
0.0
 10
-20.828800000000001
 20
37.946599999999997
 30
0.0
 10
-20.828800000000001
 20
37.946599999999997
 30
0.0
 10
-21.119900000000001
 20
37.946599999999997
 30
0.0
 10
-20.974799999999998
 20
37.997500000000002
 30
0.0
 10
-21.292200000000001
 20
38.023800000000001
 30
0.0
 10
-21.292200000000001
 20
38.023800000000001
 30
0.0
 10
-21.292200000000001
 20
38.023800000000001
 30
0.0
 10
-21.2835
 20
38.208799999999997
 30
0.0
 10
-21.2835
 20
38.208799999999997
 30
0.0
 10
-21.2835
 20
38.208799999999997
 30
0.0
 10
-21.2835
 20
38.208799999999997
 30
0.0
 10
-18.125399999999999
 20
38.7941
 30
0.0
 10
-18.125399999999999
 20
38.7941
 30
0.0
  0
SPLINE
  5
56
100
AcDbEntity
  8
RÚteg 1
 62
     7
100
AcDbSpline
210
0.0
220
0.0
230
1.0
 70
     1
 71
     3
 72
   180
 73
   176
 74
     0
 42
0.0000000001
 43
0.0000000001
 40
0.0
 40
0.0
 40
0.0
 40
0.0
 40
0.0227272727272727
 40
0.0227272727272727
 40
0.0227272727272727
 40
0.0227272727272727
 40
0.0454545454545455
 40
0.0454545454545455
 40
0.0454545454545455
 40
0.0454545454545455
 40
0.0681818181818182
 40
0.0681818181818182
 40
0.0681818181818182
 40
0.0681818181818182
 40
0.0909090909090909
 40
0.0909090909090909
 40
0.0909090909090909
 40
0.0909090909090909
 40
0.1136363636363637
 40
0.1136363636363637
 40
0.1136363636363637
 40
0.1136363636363637
 40
0.1363636363636364
 40
0.1363636363636364
 40
0.1363636363636364
 40
0.1363636363636364
 40
0.1590909090909091
 40
0.1590909090909091
 40
0.1590909090909091
 40
0.1590909090909091
 40
0.1818181818181819
 40
0.1818181818181819
 40
0.1818181818181819
 40
0.1818181818181819
 40
0.2045454545454546
 40
0.2045454545454546
 40
0.2045454545454546
 40
0.2045454545454546
 40
0.2272727272727273
 40
0.2272727272727273
 40
0.2272727272727273
 40
0.2272727272727273
 40
0.2500000000000001
 40
0.2500000000000001
 40
0.2500000000000001
 40
0.2500000000000001
 40
0.2727272727272728
 40
0.2727272727272728
 40
0.2727272727272728
 40
0.2727272727272728
 40
0.2954545454545455
 40
0.2954545454545455
 40
0.2954545454545455
 40
0.2954545454545455
 40
0.3181818181818182
 40
0.3181818181818182
 40
0.3181818181818182
 40
0.3181818181818182
 40
0.3409090909090909
 40
0.3409090909090909
 40
0.3409090909090909
 40
0.3409090909090909
 40
0.3636363636363636
 40
0.3636363636363636
 40
0.3636363636363636
 40
0.3636363636363636
 40
0.3863636363636363
 40
0.3863636363636363
 40
0.3863636363636363
 40
0.3863636363636363
 40
0.409090909090909
 40
0.409090909090909
 40
0.409090909090909
 40
0.409090909090909
 40
0.4318181818181817
 40
0.4318181818181817
 40
0.4318181818181817
 40
0.4318181818181817
 40
0.4545454545454544
 40
0.4545454545454544
 40
0.4545454545454544
 40
0.4545454545454544
 40
0.4772727272727271
 40
0.4772727272727271
 40
0.4772727272727271
 40
0.4772727272727271
 40
0.4999999999999998
 40
0.4999999999999998
 40
0.4999999999999998
 40
0.4999999999999998
 40
0.5227272727272726
 40
0.5227272727272726
 40
0.5227272727272726
 40
0.5227272727272726
 40
0.5454545454545453
 40
0.5454545454545453
 40
0.5454545454545453
 40
0.5454545454545453
 40
0.568181818181818
 40
0.568181818181818
 40
0.568181818181818
 40
0.568181818181818
 40
0.5909090909090907
 40
0.5909090909090907
 40
0.5909090909090907
 40
0.5909090909090907
 40
0.6136363636363634
 40
0.6136363636363634
 40
0.6136363636363634
 40
0.6136363636363634
 40
0.6363636363636361
 40
0.6363636363636361
 40
0.6363636363636361
 40
0.6363636363636361
 40
0.6590909090909088
 40
0.6590909090909088
 40
0.6590909090909088
 40
0.6590909090909088
 40
0.6818181818181816
 40
0.6818181818181816
 40
0.6818181818181816
 40
0.6818181818181816
 40
0.7045454545454543
 40
0.7045454545454543
 40
0.7045454545454543
 40
0.7045454545454543
 40
0.727272727272727
 40
0.727272727272727
 40
0.727272727272727
 40
0.727272727272727
 40
0.7499999999999997
 40
0.7499999999999997
 40
0.7499999999999997
 40
0.7499999999999997
 40
0.7727272727272724
 40
0.7727272727272724
 40
0.7727272727272724
 40
0.7727272727272724
 40
0.7954545454545451
 40
0.7954545454545451
 40
0.7954545454545451
 40
0.7954545454545451
 40
0.8181818181818178
 40
0.8181818181818178
 40
0.8181818181818178
 40
0.8181818181818178
 40
0.8409090909090905
 40
0.8409090909090905
 40
0.8409090909090905
 40
0.8409090909090905
 40
0.8636363636363632
 40
0.8636363636363632
 40
0.8636363636363632
 40
0.8636363636363632
 40
0.8863636363636359
 40
0.8863636363636359
 40
0.8863636363636359
 40
0.8863636363636359
 40
0.9090909090909086
 40
0.9090909090909086
 40
0.9090909090909086
 40
0.9090909090909086
 40
0.9318181818181813
 40
0.9318181818181813
 40
0.9318181818181813
 40
0.9318181818181813
 40
0.954545454545454
 40
0.954545454545454
 40
0.954545454545454
 40
0.954545454545454
 40
0.9772727272727267
 40
0.9772727272727267
 40
0.9772727272727267
 40
0.9772727272727267
 40
1.0
 40
1.0
 40
1.0
 40
1.0
 10
-31.950299999999999
 20
38.564300000000003
 30
0.0
 10
-31.538
 20
38.840499999999999
 30
0.0
 10
-30.473700000000001
 20
41.046399999999998
 30
0.0
 10
-29.864999999999998
 20
41.113
 30
0.0
 10
-29.864999999999998
 20
41.113
 30
0.0
 10
-29.864999999999998
 20
40.588099999999997
 30
0.0
 10
-29.904699999999998
 20
40.374600000000001
 30
0.0
 10
-30.0306
 20
39.965800000000002
 30
0.0
 10
-30.0306
 20
39.965800000000002
 30
0.0
 10
-30.1464
 20
39.591099999999997
 30
0.0
 10
-30.077500000000001
 20
39.189399999999999
 30
0.0
 10
-30.095600000000001
 20
38.713999999999999
 30
0.0
 10
-30.095600000000001
 20
38.713999999999999
 30
0.0
 10
-30.1326
 20
37.753300000000003
 30
0.0
 10
-30.071400000000001
 20
37.430300000000003
 30
0.0
 10
-29.869900000000001
 20
36.551499999999997
 30
0.0
 10
-29.869900000000001
 20
36.551499999999997
 30
0.0
 10
-29.7531
 20
36.040100000000002
 30
0.0
 10
-29.223600000000001
 20
35.223500000000001
 30
0.0
 10
-28.896000000000001
 20
34.8996
 30
0.0
 10
-28.896000000000001
 20
34.8996
 30
0.0
 10
-28.610700000000001
 20
34.6173
 30
0.0
 10
-27.574300000000001
 20
34.015300000000003
 30
0.0
 10
-27.548100000000002
 20
33.698700000000002
 30
0.0
 10
-27.548100000000002
 20
33.698700000000002
 30
0.0
 10
-28.1112
 20
33.567599999999999
 30
0.0
 10
-29.319199999999999
 20
32.918399999999998
 30
0.0
 10
-29.759599999999999
 20
32.589300000000001
 30
0.0
 10
-29.759599999999999
 20
32.589300000000001
 30
0.0
 10
-30.3657
 20
32.136299999999999
 30
0.0
 10
-30.8688
 20
31.4633
 30
0.0
 10
-30.8688
 20
30.455100000000002
 30
0.0
 10
-30.8688
 20
30.455100000000002
 30
0.0
 10
-30.8688
 20
30.455100000000002
 30
0.0
 10
-30.8688
 20
29.9145
 30
0.0
 10
-30.8688
 20
29.9145
 30
0.0
 10
-30.8688
 20
29.9145
 30
0.0
 10
-30.8688
 20
29.9145
 30
0.0
 10
-30.779599999999999
 20
28.9116
 30
0.0
 10
-30.779599999999999
 20
28.9116
 30
0.0
 10
-30.779599999999999
 20
28.9116
 30
0.0
 10
-31.201799999999999
 20
28.6934
 30
0.0
 10
-31.684899999999999
 20
27.540500000000002
 30
0.0
 10
-31.718399999999999
 20
27.133900000000001
 30
0.0
 10
-31.718399999999999
 20
27.133900000000001
 30
0.0
 10
-31.280100000000001
 20
27.182200000000002
 30
0.0
 10
-30.914100000000001
 20
27.8291
 30
0.0
 10
-30.482800000000001
 20
27.8291
 30
0.0
 10
-30.482800000000001
 20
27.8291
 30
0.0
 10
-30.475000000000001
 20
27.8291
 30
0.0
 10
-28.539000000000001
 20
27.122199999999999
 30
0.0
 10
-28.396899999999999
 20
27.0579
 30
0.0
 10
-28.396899999999999
 20
27.0579
 30
0.0
 10
-27.759899999999998
 20
26.767600000000002
 30
0.0
 10
-27.219200000000001
 20
26.412700000000001
 30
0.0
 10
-26.652100000000001
 20
26.021799999999999
 30
0.0
 10
-26.652100000000001
 20
26.021799999999999
 30
0.0
 10
-26.252800000000001
 20
25.7471
 30
0.0
 10
-25.508900000000001
 20
24.9696
 30
0.0
 10
-25.267499999999998
 20
24.549199999999999
 30
0.0
 10
-25.267499999999998
 20
24.549199999999999
 30
0.0
 10
-25.122900000000001
 20
24.297799999999999
 30
0.0
 10
-24.888100000000001
 20
23.8873
 30
0.0
 10
-24.7989
 20
23.627500000000001
 30
0.0
 10
-24.7989
 20
23.627500000000001
 30
0.0
 10
-24.679200000000002
 20
23.279
 30
0.0
 10
-24.665900000000001
 20
22.770900000000001
 30
0.0
 10
-24.536200000000001
 20
22.5002
 30
0.0
 10
-24.536200000000001
 20
22.5002
 30
0.0
 10
-24.607500000000002
 20
22.452300000000001
 30
0.0
 10
-24.721499999999999
 20
22.345700000000001
 30
0.0
 10
-24.767700000000001
 20
22.345700000000001
 30
0.0
 10
-24.767700000000001
 20
22.345700000000001
 30
0.0
 10
-25.4114
 20
22.345700000000001
 30
0.0
 10
-26.9954
 20
24.401700000000002
 30
0.0
 10
-27.488900000000001
 20
24.875800000000002
 30
0.0
 10
-27.488900000000001
 20
24.875800000000002
 30
0.0
 10
-27.940000000000001
 20
25.309200000000001
 30
0.0
 10
-28.496700000000001
 20
25.6328
 30
0.0
 10
-29.2392
 20
25.753399999999999
 30
0.0
 10
-29.2392
 20
25.753399999999999
 30
0.0
 10
-29.9557
 20
25.869900000000001
 30
0.0
 10
-30.791699999999999
 20
25.622900000000001
 30
0.0
 10
-30.791699999999999
 20
24.817299999999999
 30
0.0
 10
-30.791699999999999
 20
24.817299999999999
 30
0.0
 10
-30.791699999999999
 20
24.817299999999999
 30
0.0
 10
-30.791699999999999
 20
24.3538
 30
0.0
 10
-30.791699999999999
 20
24.3538
 30
0.0
 10
-30.791699999999999
 20
24.3538
 30
0.0
 10
-30.791699999999999
 20
24.087299999999999
 30
0.0
 10
-30.7349
 20
24.054600000000001
 30
0.0
 10
-30.714600000000001
 20
23.812999999999999
 30
0.0
 10
-30.714600000000001
 20
23.812999999999999
 30
0.0
 10
-30.714600000000001
 20
23.812999999999999
 30
0.0
 10
-30.560099999999998
 20
23.812999999999999
 30
0.0
 10
-30.560099999999998
 20
23.812999999999999
 30
0.0
 10
-30.560099999999998
 20
23.812999999999999
 30
0.0
 10
-30.542999999999999
 20
24.5885
 30
0.0
 10
-30.008199999999999
 20
24.8461
 30
0.0
 10
-29.4787
 20
25.126100000000001
 30
0.0
 10
-29.4787
 20
25.126100000000001
 30
0.0
 10
-29.029
 20
24.910299999999999
 30
0.0
 10
-28.6236
 20
25.104399999999998
 30
0.0
 10
-28.242999999999999
 20
24.5854
 30
0.0
 10
-28.242999999999999
 20
24.5854
 30
0.0
 10
-28.481300000000001
 20
24.260200000000001
 30
0.0
 10
-29.247199999999999
 20
24.306000000000001
 30
0.0
 10
-29.247199999999999
 20
23.349699999999999
 30
0.0
 10
-29.247199999999999
 20
23.349699999999999
 30
0.0
 10
-29.247199999999999
 20
23.349699999999999
 30
0.0
 10
-29.247199999999999
 20
22.808900000000001
 30
0.0
 10
-29.247199999999999
 20
22.808900000000001
 30
0.0
 10
-29.247199999999999
 20
22.808900000000001
 30
0.0
 10
-28.9756
 20
22.9072
 30
0.0
 10
-28.937799999999999
 20
23.445399999999999
 30
0.0
 10
-28.242999999999999
 20
23.812999999999999
 30
0.0
 10
-28.242999999999999
 20
23.812999999999999
 30
0.0
 10
-28.242999999999999
 20
23.812999999999999
 30
0.0
 10
-27.7775
 20
23.665800000000001
 30
0.0
 10
-27.7775
 20
23.665800000000001
 30
0.0
 10
-27.7775
 20
23.665800000000001
 30
0.0
 10
-27.9694
 20
22.844999999999999
 30
0.0
 10
-30.633500000000002
 20
20.6294
 30
0.0
 10
-31.392700000000001
 20
20.166599999999999
 30
0.0
 10
-31.392700000000001
 20
20.166599999999999
 30
0.0
 10
-32.088299999999997
 20
19.742899999999999
 30
0.0
 10
-35.110399999999998
 20
17.634399999999999
 30
0.0
 10
-35.889200000000002
 20
17.634399999999999
 30
0.0
 10
-35.889200000000002
 20
17.634399999999999
 30
0.0
 10
-35.893799999999999
 20
17.634399999999999
 30
0.0
 10
-37.035800000000002
 20
18.118400000000001
 30
0.0
 10
-37.279200000000003
 20
18.1752
 30
0.0
 10
-37.279200000000003
 20
18.1752
 30
0.0
 10
-37.271299999999997
 20
18.523099999999999
 30
0.0
 10
-36.337299999999999
 20
19.656099999999999
 30
0.0
 10
-36.088700000000003
 20
20.3828
 30
0.0
 10
-36.088700000000003
 20
20.3828
 30
0.0
 10
-35.8934
 20
20.953199999999999
 30
0.0
 10
-35.441600000000001
 20
22.473500000000001
 30
0.0
 10
-35.580100000000002
 20
23.272500000000001
 30
0.0
 10
-35.580100000000002
 20
23.272500000000001
 30
0.0
 10
-35.580100000000002
 20
23.272500000000001
 30
0.0
 10
-35.993499999999997
 20
26.061499999999999
 30
0.0
 10
-35.993499999999997
 20
26.061499999999999
 30
0.0
 10
-35.993499999999997
 20
26.061499999999999
 30
0.0
 10
-36.063699999999997
 20
26.1692
 30
0.0
 10
-35.283700000000003
 20
26.875399999999999
 30
0.0
 10
-35.194099999999999
 20
27.211400000000001
 30
0.0
 10
-35.194099999999999
 20
27.211400000000001
 30
0.0
 10
-35.194099999999999
 20
27.211400000000001
 30
0.0
 10
-34.962400000000002
 20
27.211400000000001
 30
0.0
 10
-34.962400000000002
 20
27.211400000000001
 30
0.0
 10
-34.962400000000002
 20
27.211400000000001
 30
0.0
 10
-34.962400000000002
 20
27.211400000000001
 30
0.0
 10
-33.853499999999997
 20
25.4041
 30
0.0
 10
-33.853499999999997
 20
25.4041
 30
0.0
 10
-33.853499999999997
 20
25.4041
 30
0.0
 10
-33.803600000000003
 20
28.542000000000002
 30
0.0
 10
-31.718399999999999
 20
29.7727
 30
0.0
 10
-31.718399999999999
 20
31.690899999999999
 30
0.0
 10
-31.718399999999999
 20
31.690899999999999
 30
0.0
 10
-31.718399999999999
 20
31.690899999999999
 30
0.0
 10
-31.718399999999999
 20
31.845199999999998
 30
0.0
 10
-31.718399999999999
 20
31.845199999999998
 30
0.0
 10
-31.718399999999999
 20
31.845199999999998
 30
0.0
 10
-31.718399999999999
 20
31.845199999999998
 30
0.0
 10
-32.230200000000004
 20
36.241399999999999
 30
0.0
 10
-32.230200000000004
 20
36.241399999999999
 30
0.0
 10
-32.230200000000004
 20
36.241399999999999
 30
0.0
 10
-32.230200000000004
 20
36.241399999999999
 30
0.0
 10
-32.182099999999998
 20
37.097000000000001
 30
0.0
 10
-32.182099999999998
 20
37.097000000000001
 30
0.0
 10
-32.182099999999998
 20
37.097000000000001
 30
0.0
 10
-32.182099999999998
 20
37.640999999999998
 30
0.0
 10
-31.950299999999999
 20
37.898600000000002
 30
0.0
 10
-31.950299999999999
 20
38.564300000000003
 30
0.0
  0
SPLINE
  5
57
100
AcDbEntity
  8
RÚteg 1
 62
     7
100
AcDbSpline
210
0.0
220
0.0
230
1.0
 70
     1
 71
     3
 72
    20
 73
    16
 74
     0
 42
0.0000000001
 43
0.0000000001
 40
0.0
 40
0.0
 40
0.0
 40
0.0
 40
0.25
 40
0.25
 40
0.25
 40
0.25
 40
0.5
 40
0.5
 40
0.5
 40
0.5
 40
0.75
 40
0.75
 40
0.75
 40
0.75
 40
1.0
 40
1.0
 40
1.0
 40
1.0
 10
-7.6201999999999996
 20
41.405500000000004
 30
0.0
 10
-7.9455
 20
40.980600000000003
 30
0.0
 10
-9.9834999999999994
 20
40.726999999999997
 30
0.0
 10
-10.866
 20
40.726999999999997
 30
0.0
 10
-10.866
 20
40.726999999999997
 30
0.0
 10
-11.156700000000001
 20
40.726999999999997
 30
0.0
 10
-11.011900000000001
 20
40.7776
 30
0.0
 10
-11.3293
 20
40.804200000000002
 30
0.0
 10
-11.3293
 20
40.804200000000002
 30
0.0
 10
-11.3293
 20
40.804200000000002
 30
0.0
 10
-11.3253
 20
40.928199999999997
 30
0.0
 10
-11.3253
 20
40.928199999999997
 30
0.0
 10
-11.3253
 20
40.928199999999997
 30
0.0
 10
-11.3253
 20
40.928199999999997
 30
0.0
 10
-7.6201999999999996
 20
41.405500000000004
 30
0.0
 10
-7.6201999999999996
 20
41.405500000000004
 30
0.0
  0
SPLINE
  5
58
100
AcDbEntity
  8
RÚteg 1
 62
     7
100
AcDbSpline
210
0.0
220
0.0
230
1.0
 70
     1
 71
     3
 72
    24
 73
    20
 74
     0
 42
0.0000000001
 43
0.0000000001
 40
0.0
 40
0.0
 40
0.0
 40
0.0
 40
0.2
 40
0.2
 40
0.2
 40
0.2
 40
0.4
 40
0.4
 40
0.4
 40
0.4
 40
0.6000000000000001
 40
0.6000000000000001
 40
0.6000000000000001
 40
0.6000000000000001
 40
0.8
 40
0.8
 40
0.8
 40
0.8
 40
1.0
 40
1.0
 40
1.0
 40
1.0
 10
-26.398900000000001
 20
43.7502
 30
0.0
 10
-26.292400000000001
 20
43.536499999999997
 30
0.0
 10
-26.125499999999999
 20
41.803800000000003
 30
0.0
 10
-25.973500000000001
 20
41.297400000000003
 30
0.0
 10
-25.973500000000001
 20
41.297400000000003
 30
0.0
 10
-25.799099999999999
 20
40.718899999999998
 30
0.0
 10
-25.231000000000002
 20
39.732599999999998
 30
0.0
 10
-25.231000000000002
 20
39.259399999999999
 30
0.0
 10
-25.231000000000002
 20
39.259399999999999
 30
0.0
 10
-25.699000000000002
 20
39.384500000000003
 30
0.0
 10
-26.123200000000001
 20
40.406199999999998
 30
0.0
 10
-26.389700000000001
 20
40.804200000000002
 30
0.0
 10
-26.389700000000001
 20
40.804200000000002
 30
0.0
 10
-26.389700000000001
 20
40.804200000000002
 30
0.0
 10
-26.611999999999998
 20
43.573300000000003
 30
0.0
 10
-26.611999999999998
 20
43.573300000000003
 30
0.0
 10
-26.611999999999998
 20
43.573300000000003
 30
0.0
 10
-26.611999999999998
 20
43.573300000000003
 30
0.0
 10
-26.398900000000001
 20
43.7502
 30
0.0
 10
-26.398900000000001
 20
43.7502
 30
0.0
  0
SPLINE
  5
59
100
AcDbEntity
  8
RÚteg 1
 62
     7
100
AcDbSpline
210
0.0
220
0.0
230
1.0
 70
     1
 71
     3
 72
    24
 73
    20
 74
     0
 42
0.0000000001
 43
0.0000000001
 40
0.0
 40
0.0
 40
0.0
 40
0.0
 40
0.2
 40
0.2
 40
0.2
 40
0.2
 40
0.4
 40
0.4
 40
0.4
 40
0.4
 40
0.6000000000000001
 40
0.6000000000000001
 40
0.6000000000000001
 40
0.6000000000000001
 40
0.8
 40
0.8
 40
0.8
 40
0.8
 40
1.0
 40
1.0
 40
1.0
 40
1.0
 10
-32.877200000000002
 20
41.730800000000002
 30
0.0
 10
-33.524900000000002
 20
41.730800000000002
 30
0.0
 10
-35.075499999999998
 20
42.290500000000002
 30
0.0
 10
-35.194099999999999
 20
42.7348
 30
0.0
 10
-35.194099999999999
 20
42.7348
 30
0.0
 10
-34.908299999999997
 20
42.837800000000001
 30
0.0
 10
-33.965000000000003
 20
42.378100000000003
 30
0.0
 10
-33.509900000000002
 20
42.256500000000003
 30
0.0
 10
-33.509900000000002
 20
42.256500000000003
 30
0.0
 10
-32.9041
 20
42.094499999999996
 30
0.0
 10
-32.287500000000001
 20
42.036000000000001
 30
0.0
 10
-31.641300000000001
 20
41.885199999999998
 30
0.0
 10
-31.641300000000001
 20
41.885199999999998
 30
0.0
 10
-31.73
 20
41.764099999999999
 30
0.0
 10
-31.6554
 20
41.730800000000002
 30
0.0
 10
-31.873100000000001
 20
41.730800000000002
 30
0.0
 10
-31.873100000000001
 20
41.730800000000002
 30
0.0
 10
-31.873100000000001
 20
41.730800000000002
 30
0.0
 10
-32.877200000000002
 20
41.730800000000002
 30
0.0
 10
-32.877200000000002
 20
41.730800000000002
 30
0.0
  0
SPLINE
  5
5A
100
AcDbEntity
  8
RÚteg 1
 62
     7
100
AcDbSpline
210
0.0
220
0.0
230
1.0
 70
     1
 71
     3
 72
    24
 73
    20
 74
     0
 42
0.0000000001
 43
0.0000000001
 40
0.0
 40
0.0
 40
0.0
 40
0.0
 40
0.2
 40
0.2
 40
0.2
 40
0.2
 40
0.4
 40
0.4
 40
0.4
 40
0.4
 40
0.6000000000000001
 40
0.6000000000000001
 40
0.6000000000000001
 40
0.6000000000000001
 40
0.8
 40
0.8
 40
0.8
 40
0.8
 40
1.0
 40
1.0
 40
1.0
 40
1.0
 10
-23.377700000000001
 20
45.360700000000001
 30
0.0
 10
-23.377700000000001
 20
45.646900000000002
 30
0.0
 10
-23.302299999999999
 20
45.709600000000002
 30
0.0
 10
-23.145700000000001
 20
45.824300000000001
 30
0.0
 10
-23.145700000000001
 20
45.824300000000001
 30
0.0
 10
-23.145700000000001
 20
45.824300000000001
 30
0.0
 10
-22.7179
 20
42.807299999999998
 30
0.0
 10
-22.7179
 20
42.807299999999998
 30
0.0
 10
-22.7179
 20
42.807299999999998
 30
0.0
 10
-22.7179
 20
42.807299999999998
 30
0.0
 10
-22.682300000000001
 20
42.580500000000001
 30
0.0
 10
-22.682300000000001
 20
42.580500000000001
 30
0.0
 10
-22.682300000000001
 20
42.580500000000001
 30
0.0
 10
-23.183199999999999
 20
42.714199999999998
 30
0.0
 10
-23.377700000000001
 20
44.542200000000001
 30
0.0
 10
-23.377700000000001
 20
45.283499999999997
 30
0.0
 10
-23.377700000000001
 20
45.283499999999997
 30
0.0
 10
-23.377700000000001
 20
45.283499999999997
 30
0.0
 10
-23.377700000000001
 20
45.360700000000001
 30
0.0
 10
-23.377700000000001
 20
45.360700000000001
 30
0.0
  0
SPLINE
  5
5B
100
AcDbEntity
  8
RÚteg 1
 62
     7
100
AcDbSpline
210
0.0
220
0.0
230
1.0
 70
     1
 71
     3
 72
    24
 73
    20
 74
     0
 42
0.0000000001
 43
0.0000000001
 40
0.0
 40
0.0
 40
0.0
 40
0.0
 40
0.2
 40
0.2
 40
0.2
 40
0.2
 40
0.4
 40
0.4
 40
0.4
 40
0.4
 40
0.6000000000000001
 40
0.6000000000000001
 40
0.6000000000000001
 40
0.6000000000000001
 40
0.8
 40
0.8
 40
0.8
 40
0.8
 40
1.0
 40
1.0
 40
1.0
 40
1.0
 10
-12.0245
 20
44.974699999999999
 30
0.0
 10
-11.167199999999999
 20
45.045999999999999
 30
0.0
 10
-9.7296999999999993
 20
45.601900000000001
 30
0.0
 10
-9.1668000000000003
 20
45.9788
 30
0.0
 10
-9.1668000000000003
 20
45.9788
 30
0.0
 10
-9.1668000000000003
 20
45.9788
 30
0.0
 10
-8.8579000000000008
 20
45.9788
 30
0.0
 10
-8.8579000000000008
 20
45.9788
 30
0.0
 10
-8.8579000000000008
 20
45.9788
 30
0.0
 10
-9.1494
 20
45.542900000000003
 30
0.0
 10
-10.706300000000001
 20
44.82
 30
0.0
 10
-11.406499999999999
 20
44.82
 30
0.0
 10
-11.406499999999999
 20
44.82
 30
0.0
 10
-11.406499999999999
 20
44.82
 30
0.0
 10
-12.0245
 20
44.82
 30
0.0
 10
-12.0245
 20
44.82
 30
0.0
 10
-12.0245
 20
44.82
 30
0.0
 10
-12.0245
 20
44.82
 30
0.0
 10
-12.0245
 20
44.974699999999999
 30
0.0
 10
-12.0245
 20
44.974699999999999
 30
0.0
  0
SPLINE
  5
5C
100
AcDbEntity
  8
RÚteg 1
 62
     7
100
AcDbSpline
210
0.0
220
0.0
230
1.0
 70
     1
 71
     3
 72
    16
 73
    12
 74
     0
 42
0.0000000001
 43
0.0000000001
 40
0.0
 40
0.0
 40
0.0
 40
0.0
 40
0.3333333333333333
 40
0.3333333333333333
 40
0.3333333333333333
 40
0.3333333333333333
 40
0.6666666666666666
 40
0.6666666666666666
 40
0.6666666666666666
 40
0.6666666666666666
 40
1.0
 40
1.0
 40
1.0
 40
1.0
 10
-28.629300000000001
 20
45.206400000000002
 30
0.0
 10
-29.564399999999999
 20
45.206400000000002
 30
0.0
 10
-31.6372
 20
45.915399999999998
 30
0.0
 10
-31.7959
 20
46.596499999999999
 30
0.0
 10
-31.7959
 20
46.596499999999999
 30
0.0
 10
-31.7959
 20
46.596499999999999
 30
0.0
 10
-28.110099999999999
 20
45.374499999999998
 30
0.0
 10
-28.110099999999999
 20
45.374499999999998
 30
0.0
 10
-28.110099999999999
 20
45.374499999999998
 30
0.0
 10
-28.203600000000002
 20
45.281199999999998
 30
0.0
 10
-28.3596
 20
45.206400000000002
 30
0.0
 10
-28.629300000000001
 20
45.206400000000002
 30
0.0
  0
SPLINE
  5
5D
100
AcDbEntity
  8
RÚteg 1
 62
     7
100
AcDbSpline
210
0.0
220
0.0
230
1.0
 70
     1
 71
     3
 72
    20
 73
    16
 74
     0
 42
0.0000000001
 43
0.0000000001
 40
0.0
 40
0.0
 40
0.0
 40
0.0
 40
0.25
 40
0.25
 40
0.25
 40
0.25
 40
0.5
 40
0.5
 40
0.5
 40
0.5
 40
0.75
 40
0.75
 40
0.75
 40
0.75
 40
1.0
 40
1.0
 40
1.0
 40
1.0
 10
-20.056799999999999
 20
47.291800000000002
 30
0.0
 10
-20.056799999999999
 20
47.675400000000003
 30
0.0
 10
-20.027799999999999
 20
48.102200000000003
 30
0.0
 10
-19.670300000000001
 20
48.141100000000002
 30
0.0
 10
-19.670300000000001
 20
48.141100000000002
 30
0.0
 10
-19.670300000000001
 20
47.438299999999998
 30
0.0
 10
-19.5124
 20
46.776600000000002
 30
0.0
 10
-19.438300000000002
 20
46.133600000000001
 30
0.0
 10
-19.438300000000002
 20
46.133600000000001
 30
0.0
 10
-19.394200000000001
 20
45.749699999999997
 30
0.0
 10
-19.0108
 20
44.862400000000001
 30
0.0
 10
-18.975100000000001
 20
44.433999999999997
 30
0.0
 10
-18.975100000000001
 20
44.433999999999997
 30
0.0
 10
-19.648299999999999
 20
44.613700000000001
 30
0.0
 10
-20.056799999999999
 20
46.356400000000001
 30
0.0
 10
-20.056799999999999
 20
47.291800000000002
 30
0.0
  0
SPLINE
  5
5E
100
AcDbEntity
  8
RÚteg 1
 62
     7
100
AcDbSpline
210
0.0
220
0.0
230
1.0
 70
     1
 71
     3
 72
    20
 73
    16
 74
     0
 42
0.0000000001
 43
0.0000000001
 40
0.0
 40
0.0
 40
0.0
 40
0.0
 40
0.25
 40
0.25
 40
0.25
 40
0.25
 40
0.5
 40
0.5
 40
0.5
 40
0.5
 40
0.75
 40
0.75
 40
0.75
 40
0.75
 40
1.0
 40
1.0
 40
1.0
 40
1.0
 10
-25.076799999999999
 20
48.450200000000002
 30
0.0
 10
-26.132999999999999
 20
48.450200000000002
 30
0.0
 10
-28.0227
 20
49.6096
 30
0.0
 10
-28.474799999999998
 20
50.226500000000001
 30
0.0
 10
-28.474799999999998
 20
50.226500000000001
 30
0.0
 10
-28.465599999999998
 20
50.296599999999998
 30
0.0
 10
-28.3962
 20
50.380800000000001
 30
0.0
 10
-28.3203
 20
50.380800000000001
 30
0.0
 10
-28.3203
 20
50.380800000000001
 30
0.0
 10
-28.2239
 20
50.380800000000001
 30
0.0
 10
-25.772400000000001
 20
48.766599999999997
 30
0.0
 10
-25.076799999999999
 20
48.604500000000002
 30
0.0
 10
-25.076799999999999
 20
48.604500000000002
 30
0.0
 10
-25.076799999999999
 20
48.604500000000002
 30
0.0
 10
-25.076799999999999
 20
48.450200000000002
 30
0.0
 10
-25.076799999999999
 20
48.450200000000002
 30
0.0
  0
SPLINE
  5
5F
100
AcDbEntity
  8
RÚteg 1
 62
     7
100
AcDbSpline
210
0.0
220
0.0
230
1.0
 70
     1
 71
     3
 72
   212
 73
   208
 74
     0
 42
0.0000000001
 43
0.0000000001
 40
0.0
 40
0.0
 40
0.0
 40
0.0
 40
0.0192307692307692
 40
0.0192307692307692
 40
0.0192307692307692
 40
0.0192307692307692
 40
0.0384615384615385
 40
0.0384615384615385
 40
0.0384615384615385
 40
0.0384615384615385
 40
0.0576923076923077
 40
0.0576923076923077
 40
0.0576923076923077
 40
0.0576923076923077
 40
0.0769230769230769
 40
0.0769230769230769
 40
0.0769230769230769
 40
0.0769230769230769
 40
0.0961538461538462
 40
0.0961538461538462
 40
0.0961538461538462
 40
0.0961538461538462
 40
0.1153846153846154
 40
0.1153846153846154
 40
0.1153846153846154
 40
0.1153846153846154
 40
0.1346153846153846
 40
0.1346153846153846
 40
0.1346153846153846
 40
0.1346153846153846
 40
0.1538461538461539
 40
0.1538461538461539
 40
0.1538461538461539
 40
0.1538461538461539
 40
0.1730769230769231
 40
0.1730769230769231
 40
0.1730769230769231
 40
0.1730769230769231
 40
0.1923076923076923
 40
0.1923076923076923
 40
0.1923076923076923
 40
0.1923076923076923
 40
0.2115384615384615
 40
0.2115384615384615
 40
0.2115384615384615
 40
0.2115384615384615
 40
0.2307692307692307
 40
0.2307692307692307
 40
0.2307692307692307
 40
0.2307692307692307
 40
0.2499999999999999
 40
0.2499999999999999
 40
0.2499999999999999
 40
0.2499999999999999
 40
0.2692307692307692
 40
0.2692307692307692
 40
0.2692307692307692
 40
0.2692307692307692
 40
0.2884615384615384
 40
0.2884615384615384
 40
0.2884615384615384
 40
0.2884615384615384
 40
0.3076923076923076
 40
0.3076923076923076
 40
0.3076923076923076
 40
0.3076923076923076
 40
0.3269230769230768
 40
0.3269230769230768
 40
0.3269230769230768
 40
0.3269230769230768
 40
0.346153846153846
 40
0.346153846153846
 40
0.346153846153846
 40
0.346153846153846
 40
0.3653846153846153
 40
0.3653846153846153
 40
0.3653846153846153
 40
0.3653846153846153
 40
0.3846153846153845
 40
0.3846153846153845
 40
0.3846153846153845
 40
0.3846153846153845
 40
0.4038461538461537
 40
0.4038461538461537
 40
0.4038461538461537
 40
0.4038461538461537
 40
0.4230769230769229
 40
0.4230769230769229
 40
0.4230769230769229
 40
0.4230769230769229
 40
0.4423076923076921
 40
0.4423076923076921
 40
0.4423076923076921
 40
0.4423076923076921
 40
0.4615384615384613
 40
0.4615384615384613
 40
0.4615384615384613
 40
0.4615384615384613
 40
0.4807692307692306
 40
0.4807692307692306
 40
0.4807692307692306
 40
0.4807692307692306
 40
0.4999999999999998
 40
0.4999999999999998
 40
0.4999999999999998
 40
0.4999999999999998
 40
0.5192307692307691
 40
0.5192307692307691
 40
0.5192307692307691
 40
0.5192307692307691
 40
0.5384615384615383
 40
0.5384615384615383
 40
0.5384615384615383
 40
0.5384615384615383
 40
0.5576923076923076
 40
0.5576923076923076
 40
0.5576923076923076
 40
0.5576923076923076
 40
0.5769230769230769
 40
0.5769230769230769
 40
0.5769230769230769
 40
0.5769230769230769
 40
0.5961538461538462
 40
0.5961538461538462
 40
0.5961538461538462
 40
0.5961538461538462
 40
0.6153846153846154
 40
0.6153846153846154
 40
0.6153846153846154
 40
0.6153846153846154
 40
0.6346153846153847
 40
0.6346153846153847
 40
0.6346153846153847
 40
0.6346153846153847
 40
0.653846153846154
 40
0.653846153846154
 40
0.653846153846154
 40
0.653846153846154
 40
0.6730769230769232
 40
0.6730769230769232
 40
0.6730769230769232
 40
0.6730769230769232
 40
0.6923076923076925
 40
0.6923076923076925
 40
0.6923076923076925
 40
0.6923076923076925
 40
0.7115384615384618
 40
0.7115384615384618
 40
0.7115384615384618
 40
0.7115384615384618
 40
0.7307692307692311
 40
0.7307692307692311
 40
0.7307692307692311
 40
0.7307692307692311
 40
0.7500000000000003
 40
0.7500000000000003
 40
0.7500000000000003
 40
0.7500000000000003
 40
0.7692307692307696
 40
0.7692307692307696
 40
0.7692307692307696
 40
0.7692307692307696
 40
0.7884615384615389
 40
0.7884615384615389
 40
0.7884615384615389
 40
0.7884615384615389
 40
0.8076923076923082
 40
0.8076923076923082
 40
0.8076923076923082
 40
0.8076923076923082
 40
0.8269230769230774
 40
0.8269230769230774
 40
0.8269230769230774
 40
0.8269230769230774
 40
0.8461538461538467
 40
0.8461538461538467
 40
0.8461538461538467
 40
0.8461538461538467
 40
0.865384615384616
 40
0.865384615384616
 40
0.865384615384616
 40
0.865384615384616
 40
0.8846153846153853
 40
0.8846153846153853
 40
0.8846153846153853
 40
0.8846153846153853
 40
0.9038461538461545
 40
0.9038461538461545
 40
0.9038461538461545
 40
0.9038461538461545
 40
0.9230769230769238
 40
0.9230769230769238
 40
0.9230769230769238
 40
0.9230769230769238
 40
0.9423076923076931
 40
0.9423076923076931
 40
0.9423076923076931
 40
0.9423076923076931
 40
0.9615384615384623
 40
0.9615384615384623
 40
0.9615384615384623
 40
0.9615384615384623
 40
0.9807692307692316
 40
0.9807692307692316
 40
0.9807692307692316
 40
0.9807692307692316
 40
1.0
 40
1.0
 40
1.0
 40
1.0
 10
-19.207000000000001
 20
50.072000000000003
 30
0.0
 10
-19.207000000000001
 20
50.4696
 30
0.0
 10
-17.118400000000001
 20
51.384799999999998
 30
0.0
 10
-16.812799999999999
 20
51.384799999999998
 30
0.0
 10
-16.812799999999999
 20
51.384799999999998
 30
0.0
 10
-16.511500000000002
 20
51.384799999999998
 30
0.0
 10
-16.735600000000002
 20
50.155700000000003
 30
0.0
 10
-16.735600000000002
 20
49.840200000000003
 30
0.0
 10
-16.735600000000002
 20
49.840200000000003
 30
0.0
 10
-16.735600000000002
 20
48.9968
 30
0.0
 10
-16.652200000000001
 20
48.101599999999998
 30
0.0
 10
-16.520299999999999
 20
47.429400000000001
 30
0.0
 10
-16.520299999999999
 20
47.429400000000001
 30
0.0
 10
-16.402799999999999
 20
46.831600000000002
 30
0.0
 10
-16.195
 20
45.736400000000003
 30
0.0
 10
-16.195
 20
45.360700000000001
 30
0.0
 10
-16.195
 20
45.360700000000001
 30
0.0
 10
-16.195
 20
45.360700000000001
 30
0.0
 10
-16.195
 20
44.279600000000002
 30
0.0
 10
-16.195
 20
44.279600000000002
 30
0.0
 10
-16.195
 20
44.279600000000002
 30
0.0
 10
-16.195
 20
43.405099999999997
 30
0.0
 10
-16.630199999999999
 20
42.0749
 30
0.0
 10
-16.953900000000001
 20
41.485700000000001
 30
0.0
 10
-16.953900000000001
 20
41.485700000000001
 30
0.0
 10
-17.3309
 20
40.798499999999997
 30
0.0
 10
-17.165800000000001
 20
39.413899999999998
 30
0.0
 10
-18.357399999999998
 20
39.413899999999998
 30
0.0
 10
-18.357399999999998
 20
39.413899999999998
 30
0.0
 10
-18.357399999999998
 20
39.413899999999998
 30
0.0
 10
-18.512
 20
39.413899999999998
 30
0.0
 10
-18.512
 20
39.413899999999998
 30
0.0
 10
-18.512
 20
39.413899999999998
 30
0.0
 10
-18.9635
 20
39.413899999999998
 30
0.0
 10
-19.258800000000001
 20
39.877400000000002
 30
0.0
 10
-19.9023
 20
39.877400000000002
 30
0.0
 10
-19.9023
 20
39.877400000000002
 30
0.0
 10
-19.9023
 20
39.877400000000002
 30
0.0
 10
-20.365500000000001
 20
39.877400000000002
 30
0.0
 10
-20.365500000000001
 20
39.877400000000002
 30
0.0
 10
-20.365500000000001
 20
39.877400000000002
 30
0.0
 10
-20.811599999999999
 20
39.877400000000002
 30
0.0
 10
-21.767900000000001
 20
38.763599999999997
 30
0.0
 10
-22.296299999999999
 20
38.409799999999997
 30
0.0
 10
-22.296299999999999
 20
38.409799999999997
 30
0.0
 10
-22.296299999999999
 20
38.409799999999997
 30
0.0
 10
-22.990500000000001
 20
38.434800000000003
 30
0.0
 10
-22.990500000000001
 20
38.434800000000003
 30
0.0
 10
-22.990500000000001
 20
38.434800000000003
 30
0.0
 10
-22.990500000000001
 20
38.434800000000003
 30
0.0
 10
-23.222899999999999
 20
38.409799999999997
 30
0.0
 10
-23.222899999999999
 20
38.409799999999997
 30
0.0
 10
-23.222899999999999
 20
38.409799999999997
 30
0.0
 10
-23.141200000000001
 20
38.103000000000002
 30
0.0
 10
-22.291499999999999
 20
37.424999999999997
 30
0.0
 10
-22.005299999999998
 20
37.2333
 30
0.0
 10
-22.005299999999998
 20
37.2333
 30
0.0
 10
-21.570699999999999
 20
36.942599999999999
 30
0.0
 10
-20.8386
 20
36.710700000000003
 30
0.0
 10
-20.133800000000001
 20
36.710700000000003
 30
0.0
 10
-20.133800000000001
 20
36.710700000000003
 30
0.0
 10
-19.084800000000001
 20
36.710700000000003
 30
0.0
 10
-18.410299999999999
 20
37.731499999999997
 30
0.0
 10
-17.893899999999999
 20
37.869100000000003
 30
0.0
 10
-17.893899999999999
 20
37.869100000000003
 30
0.0
 10
-17.753
 20
37.564100000000003
 30
0.0
 10
-18.5974
 20
35.3354
 30
0.0
 10
-18.795999999999999
 20
34.909599999999998
 30
0.0
 10
-18.795999999999999
 20
34.909599999999998
 30
0.0
 10
-19.032900000000001
 20
34.402099999999997
 30
0.0
 10
-20.064900000000002
 20
32.870399999999997
 30
0.0
 10
-20.442599999999999
 20
32.617699999999999
 30
0.0
 10
-20.442599999999999
 20
32.617699999999999
 30
0.0
 10
-21.441500000000001
 20
33.145899999999997
 30
0.0
 10
-22.354700000000001
 20
33.361899999999999
 30
0.0
 10
-23.6145
 20
33.616199999999999
 30
0.0
 10
-23.6145
 20
33.616199999999999
 30
0.0
 10
-24.087
 20
33.7117
 30
0.0
 10
-24.9392
 20
33.8504
 30
0.0
 10
-25.460899999999999
 20
33.855400000000003
 30
0.0
 10
-25.460899999999999
 20
33.855400000000003
 30
0.0
 10
-26.4573
 20
33.864899999999999
 30
0.0
 10
-26.706499999999998
 20
33.727600000000002
 30
0.0
 10
-26.698699999999999
 20
34.6252
 30
0.0
 10
-26.698699999999999
 20
34.6252
 30
0.0
 10
-26.685400000000001
 20
36.239600000000003
 30
0.0
 10
-26.773199999999999
 20
37.078899999999997
 30
0.0
 10
-27.351600000000001
 20
38.143099999999997
 30
0.0
 10
-27.351600000000001
 20
38.143099999999997
 30
0.0
 10
-27.681799999999999
 20
38.75
 30
0.0
 10
-28.8611
 20
39.764000000000003
 30
0.0
 10
-28.8611
 20
40.726999999999997
 30
0.0
 10
-28.8611
 20
40.726999999999997
 30
0.0
 10
-28.8611
 20
40.726999999999997
 30
0.0
 10
-28.8611
 20
41.113
 30
0.0
 10
-28.8611
 20
41.113
 30
0.0
 10
-28.8611
 20
41.113
 30
0.0
 10
-28.8611
 20
41.776200000000003
 30
0.0
 10
-27.610900000000001
 20
43.926900000000003
 30
0.0
 10
-27.084700000000002
 20
43.970500000000001
 30
0.0
 10
-27.084700000000002
 20
43.970500000000001
 30
0.0
 10
-27.084700000000002
 20
43.970500000000001
 30
0.0
 10
-27.2637
 20
42.429200000000002
 30
0.0
 10
-27.2637
 20
42.429200000000002
 30
0.0
 10
-27.2637
 20
42.429200000000002
 30
0.0
 10
-27.2637
 20
42.429200000000002
 30
0.0
 10
-27.239100000000001
 20
41.730800000000002
 30
0.0
 10
-27.239100000000001
 20
41.730800000000002
 30
0.0
 10
-27.239100000000001
 20
41.730800000000002
 30
0.0
 10
-27.239100000000001
 20
40.832500000000003
 30
0.0
 10
-26.629799999999999
 20
39.661200000000001
 30
0.0
 10
-26.222200000000001
 20
39.1175
 30
0.0
 10
-26.222200000000001
 20
39.1175
 30
0.0
 10
-26.126200000000001
 20
38.989199999999997
 30
0.0
 10
-24.546600000000002
 20
37.182299999999998
 30
0.0
 10
-24.536200000000001
 20
37.174399999999999
 30
0.0
 10
-24.536200000000001
 20
37.174399999999999
 30
0.0
 10
-24.536200000000001
 20
38.6875
 30
0.0
 10
-24.2453
 20
40.211199999999998
 30
0.0
 10
-24.4526
 20
41.273600000000002
 30
0.0
 10
-24.4526
 20
41.273600000000002
 30
0.0
 10
-24.6114
 20
42.085799999999999
 30
0.0
 10
-25.694400000000002
 20
44.203800000000001
 30
0.0
 10
-25.694400000000002
 20
44.433999999999997
 30
0.0
 10
-25.694400000000002
 20
44.433999999999997
 30
0.0
 10
-25.694400000000002
 20
44.433999999999997
 30
0.0
 10
-25.694400000000002
 20
45.129199999999997
 30
0.0
 10
-25.694400000000002
 20
45.129199999999997
 30
0.0
 10
-25.694400000000002
 20
45.129199999999997
 30
0.0
 10
-25.694400000000002
 20
45.527000000000001
 30
0.0
 10
-24.3888
 20
46.8003
 30
0.0
 10
-23.9954
 20
46.905500000000004
 30
0.0
 10
-23.9954
 20
46.905500000000004
 30
0.0
 10
-23.9954
 20
46.905500000000004
 30
0.0
 10
-24.150700000000001
 20
44.743099999999998
 30
0.0
 10
-24.150700000000001
 20
44.743099999999998
 30
0.0
 10
-24.150700000000001
 20
44.743099999999998
 30
0.0
 10
-24.150700000000001
 20
44.743099999999998
 30
0.0
 10
-24.149999999999999
 20
44.588500000000003
 30
0.0
 10
-24.149999999999999
 20
44.588500000000003
 30
0.0
 10
-24.149999999999999
 20
44.588500000000003
 30
0.0
 10
-24.149999999999999
 20
43.522599999999997
 30
0.0
 10
-23.729600000000001
 20
42.697400000000002
 30
0.0
 10
-23.3109
 20
42.029000000000003
 30
0.0
 10
-23.3109
 20
42.029000000000003
 30
0.0
 10
-23.063199999999998
 20
41.633499999999998
 30
0.0
 10
-22.269500000000001
 20
40.2209
 30
0.0
 10
-21.987400000000001
 20
40.031700000000001
 30
0.0
 10
-21.987400000000001
 20
40.031700000000001
 30
0.0
 10
-21.987400000000001
 20
40.031700000000001
 30
0.0
 10
-21.577200000000001
 20
41.820999999999998
 30
0.0
 10
-21.577200000000001
 20
41.820999999999998
 30
0.0
 10
-21.577200000000001
 20
41.820999999999998
 30
0.0
 10
-21.523800000000001
 20
42.301499999999997
 30
0.0
 10
-21.369299999999999
 20
42.396000000000001
 30
0.0
 10
-21.369299999999999
 20
42.889400000000002
 30
0.0
 10
-21.369299999999999
 20
42.889400000000002
 30
0.0
 10
-21.369299999999999
 20
42.889400000000002
 30
0.0
 10
-21.369299999999999
 20
43.275599999999997
 30
0.0
 10
-21.369299999999999
 20
43.275599999999997
 30
0.0
 10
-21.369299999999999
 20
43.275599999999997
 30
0.0
 10
-21.369299999999999
 20
45.303600000000003
 30
0.0
 10
-22.914300000000001
 20
47.310899999999997
 30
0.0
 10
-22.914300000000001
 20
47.8322
 30
0.0
 10
-22.914300000000001
 20
47.8322
 30
0.0
 10
-22.914300000000001
 20
47.8322
 30
0.0
 10
-22.914300000000001
 20
48.063800000000001
 30
0.0
 10
-22.914300000000001
 20
48.063800000000001
 30
0.0
 10
-22.914300000000001
 20
48.063800000000001
 30
0.0
 10
-22.914300000000001
 20
48.063800000000001
 30
0.0
 10
-20.419599999999999
 20
49.618099999999998
 30
0.0
 10
-20.419599999999999
 20
49.618099999999998
 30
0.0
 10
-20.419599999999999
 20
49.618099999999998
 30
0.0
 10
-20.419599999999999
 20
49.618099999999998
 30
0.0
 10
-20.365500000000001
 20
49.531500000000001
 30
0.0
 10
-20.365500000000001
 20
49.531500000000001
 30
0.0
 10
-20.365500000000001
 20
49.531500000000001
 30
0.0
 10
-20.365500000000001
 20
48.589599999999997
 30
0.0
 10
-20.906099999999999
 20
47.804299999999998
 30
0.0
 10
-20.906099999999999
 20
46.4422
 30
0.0
 10
-20.906099999999999
 20
46.4422
 30
0.0
 10
-20.906099999999999
 20
45.440600000000003
 30
0.0
 10
-20.666
 20
44.618499999999997
 30
0.0
 10
-20.234000000000002
 20
44.024900000000002
 30
0.0
 10
-20.234000000000002
 20
44.024900000000002
 30
0.0
 10
-19.9922
 20
43.692900000000002
 30
0.0
 10
-18.7639
 20
42.559800000000003
 30
0.0
 10
-18.743400000000001
 20
42.503300000000003
 30
0.0
 10
-18.743400000000001
 20
42.503300000000003
 30
0.0
 10
-18.743400000000001
 20
42.503300000000003
 30
0.0
 10
-18.512
 20
42.503300000000003
 30
0.0
 10
-18.512
 20
42.503300000000003
 30
0.0
 10
-18.512
 20
42.503300000000003
 30
0.0
 10
-18.512
 20
42.503300000000003
 30
0.0
 10
-18.239999999999998
 20
43.573
 30
0.0
 10
-18.239999999999998
 20
43.573
 30
0.0
 10
-18.239999999999998
 20
43.573
 30
0.0
 10
-18.044
 20
43.936999999999998
 30
0.0
 10
-17.662600000000001
 20
45.181199999999997
 30
0.0
 10
-17.662600000000001
 20
45.746899999999997
 30
0.0
 10
-17.662600000000001
 20
45.746899999999997
 30
0.0
 10
-17.662600000000001
 20
47.152900000000002
 30
0.0
 10
-19.207000000000001
 20
48.684100000000001
 30
0.0
 10
-19.207000000000001
 20
49.994700000000002
 30
0.0
 10
-19.207000000000001
 20
49.994700000000002
 30
0.0
 10
-19.207000000000001
 20
49.994700000000002
 30
0.0
 10
-19.207000000000001
 20
50.072000000000003
 30
0.0
 10
-19.207000000000001
 20
50.072000000000003
 30
0.0
  0
SPLINE
  5
60
100
AcDbEntity
  8
RÚteg 1
 62
     7
100
AcDbSpline
210
0.0
220
0.0
230
1.0
 70
     1
 71
     3
 72
    28
 73
    24
 74
     0
 42
0.0000000001
 43
0.0000000001
 40
0.0
 40
0.0
 40
0.0
 40
0.0
 40
0.1666666666666667
 40
0.1666666666666667
 40
0.1666666666666667
 40
0.1666666666666667
 40
0.3333333333333333
 40
0.3333333333333333
 40
0.3333333333333333
 40
0.3333333333333333
 40
0.5
 40
0.5
 40
0.5
 40
0.5
 40
0.6666666666666666
 40
0.6666666666666666
 40
0.6666666666666666
 40
0.6666666666666666
 40
0.8333333333333333
 40
0.8333333333333333
 40
0.8333333333333333
 40
0.8333333333333333
 40
1.0
 40
1.0
 40
1.0
 40
1.0
 10
-15.577199999999999
 20
49.917299999999997
 30
0.0
 10
-15.577199999999999
 20
50.756599999999999
 30
0.0
 10
-14.9613
 20
51.504600000000003
 30
0.0
 10
-14.516299999999999
 20
51.945999999999998
 30
0.0
 10
-14.516299999999999
 20
51.945999999999998
 30
0.0
 10
-14.147
 20
52.312399999999997
 30
0.0
 10
-12.670500000000001
 20
52.877299999999998
 30
0.0
 10
-12.2562
 20
52.311599999999999
 30
0.0
 10
-12.2562
 20
52.311599999999999
 30
0.0
 10
-12.4068
 20
52.106299999999997
 30
0.0
 10
-13.6137
 20
51.965299999999999
 30
0.0
 10
-14.4079
 20
50.910699999999999
 30
0.0
 10
-14.4079
 20
50.910699999999999
 30
0.0
 10
-15.0975
 20
49.9938
 30
0.0
 10
-14.6518
 20
49.091700000000003
 30
0.0
 10
-14.4185
 20
48.218299999999999
 30
0.0
 10
-14.4185
 20
48.218299999999999
 30
0.0
 10
-14.4185
 20
48.218299999999999
 30
0.0
 10
-14.650399999999999
 20
48.218299999999999
 30
0.0
 10
-14.650399999999999
 20
48.218299999999999
 30
0.0
 10
-14.650399999999999
 20
48.218299999999999
 30
0.0
 10
-15.0532
 20
48.218299999999999
 30
0.0
 10
-15.577199999999999
 20
49.359499999999997
 30
0.0
 10
-15.577199999999999
 20
49.917299999999997
 30
0.0
  0
SPLINE
  5
61
100
AcDbEntity
  8
RÚteg 1
 62
     7
100
AcDbSpline
210
0.0
220
0.0
230
1.0
 70
     1
 71
     3
 72
    20
 73
    16
 74
     0
 42
0.0000000001
 43
0.0000000001
 40
0.0
 40
0.0
 40
0.0
 40
0.0
 40
0.25
 40
0.25
 40
0.25
 40
0.25
 40
0.5
 40
0.5
 40
0.5
 40
0.5
 40
0.75
 40
0.75
 40
0.75
 40
0.75
 40
1.0
 40
1.0
 40
1.0
 40
1.0
 10
-22.353200000000001
 20
52.1006
 30
0.0
 10
-22.065899999999999
 20
51.784599999999998
 30
0.0
 10
-20.864799999999999
 20
50.709800000000001
 30
0.0
 10
-20.828800000000001
 20
50.380800000000001
 30
0.0
 10
-20.828800000000001
 20
50.380800000000001
 30
0.0
 10
-20.828800000000001
 20
50.380800000000001
 30
0.0
 10
-21.060700000000001
 20
50.380800000000001
 30
0.0
 10
-21.060700000000001
 20
50.380800000000001
 30
0.0
 10
-21.060700000000001
 20
50.380800000000001
 30
0.0
 10
-21.716200000000001
 20
50.380800000000001
 30
0.0
 10
-23.8964
 20
52.800699999999999
 30
0.0
 10
-23.918099999999999
 20
53.7791
 30
0.0
 10
-23.918099999999999
 20
53.7791
 30
0.0
 10
-23.396100000000001
 20
53.767499999999998
 30
0.0
 10
-22.6983
 20
52.4801
 30
0.0
 10
-22.353200000000001
 20
52.1006
 30
0.0
  0
SPLINE
  5
62
100
AcDbEntity
  8
RÚteg 1
 62
     7
100
AcDbSpline
210
0.0
220
0.0
230
1.0
 70
     1
 71
     3
 72
    12
 73
     8
 74
     0
 42
0.0000000001
 43
0.0000000001
 40
0.0
 40
0.0
 40
0.0
 40
0.0
 40
0.5
 40
0.5
 40
0.5
 40
0.5
 40
1.0
 40
1.0
 40
1.0
 40
1.0
 10
-15.808999999999999
 20
55.014800000000001
 30
0.0
 10
-16.1694
 20
54.938299999999998
 30
0.0
 10
-19.1172
 20
55.914200000000001
 30
0.0
 10
-19.207000000000001
 20
56.250599999999999
 30
0.0
 10
-19.207000000000001
 20
56.250599999999999
 30
0.0
 10
-18.270900000000001
 20
56.613700000000001
 30
0.0
 10
-16.172000000000001
 20
55.557099999999998
 30
0.0
 10
-15.808999999999999
 20
55.014800000000001
 30
0.0
  0
ENDSEC
  0
SECTION
  2
OBJECTS
  0
DICTIONARY
  5
19
100
AcDbDictionary
280
     0
281
     1
  3
ACAD_GROUP
350
1A
  3
ACAD_MLINESTYLE
350
1B
  3
ACAD_LAYOUT
350
1E
  3
ACAD_PLOTSETTINGS
350
22
  3
ACAD_PLOTSTYLENAME
350
1F
  3
ACAD_WIPEOUT_VARS
350
23
  0
DICTIONARY
  5
1A
102
{ACAD_REACTORS
330
19
102
}
100
AcDbDictionary
280
     0
281
     1
  0
DICTIONARY
  5
1B
102
{ACAD_REACTORS
330
19
102
}
100
AcDbDictionary
280
     0
281
     1
  3
Standard
350
1C
  0
MLINESTYLE
  5
1C
102
{ACAD_REACTORS
330
1B
102
}
100
AcDbMlineStyle
  2
Standard
 70
     0
  3

 62
     0
 51
90.0
 52
90.0
 71
     2
 49
0.5
 62
   256
  6
BYLAYER
 49
-0.5
 62
   256
  6
BYLAYER
  0
ACDBDICTIONARYWDFLT
  5
1F
102
{ACAD_REACTORS
330
19
102
}
100
AcDbDictionary
281
     1
  3
Normal
350
1D
100
AcDbDictionaryWithDefault
340
1D
  0
ACDBPLACEHOLDER
  5
1D
102
{ACAD_REACTORS
330
1F
102
}
  0
LAYOUT
  5
20
102
{ACAD_REACTORS
330
1E
102
}
100
AcDbPlotSettings
  1

  2

  4

  6

 40
0.0
 41
0.0
 42
0.0
 43
0.0
 44
0.0
 45
0.0
 46
0.0
 47
0.0
 48
0.0
 49
0.0
140
0.0
141
0.0
142
1.0
143
1.0
 70
  1024
 72
     0
 73
     0
 74
     0
  7

 75
     0
147
1.0
148
0.0
149
0.0
100
AcDbLayout
  1
Model
 70
     0
 71
     0
 10
0.0
 20
0.0
 11
0.0
 21
0.0
 12
0.0
 22
0.0
 32
0.0
 14
0.0
 24
0.0
 34
0.0
 15
0.0
 25
0.0
 35
0.0
146
0.0
 13
0.0
 23
0.0
 33
0.0
 16
0.0
 26
0.0
 36
0.0
 17
0.0
 27
0.0
 37
0.0
 76
     0
330
A
331
0
345
0
346
0
  0
LAYOUT
  5
21
102
{ACAD_REACTORS
330
1E
102
}
100
AcDbPlotSettings
  1

  2

  4

  6

 40
0.0
 41
0.0
 42
0.0
 43
0.0
 44
0.0
 45
0.0
 46
0.0
 47
0.0
 48
0.0
 49
0.0
140
0.0
141
0.0
142
1.0
143
1.0
 70
     0
 72
     0
 73
     0
 74
     0
  7

 75
     0
147
1.0
148
0.0
149
0.0
100
AcDbLayout
  1
Layout1
 70
     0
 71
     0
 10
0.0
 20
0.0
 11
0.0
 21
0.0
 12
0.0
 22
0.0
 32
0.0
 14
0.0
 24
0.0
 34
0.0
 15
0.0
 25
0.0
 35
0.0
146
0.0
 13
0.0
 23
0.0
 33
0.0
 16
0.0
 26
0.0
 36
0.0
 17
0.0
 27
0.0
 37
0.0
 76
     0
330
B
331
0
345
0
346
0
  0
DICTIONARY
  5
1E
102
{ACAD_REACTORS
330
19
102
}
100
AcDbDictionary
280
     0
281
     1
  3
Layout1
350
21
  3
Model
350
20
  0
DICTIONARY
  5
22
102
{ACAD_REACTORS
330
19
102
}
100
AcDbDictionary
280
     0
281
     1
  0
WIPEOUTVARIABLES
  5
23
100
AcDbWipeoutVariables
 70
     1
  0
ENDSEC
  0
EOF
