  0
SECTION
  2
HEADER
  9
$ACADVER
  1
AC1015
  9
$ACADMAINTVER
 70
     6
  9
$DWGCODEPAGE
  3
DOS850
  9
$INSBASE
 10
0.0
 20
0.0
 30
0.0
  9
$EXTMIN
 10
-93.0382
 20
-0.3268
 30
1.000000E+20
  9
$EXTMAX
 10
47.1382
 20
80.3882
 30
-1.000000E+20
  9
$LIMMIN
 10
0.0
 20
0.0
  9
$LIMMAX
 10
0.0
 20
0.0
  9
$ORTHOMODE
 70
     0
  9
$REGENMODE
 70
     1
  9
$FILLMODE
 70
     1
  9
$QTEXTMODE
 70
     0
  9
$MIRRTEXT
 70
     1
  9
$LTSCALE
 40
1.0
  9
$ATTMODE
 70
     1
  9
$TEXTSIZE
 40
0.2
  9
$TRACEWID
 40
0.05
  9
$TEXTSTYLE
  7
Standard
  9
$CLAYER
  8
0
  9
$CELTYPE
  6
Continuous
  9
$CECOLOR
 62
   256
  9
$CELTSCALE
 40
1.0
  9
$DISPSILH
 70
     0
  9
$DIMSCALE
 40
1.0
  9
$DIMASZ
 40
0.18
  9
$DIMEXO
 40
0.0625
  9
$DIMDLI
 40
0.38
  9
$DIMRND
 40
0.0
  9
$DIMDLE
 40
0.0
  9
$DIMEXE
 40
0.18
  9
$DIMTP
 40
0.0
  9
$DIMTM
 40
0.0
  9
$DIMTXT
 40
0.18
  9
$DIMCEN
 40
0.09
  9
$DIMTSZ
 40
0.0
  9
$DIMTOL
 70
     0
  9
$DIMLIM
 70
     0
  9
$DIMTIH
 70
     1
  9
$DIMTOH
 70
     1
  9
$DIMSE1
 70
     0
  9
$DIMSE2
 70
     0
  9
$DIMTAD
 70
     0
  9
$DIMZIN
 70
     0
  9
$DIMBLK
  1

  9
$DIMASO
 70
     1
  9
$DIMSHO
 70
     1
  9
$DIMPOST
  1

  9
$DIMAPOST
  1

  9
$DIMALT
 70
     0
  9
$DIMALTD
 70
     2
  9
$DIMALTF
 40
25.4
  9
$DIMLFAC
 40
1.0
  9
$DIMTOFL
 70
     0
  9
$DIMTVP
 40
0.0
  9
$DIMTIX
 70
     0
  9
$DIMSOXD
 70
     0
  9
$DIMSAH
 70
     0
  9
$DIMBLK1
  1

  9
$DIMBLK2
  1

  9
$DIMSTYLE
  2
Standard
  9
$DIMCLRD
 70
     0
  9
$DIMCLRE
 70
     0
  9
$DIMCLRT
 70
     0
  9
$DIMTFAC
 40
1.0
  9
$DIMGAP
 40
0.09
  9
$DIMJUST
 70
     0
  9
$DIMSD1
 70
     0
  9
$DIMSD2
 70
     0
  9
$DIMTOLJ
 70
     1
  9
$DIMTZIN
 70
     0
  9
$DIMALTZ
 70
     0
  9
$DIMALTTZ
 70
     0
  9
$DIMUPT
 70
     0
  9
$DIMDEC
 70
     4
  9
$DIMTDEC
 70
     4
  9
$DIMALTU
 70
     2
  9
$DIMALTTD
 70
     2
  9
$DIMTXSTY
  7
Standard
  9
$DIMAUNIT
 70
     0
  9
$DIMADEC
 70
     0
  9
$DIMALTRND
 40
0.0
  9
$DIMAZIN
 70
     0
  9
$DIMDSEP
 70
     0
  9
$DIMATFIT
 70
     3
  9
$DIMFRAC
 70
     0
  9
$DIMLDRBLK
  1

  9
$DIMLUNIT
 70
     2
  9
$DIMLWD
 70
     0
  9
$DIMLWE
 70
     0
  9
$DIMTMOVE
 70
     0
  9
$LUNITS
 70
     2
  9
$LUPREC
 70
     4
  9
$SKETCHINC
 40
0.1
  9
$FILLETRAD
 40
0.0
  9
$AUNITS
 70
     0
  9
$AUPREC
 70
     0
  9
$MENU
  1
acad
  9
$ELEVATION
 40
0.0
  9
$PELEVATION
 40
0.0
  9
$THICKNESS
 40
0.0
  9
$LIMCHECK
 70
     0
  9
$CHAMFERA
 40
0.0
  9
$CHAMFERB
 40
0.0
  9
$CHAMFERC
 40
0.0
  9
$CHAMFERD
 40
0.0
  9
$SKPOLY
 70
     0
  9
$TDCREATE
 40
0.000000000
  9
$TDUCREATE
 40
0.000000000
  9
$TDUPDATE
 40
0.000000000
  9
$TDUUPDATE
 40
0.000000000
  9
$TDINDWG
 40
0.0000000000
  9
$TDUSRTIMER
 40
0.0000000000
  9
$USRTIMER
 70
     1
  9
$ANGBASE
 50
0.0
  9
$ANGDIR
 70
     0
  9
$PDMODE
 70
     0
  9
$PDSIZE
 40
0.0
  9
$PLINEWID
 40
0.0
  9
$SPLFRAME
 70
     0
  9
$SPLINETYPE
 70
     6
  9
$SPLINESEGS
 70
     8
  9
$HANDSEED
  5
3B
  9
$SURFTAB1
 70
     6
  9
$SURFTAB2
 70
     6
  9
$SURFTYPE
 70
     6
  9
$SURFU
 70
     6
  9
$SURFV
 70
     6
  9
$UCSBASE
  2

  9
$UCSNAME
  2

  9
$UCSORG
 10
0.0
 20
0.0
 30
0.0
  9
$UCSXDIR
 10
1.0
 20
0.0
 30
0.0
  9
$UCSYDIR
 10
0.0
 20
1.0
 30
0.0
  9
$UCSORTHOREF
  2

  9
$UCSORTHOVIEW
 70
     0
  9
$UCSORGTOP
 10
0.0
 20
0.0
 30
0.0
  9
$UCSORGBOTTOM
 10
0.0
 20
0.0
 30
0.0
  9
$UCSORGLEFT
 10
0.0
 20
0.0
 30
0.0
  9
$UCSORGRIGHT
 10
0.0
 20
0.0
 30
0.0
  9
$UCSORGFRONT
 10
0.0
 20
0.0
 30
0.0
  9
$UCSORGBACK
 10
0.0
 20
0.0
 30
0.0
  9
$PUCSBASE
  2

  9
$PUCSNAME
  2

  9
$PUCSORG
 10
0.0
 20
0.0
 30
0.0
  9
$PUCSXDIR
 10
1.0
 20
0.0
 30
0.0
  9
$PUCSYDIR
 10
0.0
 20
1.0
 30
0.0
  9
$PUCSORTHOREF
  2

  9
$PUCSORTHOVIEW
 70
     0
  9
$PUCSORGTOP
 10
0.0
 20
0.0
 30
0.0
  9
$PUCSORGBOTTOM
 10
0.0
 20
0.0
 30
0.0
  9
$PUCSORGLEFT
 10
0.0
 20
0.0
 30
0.0
  9
$PUCSORGRIGHT
 10
0.0
 20
0.0
 30
0.0
  9
$PUCSORGFRONT
 10
0.0
 20
0.0
 30
0.0
  9
$PUCSORGBACK
 10
0.0
 20
0.0
 30
0.0
  9
$USERI1
 70
     0
  9
$USERI2
 70
     0
  9
$USERI3
 70
     0
  9
$USERI4
 70
     0
  9
$USERI5
 70
     0
  9
$USERR1
 40
0.0
  9
$USERR2
 40
0.0
  9
$USERR3
 40
0.0
  9
$USERR4
 40
0.0
  9
$USERR5
 40
0.0
  9
$WORLDVIEW
 70
     1
  9
$SHADEDGE
 70
     3
  9
$SHADEDIF
 70
    70
  9
$TILEMODE
 70
     1
  9
$MAXACTVP
 70
    16
  9
$PINSBASE
 10
0.0
 20
0.0
 30
0.0
  9
$PLIMCHECK
 70
     0
  9
$PEXTMIN
 10
1.000000E+20
 20
1.000000E+20
 30
1.000000E+20
  9
$PEXTMAX
 10
-1.000000E+20
 20
-1.000000E+20
 30
-1.000000E+20
  9
$PLIMMIN
 10
0.0
 20
0.0
  9
$PLIMMAX
 10
12.0
 20
9.0
  9
$UNITMODE
 70
     0
  9
$VISRETAIN
 70
     0
  9
$PLINEGEN
 70
     1
  9
$PSLTSCALE
 70
     0
  9
$TREEDEPTH
 70
  3020
  9
$CMLSTYLE
  2
Standard
  9
$CMLJUST
 70
     0
  9
$CMLSCALE
 40
1.0
  9
$PROXYGRAPHICS
 70
     0
  9
$MEASUREMENT
 70
     0
  9
$CELWEIGHT
370
     0
  9
$ENDCAPS
280
     0
  9
$JOINSTYLE
280
     0
  9
$LWDISPLAY
290
     0
  9
$INSUNITS
 70
     4
  9
$HYPERLINKBASE
  1

  9
$XEDIT
290
     1
  9
$CEPSNTYPE
380
     0
  9
$PSTYLEMODE
290
     1
  9
$FINGERPRINTGUID
  2

  9
$VERSIONGUID
  2

  9
$EXTNAMES
290
     1
  9
$PSVPSCALE
 40
0.0
  0
ENDSEC
  0
SECTION
  2
CLASSES
  0
CLASS
  1
LWPOLYLINE
  2
AcDbPolyline
  3
AutoCAD 2000
 90
    32768
280
     0
281
     1
  0
CLASS
  1
IMAGE
  2
AcDbRasterImage
  3
ISM
 90
    32895
280
     0
281
     1
  0
CLASS
  1
OLE2FRAME
  2
AcDbOle2Frame
  3
AutoCAD 2000
 90
    32768
280
     0
281
     1
  0
CLASS
  1
HATCH
  2
AcDbHatch
  3
AutoCAD 2000
 90
    32768
280
     0
281
     1
  0
CLASS
  1
DICTIONARYVAR
  2
AcDbDictionaryVar
  3
AutoCAD 2000
 90
    32768
280
     0
281
     0
  0
CLASS
  1
RASTERVARIABLES
  2
AcDbRasterVariables
  3
ISM
 90
    32768
280
     0
281
     0
  0
CLASS
  1
IMAGEDEF
  2
AcDbRasterImageDef
  3
ISM
 90
    32768
280
     0
281
     0
  0
CLASS
  1
IMAGEDEF_REACTOR
  2
AcDbRasterImageDefReactor
  3
ISM
 90
    32769
280
     0
281
     0
  0
CLASS
  1
IDBUFFER
  2
AcDbIdBuffer
  3
AutoCAD 2000
 90
    32768
280
     0
281
     0
  0
CLASS
  1
SPATIAL_FILTER
  2
AcDbSpatialFilter
  3
AutoCAD 2000
 90
    32768
280
     0
281
     0
  0
CLASS
  1
XRECORD
  2
AcDbXrecord
  3
AutoCAD 2000
 90
    32768
280
     0
281
     0
  0
CLASS
  1
SORTENTSTABLE
  2
AcDbSortentsTable
  3
AutoCAD 2000
 90
    32768
280
     0
281
     0
  0
CLASS
  1
LAYER_INDEX
  2
AcDbLayerIndex
  3
AutoCAD 2000
 90
    32768
280
     0
281
     0
  0
CLASS
  1
SPATIAL_INDEX
  2
AcDbSpatialIndex
  3
AutoCAD 2000
 90
    32768
280
     0
281
     0
  0
CLASS
  1
OBJECT_PTR
  2
CAseDLPNTableRecord
  3
"ASE-LPNTableRecord"
 90
    32769
280
     0
281
     0
  0
CLASS
  1
LAYOUT
  2
AcDbLayout
  3
AutoCAD 2000
 90
        0
280
     0
281
     0
  0
CLASS
  1
PLOTSETTINGS
  2
AcDbPlotSettings
  3
AutoCAD 2000
 90
    32768
280
     0
281
     0
  0
CLASS
  1
ACDBDICTIONARYWDFLT
  2
AcDbDictionaryWithDefault
  3
AutoCAD 2000
 90
        0
280
     0
281
     0
  0
CLASS
  1
ACDBPLACEHOLDER
  2
AcDbPlaceHolder
  3
AutoCAD 2000
 90
        0
280
     0
281
     0
  0
CLASS
  1
VBA_PROJECT
  2
AcDbVbaProject
  3
acadvba
 90
    32768
280
     0
281
     0
  0
CLASS
  1
WIPEOUT
  2
AcDbWipeout
  3
WipeOut|AutoCAD Express Tool|expresstools@autodesk.com
 90
    32895
280
     0
281
     1
  0
CLASS
  1
WIPEOUTVARIABLES
  2
AcDbWipeoutVariables
  3
WipeOut|AutoCAD Express Tool|expresstools@autodesk.com
 90
        0
280
     0
281
     0
  0
CLASS
  1
RTEXT
  2
RText
  3
RText|AutoCAD Express Tool|expresstools@autodesk.com
 90
    32768
280
     0
281
     1
  0
CLASS
  1
ARCALIGNEDTEXT
  2
AcDbArcAlignedText
  3
ATEXT|AutoCAD Express Tool|expresstools@autodesk.com
 90
    32768
280
     0
281
     1
  0
ENDSEC
  0
SECTION
  2
TABLES
  0
TABLE
  2
VPORT
  5
7
100
AcDbSymbolTable
 70
     1
  0
VPORT
  5
15
100
AcDbSymbolTableRecord
100
AcDbViewportTableRecord
  2
*ACTIVE
 70
     0
 10
0.0
 20
0.0
 11
1.0
 21
1.0
 12
6.591288
 22
4.579184
 13
0.0
 23
0.0
 14
1.0
 24
1.0
 15
0.0
 25
0.0
 16
0.0
 26
0.0
 36
1.0
 17
0.0
 27
0.0
 37
0.0
 40
9.158369
 41
0.688564
 42
50.0
 43
0.0
 44
0.0
 50
0.0
 51
0.0
 71
     0
 72
   100
 73
     1
 74
     1
 75
     0
 76
     0
 77
     0
 78
     0
281
     0
 65
     0
110
0.0
120
0.0
130
0.0
111
1.0
121
0.0
131
0.0
112
0.0
122
1.0
132
0.0
345
0
346
0
 79
     0
146
0.0
  0
ENDTAB
  0
TABLE
  2
LTYPE
  5
4
100
AcDbSymbolTable
 70
     3
  0
LTYPE
  5
11
100
AcDbSymbolTableRecord
100
AcDbLinetypeTableRecord
  2
ByBlock
 70
    64
  3

 72
    65
 73
     0
 40
0.0
  0
LTYPE
  5
12
100
AcDbSymbolTableRecord
100
AcDbLinetypeTableRecord
  2
ByLayer
 70
    64
  3

 72
    65
 73
     0
 40
0.0
  0
LTYPE
  5
13
100
AcDbSymbolTableRecord
100
AcDbLinetypeTableRecord
  2
Continuous
 70
    64
  3
Solid line
 72
    65
 73
     0
 40
0.0
  0
ENDTAB
  0
TABLE
  2
LAYER
  5
2
100
AcDbSymbolTable
 70
     2
  0
LAYER
  5
14
100
AcDbSymbolTableRecord
100
AcDbLayerTableRecord
  2
0
 70
     0
 62
     7
  6
Continuous
290
     1
370
    -3
390
1D
  0
LAYER
  5
24
100
AcDbSymbolTableRecord
100
AcDbLayerTableRecord
  2
RÚteg 1
 70
     0
 62
     7
  6
Continuous
290
     1
370
    -3
390
1F
  0
ENDTAB
  0
TABLE
  2
STYLE
  5
3
100
AcDbSymbolTable
 70
     1
  0
STYLE
  5
17
100
AcDbSymbolTableRecord
100
AcDbTextStyleTableRecord
  2
Standard
 70
     0
 40
0.0
 41
1.0
 50
0.0
 71
     0
 42
0.0
  3
txt
  4

  0
ENDTAB
  0
TABLE
  2
VIEW
  5
5
100
AcDbSymbolTable
 70
     0
  0
ENDTAB
  0
TABLE
  2
UCS
  5
6
100
AcDbSymbolTable
 70
     0
  0
ENDTAB
  0
TABLE
  2
APPID
  5
8
100
AcDbSymbolTable
 70
     1
  0
APPID
  5
16
100
AcDbSymbolTableRecord
100
AcDbRegAppTableRecord
  2
ACAD
 70
     0
  0
ENDTAB
  0
TABLE
  2
DIMSTYLE
  5
9
100
AcDbSymbolTable
 70
     1
100
AcDbDimStyleTable
 71
     0
  0
DIMSTYLE
105
18
100
AcDbSymbolTableRecord
100
AcDbDimStyleTableRecord
  2
Standard
 70
     0
  3

  4

 40
1.0
 41
0.18
 42
0.0625
 43
0.38
 44
0.18
 45
0.0
 46
0.0
 47
0.0
 48
0.0
 71
     0
 72
     0
 73
     1
 74
     1
 75
     0
 76
     0
 77
     0
 78
     0
 79
     0
140
0.18
141
0.09
142
0.0
143
25.4
144
1.0
145
0.0
146
1.0
147
0.09
148
0.0
170
     0
171
     2
172
     0
173
     0
174
     0
175
     0
176
     0
177
     0
178
     0
179
     0
271
     4
272
     4
273
     2
274
     2
275
     0
276
     0
277
     2
278
    46
279
     0
280
     0
281
     0
282
     0
283
     1
284
     0
285
     0
286
     0
288
     0
340
17
341
0
342
0
343
0
344
0
371
    -2
372
    -2
  0
ENDTAB
  0
TABLE
  2
BLOCK_RECORD
  5
1
100
AcDbSymbolTable
 70
     0
  0
BLOCK_RECORD
  5
A
100
AcDbSymbolTableRecord
100
AcDbBlockTableRecord
  2
*MODEL_SPACE
340
20
  0
BLOCK_RECORD
  5
B
100
AcDbSymbolTableRecord
100
AcDbBlockTableRecord
  2
*PAPER_SPACE
340
21
  0
ENDTAB
  0
ENDSEC
  0
SECTION
  2
BLOCKS
  0
BLOCK
  5
D
100
AcDbEntity
  8
0
100
AcDbBlockBegin
  2
*MODEL_SPACE
 70
     0
 10
0.0
 20
0.0
 30
0.0
  3
*MODEL_SPACE
  1

  0
ENDBLK
  5
E
100
AcDbEntity
  8
0
100
AcDbBlockEnd
  0
BLOCK
  5
F
100
AcDbEntity
 67
     1
  8
0
100
AcDbBlockBegin
  2
*PAPER_SPACE
 70
     0
 10
0.0
 20
0.0
 30
0.0
  3
*PAPER_SPACE
  1

  0
ENDBLK
  5
10
100
AcDbEntity
 67
     1
  8
0
100
AcDbBlockEnd
  0
ENDSEC
  0
SECTION
  2
ENTITIES
  0
SPLINE
  5
25
100
AcDbEntity
  8
RÚteg 1
 62
     7
100
AcDbSpline
210
0.0
220
0.0
230
1.0
 70
     1
 71
     3
 72
    60
 73
    56
 74
     0
 42
0.0000000001
 43
0.0000000001
 40
0.0
 40
0.0
 40
0.0
 40
0.0
 40
0.0714285714285714
 40
0.0714285714285714
 40
0.0714285714285714
 40
0.0714285714285714
 40
0.1428571428571429
 40
0.1428571428571429
 40
0.1428571428571429
 40
0.1428571428571429
 40
0.2142857142857143
 40
0.2142857142857143
 40
0.2142857142857143
 40
0.2142857142857143
 40
0.2857142857142857
 40
0.2857142857142857
 40
0.2857142857142857
 40
0.2857142857142857
 40
0.3571428571428571
 40
0.3571428571428571
 40
0.3571428571428571
 40
0.3571428571428571
 40
0.4285714285714285
 40
0.4285714285714285
 40
0.4285714285714285
 40
0.4285714285714285
 40
0.4999999999999999
 40
0.4999999999999999
 40
0.4999999999999999
 40
0.4999999999999999
 40
0.5714285714285713
 40
0.5714285714285713
 40
0.5714285714285713
 40
0.5714285714285713
 40
0.6428571428571427
 40
0.6428571428571427
 40
0.6428571428571427
 40
0.6428571428571427
 40
0.7142857142857141
 40
0.7142857142857141
 40
0.7142857142857141
 40
0.7142857142857141
 40
0.7857142857142855
 40
0.7857142857142855
 40
0.7857142857142855
 40
0.7857142857142855
 40
0.8571428571428569
 40
0.8571428571428569
 40
0.8571428571428569
 40
0.8571428571428569
 40
0.9285714285714283
 40
0.9285714285714283
 40
0.9285714285714283
 40
0.9285714285714283
 40
1.0
 40
1.0
 40
1.0
 40
1.0
 10
-54.941200000000002
 20
67.365799999999993
 30
0.0
 10
-38.133299999999998
 20
65.347999999999999
 30
0.0
 10
-25.100000000000001
 20
51.037399999999998
 30
0.0
 10
-25.100000000000001
 20
33.686399999999999
 30
0.0
 10
-25.100000000000001
 20
33.686399999999999
 30
0.0
 10
-25.100000000000001
 20
14.953200000000001
 30
0.0
 10
-40.291899999999998
 20
-0.2386
 30
0.0
 10
-59.024999999999999
 20
-0.2386
 30
0.0
 10
-59.024999999999999
 20
-0.2386
 30
0.0
 10
-77.758099999999999
 20
-0.2386
 30
0.0
 10
-92.950000000000003
 20
14.953200000000001
 30
0.0
 10
-92.950000000000003
 20
33.686399999999999
 30
0.0
 10
-92.950000000000003
 20
33.686399999999999
 30
0.0
 10
-92.950000000000003
 20
51.037399999999998
 30
0.0
 10
-79.916700000000006
 20
65.347999999999999
 30
0.0
 10
-63.108800000000002
 20
67.365799999999993
 30
0.0
 10
-63.108800000000002
 20
67.365799999999993
 30
0.0
 10
-63.108800000000002
 20
67.365799999999993
 30
0.0
 10
-63.108800000000002
 20
72.757999999999996
 30
0.0
 10
-63.108800000000002
 20
72.757999999999996
 30
0.0
 10
-63.108800000000002
 20
72.757999999999996
 30
0.0
 10
-63.108800000000002
 20
73.139300000000006
 30
0.0
 10
-62.796599999999998
 20
73.4512
 30
0.0
 10
-62.415799999999997
 20
73.4512
 30
0.0
 10
-62.415799999999997
 20
73.4512
 30
0.0
 10
-62.415799999999997
 20
73.4512
 30
0.0
 10
-62.299399999999999
 20
73.4512
 30
0.0
 10
-62.299399999999999
 20
73.4512
 30
0.0
 10
-62.299399999999999
 20
73.4512
 30
0.0
 10
-62.8827
 20
74.173400000000001
 30
0.0
 10
-63.232399999999998
 20
75.092200000000005
 30
0.0
 10
-63.232399999999998
 20
76.092600000000004
 30
0.0
 10
-63.232399999999998
 20
76.092600000000004
 30
0.0
 10
-63.232399999999998
 20
78.415800000000004
 30
0.0
 10
-61.348300000000002
 20
80.299999999999997
 30
0.0
 10
-59.024999999999999
 20
80.299999999999997
 30
0.0
 10
-59.024999999999999
 20
80.299999999999997
 30
0.0
 10
-56.701700000000002
 20
80.299999999999997
 30
0.0
 10
-54.817599999999999
 20
78.415800000000004
 30
0.0
 10
-54.817599999999999
 20
76.092600000000004
 30
0.0
 10
-54.817599999999999
 20
76.092600000000004
 30
0.0
 10
-54.817599999999999
 20
75.092200000000005
 30
0.0
 10
-55.167299999999997
 20
74.173400000000001
 30
0.0
 10
-55.750700000000002
 20
73.4512
 30
0.0
 10
-55.750700000000002
 20
73.4512
 30
0.0
 10
-55.750700000000002
 20
73.4512
 30
0.0
 10
-55.634399999999999
 20
73.4512
 30
0.0
 10
-55.634399999999999
 20
73.4512
 30
0.0
 10
-55.634399999999999
 20
73.4512
 30
0.0
 10
-55.2532
 20
73.4512
 30
0.0
 10
-54.941200000000002
 20
73.139300000000006
 30
0.0
 10
-54.941200000000002
 20
72.757999999999996
 30
0.0
 10
-54.941200000000002
 20
72.757999999999996
 30
0.0
 10
-54.941200000000002
 20
72.757999999999996
 30
0.0
 10
-54.941200000000002
 20
67.365799999999993
 30
0.0
 10
-54.941200000000002
 20
67.365799999999993
 30
0.0
  0
SPLINE
  5
26
100
AcDbEntity
  8
RÚteg 1
 62
     7
100
AcDbSpline
210
0.0
220
0.0
230
1.0
 70
     1
 71
     3
 72
    20
 73
    16
 74
     0
 42
0.0000000001
 43
0.0000000001
 40
0.0
 40
0.0
 40
0.0
 40
0.0
 40
0.25
 40
0.25
 40
0.25
 40
0.25
 40
0.5
 40
0.5
 40
0.5
 40
0.5
 40
0.75
 40
0.75
 40
0.75
 40
0.75
 40
1.0
 40
1.0
 40
1.0
 40
1.0
 10
-59.024999999999999
 20
78.349199999999996
 30
0.0
 10
-57.7789
 20
78.349199999999996
 30
0.0
 10
-56.768300000000004
 20
77.338800000000006
 30
0.0
 10
-56.768300000000004
 20
76.092600000000004
 30
0.0
 10
-56.768300000000004
 20
76.092600000000004
 30
0.0
 10
-56.768300000000004
 20
74.846800000000002
 30
0.0
 10
-57.7789
 20
73.835999999999999
 30
0.0
 10
-59.024999999999999
 20
73.835999999999999
 30
0.0
 10
-59.024999999999999
 20
73.835999999999999
 30
0.0
 10
-60.271099999999997
 20
73.835999999999999
 30
0.0
 10
-61.281700000000001
 20
74.846800000000002
 30
0.0
 10
-61.281700000000001
 20
76.092600000000004
 30
0.0
 10
-61.281700000000001
 20
76.092600000000004
 30
0.0
 10
-61.281700000000001
 20
77.338800000000006
 30
0.0
 10
-60.271099999999997
 20
78.349199999999996
 30
0.0
 10
-59.024999999999999
 20
78.349199999999996
 30
0.0
  0
SPLINE
  5
27
100
AcDbEntity
  8
RÚteg 1
 62
     7
100
AcDbSpline
210
0.0
220
0.0
230
1.0
 70
     1
 71
     3
 72
    52
 73
    48
 74
     0
 42
0.0000000001
 43
0.0000000001
 40
0.0
 40
0.0
 40
0.0
 40
0.0
 40
0.0833333333333333
 40
0.0833333333333333
 40
0.0833333333333333
 40
0.0833333333333333
 40
0.1666666666666667
 40
0.1666666666666667
 40
0.1666666666666667
 40
0.1666666666666667
 40
0.25
 40
0.25
 40
0.25
 40
0.25
 40
0.3333333333333333
 40
0.3333333333333333
 40
0.3333333333333333
 40
0.3333333333333333
 40
0.4166666666666666
 40
0.4166666666666666
 40
0.4166666666666666
 40
0.4166666666666666
 40
0.4999999999999999
 40
0.4999999999999999
 40
0.4999999999999999
 40
0.4999999999999999
 40
0.5833333333333333
 40
0.5833333333333333
 40
0.5833333333333333
 40
0.5833333333333333
 40
0.6666666666666666
 40
0.6666666666666666
 40
0.6666666666666666
 40
0.6666666666666666
 40
0.75
 40
0.75
 40
0.75
 40
0.75
 40
0.8333333333333334
 40
0.8333333333333334
 40
0.8333333333333334
 40
0.8333333333333334
 40
0.9166666666666667
 40
0.9166666666666667
 40
0.9166666666666667
 40
0.9166666666666667
 40
1.0
 40
1.0
 40
1.0
 40
1.0
 10
-80.064599999999999
 20
55.925899999999999
 30
0.0
 10
-78.727599999999995
 20
54.832099999999997
 30
0.0
 10
-77.308999999999997
 20
53.804499999999997
 30
0.0
 10
-75.977699999999999
 20
52.68
 30
0.0
 10
-75.977699999999999
 20
52.68
 30
0.0
 10
-75.420500000000004
 20
52.209400000000002
 30
0.0
 10
-74.073599999999999
 20
51.099899999999998
 30
0.0
 10
-73.490099999999998
 20
50.799900000000001
 30
0.0
 10
-73.490099999999998
 20
50.799900000000001
 30
0.0
 10
-73.0989
 20
50.598700000000001
 30
0.0
 10
-70.916499999999999
 20
49.373399999999997
 30
0.0
 10
-70.769000000000005
 20
49.152999999999999
 30
0.0
 10
-70.769000000000005
 20
49.152999999999999
 30
0.0
 10
-70.769000000000005
 20
49.152999999999999
 30
0.0
 10
-73.337699999999998
 20
44.922800000000002
 30
0.0
 10
-73.337699999999998
 20
44.922800000000002
 30
0.0
 10
-73.337699999999998
 20
44.922800000000002
 30
0.0
 10
-73.337699999999998
 20
44.922800000000002
 30
0.0
 10
-66.713200000000001
 20
38.171100000000003
 30
0.0
 10
-66.713200000000001
 20
38.171100000000003
 30
0.0
 10
-66.713200000000001
 20
38.171100000000003
 30
0.0
 10
-66.713200000000001
 20
38.171100000000003
 30
0.0
 10
-75.9268
 20
40.4803
 30
0.0
 10
-75.9268
 20
40.4803
 30
0.0
 10
-75.9268
 20
40.4803
 30
0.0
 10
-76.010800000000003
 20
40.165700000000001
 30
0.0
 10
-76.882199999999997
 20
38.6693
 30
0.0
 10
-77.1173
 20
38.244399999999999
 30
0.0
 10
-77.1173
 20
38.244399999999999
 30
0.0
 10
-77.250399999999999
 20
38.003799999999998
 30
0.0
 10
-78.270200000000003
 20
36.121000000000002
 30
0.0
 10
-78.358999999999995
 20
36.121000000000002
 30
0.0
 10
-78.358999999999995
 20
36.121000000000002
 30
0.0
 10
-78.505700000000004
 20
36.121000000000002
 30
0.0
 10
-80.713700000000003
 20
37.451900000000002
 30
0.0
 10
-81.009500000000003
 20
37.6235
 30
0.0
 10
-81.009500000000003
 20
37.6235
 30
0.0
 10
-81.773399999999995
 20
38.066400000000002
 30
0.0
 10
-83.017399999999995
 20
38.4908
 30
0.0
 10
-83.8827
 20
38.832000000000001
 30
0.0
 10
-83.8827
 20
38.832000000000001
 30
0.0
 10
-85.3994
 20
39.429900000000004
 30
0.0
 10
-87.264300000000006
 20
40.058100000000003
 30
0.0
 10
-88.828299999999999
 20
40.721699999999998
 30
0.0
 10
-88.828299999999999
 20
40.721699999999998
 30
0.0
 10
-87.437100000000001
 20
46.634900000000002
 30
0.0
 10
-84.331599999999995
 20
51.887500000000003
 30
0.0
 10
-80.064599999999999
 20
55.925899999999999
 30
0.0
  0
SPLINE
  5
28
100
AcDbEntity
  8
RÚteg 1
 62
     7
100
AcDbSpline
210
0.0
220
0.0
230
1.0
 70
     1
 71
     3
 72
    20
 73
    16
 74
     0
 42
0.0000000001
 43
0.0000000001
 40
0.0
 40
0.0
 40
0.0
 40
0.0
 40
0.25
 40
0.25
 40
0.25
 40
0.25
 40
0.5
 40
0.5
 40
0.5
 40
0.5
 40
0.75
 40
0.75
 40
0.75
 40
0.75
 40
1.0
 40
1.0
 40
1.0
 40
1.0
 10
-88.997900000000001
 20
39.958100000000002
 30
0.0
 10
-88.997900000000001
 20
39.958100000000002
 30
0.0
 10
-85.016000000000005
 20
33.688099999999999
 30
0.0
 10
-85.016000000000005
 20
33.688099999999999
 30
0.0
 10
-85.016000000000005
 20
33.688099999999999
 30
0.0
 10
-85.016000000000005
 20
33.688099999999999
 30
0.0
 10
-89.008499999999998
 20
27.462700000000002
 30
0.0
 10
-89.008499999999998
 20
27.462700000000002
 30
0.0
 10
-89.008499999999998
 20
27.462700000000002
 30
0.0
 10
-89.423500000000004
 20
29.4727
 30
0.0
 10
-89.642399999999995
 20
31.553799999999999
 30
0.0
 10
-89.642399999999995
 20
33.686399999999999
 30
0.0
 10
-89.642399999999995
 20
33.686399999999999
 30
0.0
 10
-89.642399999999995
 20
35.835999999999999
 30
0.0
 10
-89.419700000000006
 20
37.933700000000002
 30
0.0
 10
-88.997900000000001
 20
39.958100000000002
 30
0.0
  0
SPLINE
  5
29
100
AcDbEntity
  8
RÚteg 1
 62
     7
100
AcDbSpline
210
0.0
220
0.0
230
1.0
 70
     1
 71
     3
 72
    52
 73
    48
 74
     0
 42
0.0000000001
 43
0.0000000001
 40
0.0
 40
0.0
 40
0.0
 40
0.0
 40
0.0833333333333333
 40
0.0833333333333333
 40
0.0833333333333333
 40
0.0833333333333333
 40
0.1666666666666667
 40
0.1666666666666667
 40
0.1666666666666667
 40
0.1666666666666667
 40
0.25
 40
0.25
 40
0.25
 40
0.25
 40
0.3333333333333333
 40
0.3333333333333333
 40
0.3333333333333333
 40
0.3333333333333333
 40
0.4166666666666666
 40
0.4166666666666666
 40
0.4166666666666666
 40
0.4166666666666666
 40
0.4999999999999999
 40
0.4999999999999999
 40
0.4999999999999999
 40
0.4999999999999999
 40
0.5833333333333333
 40
0.5833333333333333
 40
0.5833333333333333
 40
0.5833333333333333
 40
0.6666666666666666
 40
0.6666666666666666
 40
0.6666666666666666
 40
0.6666666666666666
 40
0.75
 40
0.75
 40
0.75
 40
0.75
 40
0.8333333333333334
 40
0.8333333333333334
 40
0.8333333333333334
 40
0.8333333333333334
 40
0.9166666666666667
 40
0.9166666666666667
 40
0.9166666666666667
 40
0.9166666666666667
 40
1.0
 40
1.0
 40
1.0
 40
1.0
 10
-88.833100000000002
 20
26.669899999999998
 30
0.0
 10
-87.236000000000004
 20
27.3248
 30
0.0
 10
-85.382300000000001
 20
27.941400000000002
 30
0.0
 10
-83.830699999999993
 20
28.560500000000001
 30
0.0
 10
-83.830699999999993
 20
28.560500000000001
 30
0.0
 10
-82.941100000000006
 20
28.915299999999998
 30
0.0
 10
-81.718100000000007
 20
29.317299999999999
 30
0.0
 10
-80.965699999999998
 20
29.776700000000002
 30
0.0
 10
-80.965699999999998
 20
29.776700000000002
 30
0.0
 10
-80.672200000000004
 20
29.9558
 30
0.0
 10
-78.489999999999995
 20
31.2517
 30
0.0
 10
-78.358999999999995
 20
31.2517
 30
0.0
 10
-78.358999999999995
 20
31.2517
 30
0.0
 10
-78.251900000000006
 20
31.2517
 30
0.0
 10
-77.224699999999999
 20
29.330400000000001
 30
0.0
 10
-77.093199999999996
 20
29.0809
 30
0.0
 10
-77.093199999999996
 20
29.0809
 30
0.0
 10
-76.844800000000006
 20
28.608699999999999
 30
0.0
 10
-76.023600000000002
 20
27.2545
 30
0.0
 10
-75.924700000000001
 20
26.883800000000001
 30
0.0
 10
-75.924700000000001
 20
26.883800000000001
 30
0.0
 10
-75.924700000000001
 20
26.883800000000001
 30
0.0
 10
-66.760099999999994
 20
29.250599999999999
 30
0.0
 10
-66.760099999999994
 20
29.250599999999999
 30
0.0
 10
-66.760099999999994
 20
29.250599999999999
 30
0.0
 10
-66.760099999999994
 20
29.250599999999999
 30
0.0
 10
-73.3536
 20
22.4511
 30
0.0
 10
-73.3536
 20
22.4511
 30
0.0
 10
-73.3536
 20
22.4511
 30
0.0
 10
-73.3536
 20
22.4511
 30
0.0
 10
-70.771199999999993
 20
18.218399999999999
 30
0.0
 10
-70.771199999999993
 20
18.218399999999999
 30
0.0
 10
-70.771199999999993
 20
18.218399999999999
 30
0.0
 10
-70.931100000000001
 20
17.977799999999998
 30
0.0
 10
-73.0989
 20
16.778300000000002
 30
0.0
 10
-73.538300000000007
 20
16.549299999999999
 30
0.0
 10
-73.538300000000007
 20
16.549299999999999
 30
0.0
 10
-74.317300000000003
 20
16.1434
 30
0.0
 10
-75.267499999999998
 20
15.1767
 30
0.0
 10
-75.995599999999996
 20
14.639200000000001
 30
0.0
 10
-75.995599999999996
 20
14.639200000000001
 30
0.0
 10
-77.281700000000001
 20
13.6897
 30
0.0
 10
-78.770799999999994
 20
12.5352
 30
0.0
 10
-80.068899999999999
 20
11.450900000000001
 30
0.0
 10
-80.068899999999999
 20
11.450900000000001
 30
0.0
 10
-84.338099999999997
 20
15.4932
 30
0.0
 10
-87.444699999999997
 20
20.750699999999998
 30
0.0
 10
-88.833100000000002
 20
26.669899999999998
 30
0.0
  0
SPLINE
  5
2A
100
AcDbEntity
  8
RÚteg 1
 62
     7
100
AcDbSpline
210
0.0
220
0.0
230
1.0
 70
     1
 71
     3
 72
    20
 73
    16
 74
     0
 42
0.0000000001
 43
0.0000000001
 40
0.0
 40
0.0
 40
0.0
 40
0.0
 40
0.25
 40
0.25
 40
0.25
 40
0.25
 40
0.5
 40
0.5
 40
0.5
 40
0.5
 40
0.75
 40
0.75
 40
0.75
 40
0.75
 40
1.0
 40
1.0
 40
1.0
 40
1.0
 10
-79.405799999999999
 20
10.8424
 30
0.0
 10
-79.405799999999999
 20
10.8424
 30
0.0
 10
-72.632499999999993
 20
11.1652
 30
0.0
 10
-72.632499999999993
 20
11.1652
 30
0.0
 10
-72.632499999999993
 20
11.1652
 30
0.0
 10
-72.632499999999993
 20
11.1652
 30
0.0
 10
-72.129599999999996
 20
11.1309
 30
0.0
 10
-72.129599999999996
 20
11.1309
 30
0.0
 10
-72.129599999999996
 20
11.1309
 30
0.0
 10
-71.799700000000001
 20
11.1309
 30
0.0
 10
-69.852800000000002
 20
6.8589000000000002
 30
0.0
 10
-68.692800000000005
 20
4.6289999999999996
 30
0.0
 10
-68.692800000000005
 20
4.6289999999999996
 30
0.0
 10
-72.694299999999998
 20
5.9607000000000001
 30
0.0
 10
-76.3292
 20
8.0952000000000002
 30
0.0
 10
-79.405799999999999
 20
10.8424
 30
0.0
  0
SPLINE
  5
2B
100
AcDbEntity
  8
RÚteg 1
 62
     7
100
AcDbSpline
210
0.0
220
0.0
230
1.0
 70
     1
 71
     3
 72
    72
 73
    68
 74
     0
 42
0.0000000001
 43
0.0000000001
 40
0.0
 40
0.0
 40
0.0
 40
0.0
 40
0.0588235294117647
 40
0.0588235294117647
 40
0.0588235294117647
 40
0.0588235294117647
 40
0.1176470588235294
 40
0.1176470588235294
 40
0.1176470588235294
 40
0.1176470588235294
 40
0.1764705882352941
 40
0.1764705882352941
 40
0.1764705882352941
 40
0.1764705882352941
 40
0.2352941176470588
 40
0.2352941176470588
 40
0.2352941176470588
 40
0.2352941176470588
 40
0.2941176470588235
 40
0.2941176470588235
 40
0.2941176470588235
 40
0.2941176470588235
 40
0.3529411764705883
 40
0.3529411764705883
 40
0.3529411764705883
 40
0.3529411764705883
 40
0.411764705882353
 40
0.411764705882353
 40
0.411764705882353
 40
0.411764705882353
 40
0.4705882352941177
 40
0.4705882352941177
 40
0.4705882352941177
 40
0.4705882352941177
 40
0.5294117647058824
 40
0.5294117647058824
 40
0.5294117647058824
 40
0.5294117647058824
 40
0.5882352941176471
 40
0.5882352941176471
 40
0.5882352941176471
 40
0.5882352941176471
 40
0.6470588235294118
 40
0.6470588235294118
 40
0.6470588235294118
 40
0.6470588235294118
 40
0.7058823529411765
 40
0.7058823529411765
 40
0.7058823529411765
 40
0.7058823529411765
 40
0.7647058823529412
 40
0.7647058823529412
 40
0.7647058823529412
 40
0.7647058823529412
 40
0.823529411764706
 40
0.823529411764706
 40
0.823529411764706
 40
0.823529411764706
 40
0.8823529411764707
 40
0.8823529411764707
 40
0.8823529411764707
 40
0.8823529411764707
 40
0.9411764705882354
 40
0.9411764705882354
 40
0.9411764705882354
 40
0.9411764705882354
 40
1.0
 40
1.0
 40
1.0
 40
1.0
 10
-67.758399999999995
 20
4.3356000000000003
 30
0.0
 10
-67.758399999999995
 20
4.3356000000000003
 30
0.0
 10
-66.575599999999994
 20
12.4854
 30
0.0
 10
-66.575599999999994
 20
12.4854
 30
0.0
 10
-66.575599999999994
 20
12.4854
 30
0.0
 10
-66.575599999999994
 20
12.4854
 30
0.0
 10
-66.616
 20
15.7851
 30
0.0
 10
-66.616
 20
15.7851
 30
0.0
 10
-66.616
 20
15.7851
 30
0.0
 10
-65.233199999999997
 20
15.7851
 30
0.0
 10
-63.923900000000003
 20
15.7064
 30
0.0
 10
-62.462600000000002
 20
15.713800000000001
 30
0.0
 10
-62.462600000000002
 20
15.713800000000001
 30
0.0
 10
-61.387599999999999
 20
15.7196
 30
0.0
 10
-61.637500000000003
 20
15.3399
 30
0.0
 10
-61.345999999999997
 20
16.529900000000001
 30
0.0
 10
-61.345999999999997
 20
16.529900000000001
 30
0.0
 10
-61.201599999999999
 20
17.119700000000002
 30
0.0
 10
-61.0413
 20
17.593900000000001
 30
0.0
 10
-60.903300000000002
 20
18.164000000000001
 30
0.0
 10
-60.903300000000002
 20
18.164000000000001
 30
0.0
 10
-60.650300000000001
 20
19.2105
 30
0.0
 10
-60.305999999999997
 20
20.396999999999998
 30
0.0
 10
-59.983400000000003
 20
21.468599999999999
 30
0.0
 10
-59.983400000000003
 20
21.468599999999999
 30
0.0
 10
-59.746400000000001
 20
22.2562
 30
0.0
 10
-59.160299999999999
 20
23.980399999999999
 30
0.0
 10
-59.097499999999997
 20
24.735700000000001
 30
0.0
 10
-59.097499999999997
 20
24.735700000000001
 30
0.0
 10
-59.097499999999997
 20
24.735700000000001
 30
0.0
 10
-58.9542
 20
24.735700000000001
 30
0.0
 10
-58.9542
 20
24.735700000000001
 30
0.0
 10
-58.9542
 20
24.735700000000001
 30
0.0
 10
-58.888100000000001
 20
23.941199999999998
 30
0.0
 10
-58.293300000000002
 20
22.252300000000002
 30
0.0
 10
-58.051900000000003
 20
21.413499999999999
 30
0.0
 10
-58.051900000000003
 20
21.413499999999999
 30
0.0
 10
-57.7363
 20
20.3156
 30
0.0
 10
-57.406399999999998
 20
19.230499999999999
 30
0.0
 10
-57.148299999999999
 20
18.164000000000001
 30
0.0
 10
-57.148299999999999
 20
18.164000000000001
 30
0.0
 10
-57.008800000000001
 20
17.5868
 30
0.0
 10
-56.866799999999998
 20
17.072500000000002
 30
0.0
 10
-56.689500000000002
 20
16.474599999999999
 30
0.0
 10
-56.689500000000002
 20
16.474599999999999
 30
0.0
 10
-56.354599999999998
 20
15.3453
 30
0.0
 10
-56.714599999999997
 20
15.718
 30
0.0
 10
-55.517299999999999
 20
15.713800000000001
 30
0.0
 10
-55.517299999999999
 20
15.713800000000001
 30
0.0
 10
-54.079599999999999
 20
15.708500000000001
 30
0.0
 10
-52.796900000000001
 20
15.7851
 30
0.0
 10
-51.435899999999997
 20
15.7851
 30
0.0
 10
-51.435899999999997
 20
15.7851
 30
0.0
 10
-51.435899999999997
 20
15.7851
 30
0.0
 10
-51.435899999999997
 20
12.4915
 30
0.0
 10
-51.435899999999997
 20
12.4915
 30
0.0
 10
-51.435899999999997
 20
12.4915
 30
0.0
 10
-51.435899999999997
 20
12.4915
 30
0.0
 10
-50.2577
 20
4.3457999999999997
 30
0.0
 10
-50.2577
 20
4.3457999999999997
 30
0.0
 10
-50.2577
 20
4.3457999999999997
 30
0.0
 10
-53.035600000000002
 20
3.5165999999999999
 30
0.0
 10
-55.977800000000002
 20
3.0691000000000002
 30
0.0
 10
-59.024999999999999
 20
3.0691000000000002
 30
0.0
 10
-59.024999999999999
 20
3.0691000000000002
 30
0.0
 10
-62.059600000000003
 20
3.0691000000000002
 30
0.0
 10
-64.990700000000004
 20
3.5125000000000002
 30
0.0
 10
-67.758399999999995
 20
4.3356000000000003
 30
0.0
  0
SPLINE
  5
2C
100
AcDbEntity
  8
RÚteg 1
 62
     7
100
AcDbSpline
210
0.0
220
0.0
230
1.0
 70
     1
 71
     3
 72
    20
 73
    16
 74
     0
 42
0.0000000001
 43
0.0000000001
 40
0.0
 40
0.0
 40
0.0
 40
0.0
 40
0.25
 40
0.25
 40
0.25
 40
0.25
 40
0.5
 40
0.5
 40
0.5
 40
0.5
 40
0.75
 40
0.75
 40
0.75
 40
0.75
 40
1.0
 40
1.0
 40
1.0
 40
1.0
 10
-49.340899999999998
 20
4.6344000000000003
 30
0.0
 10
-48.195599999999999
 20
6.8624999999999998
 30
0.0
 10
-46.249600000000001
 20
11.1309
 30
0.0
 10
-45.9223
 20
11.1309
 30
0.0
 10
-45.9223
 20
11.1309
 30
0.0
 10
-45.9223
 20
11.1309
 30
0.0
 10
-45.420999999999999
 20
11.1309
 30
0.0
 10
-45.420999999999999
 20
11.1309
 30
0.0
 10
-45.420999999999999
 20
11.1309
 30
0.0
 10
-45.420999999999999
 20
11.1309
 30
0.0
 10
-38.645600000000002
 20
10.841200000000001
 30
0.0
 10
-38.645600000000002
 20
10.841200000000001
 30
0.0
 10
-38.645600000000002
 20
10.841200000000001
 30
0.0
 10
-41.7181
 20
8.0986999999999991
 30
0.0
 10
-45.346200000000003
 20
5.9657
 30
0.0
 10
-49.340899999999998
 20
4.6344000000000003
 30
0.0
  0
SPLINE
  5
2D
100
AcDbEntity
  8
RÚteg 1
 62
     7
100
AcDbSpline
210
0.0
220
0.0
230
1.0
 70
     1
 71
     3
 72
    52
 73
    48
 74
     0
 42
0.0000000001
 43
0.0000000001
 40
0.0
 40
0.0
 40
0.0
 40
0.0
 40
0.0833333333333333
 40
0.0833333333333333
 40
0.0833333333333333
 40
0.0833333333333333
 40
0.1666666666666667
 40
0.1666666666666667
 40
0.1666666666666667
 40
0.1666666666666667
 40
0.25
 40
0.25
 40
0.25
 40
0.25
 40
0.3333333333333333
 40
0.3333333333333333
 40
0.3333333333333333
 40
0.3333333333333333
 40
0.4166666666666666
 40
0.4166666666666666
 40
0.4166666666666666
 40
0.4166666666666666
 40
0.4999999999999999
 40
0.4999999999999999
 40
0.4999999999999999
 40
0.4999999999999999
 40
0.5833333333333333
 40
0.5833333333333333
 40
0.5833333333333333
 40
0.5833333333333333
 40
0.6666666666666666
 40
0.6666666666666666
 40
0.6666666666666666
 40
0.6666666666666666
 40
0.75
 40
0.75
 40
0.75
 40
0.75
 40
0.8333333333333334
 40
0.8333333333333334
 40
0.8333333333333334
 40
0.8333333333333334
 40
0.9166666666666667
 40
0.9166666666666667
 40
0.9166666666666667
 40
0.9166666666666667
 40
1.0
 40
1.0
 40
1.0
 40
1.0
 10
-37.979700000000001
 20
11.452
 30
0.0
 10
-39.2879
 20
12.542400000000001
 30
0.0
 10
-40.768500000000003
 20
13.6912
 30
0.0
 10
-42.083799999999997
 20
14.682600000000001
 30
0.0
 10
-42.083799999999997
 20
14.682600000000001
 30
0.0
 10
-42.829000000000001
 20
15.2445
 30
0.0
 10
-43.796100000000003
 20
16.179099999999998
 30
0.0
 10
-44.561799999999998
 20
16.572900000000001
 30
0.0
 10
-44.561799999999998
 20
16.572900000000001
 30
0.0
 10
-44.984499999999997
 20
16.790199999999999
 30
0.0
 10
-47.1098
 20
17.961500000000001
 30
0.0
 10
-47.282800000000002
 20
18.2197
 30
0.0
 10
-47.282800000000002
 20
18.2197
 30
0.0
 10
-47.282800000000002
 20
18.2197
 30
0.0
 10
-44.714100000000002
 20
22.450099999999999
 30
0.0
 10
-44.714100000000002
 20
22.450099999999999
 30
0.0
 10
-44.714100000000002
 20
22.450099999999999
 30
0.0
 10
-44.714100000000002
 20
22.450099999999999
 30
0.0
 10
-51.338700000000003
 20
29.201699999999999
 30
0.0
 10
-51.338700000000003
 20
29.201699999999999
 30
0.0
 10
-51.338700000000003
 20
29.201699999999999
 30
0.0
 10
-51.338700000000003
 20
29.201699999999999
 30
0.0
 10
-42.1252
 20
26.8918
 30
0.0
 10
-42.1252
 20
26.8918
 30
0.0
 10
-42.1252
 20
26.8918
 30
0.0
 10
-42.040900000000001
 20
27.207100000000001
 30
0.0
 10
-41.169499999999999
 20
28.703499999999998
 30
0.0
 10
-40.934600000000003
 20
29.128299999999999
 30
0.0
 10
-40.934600000000003
 20
29.128299999999999
 30
0.0
 10
-40.764800000000001
 20
29.435099999999998
 30
0.0
 10
-39.851700000000001
 20
31.2517
 30
0.0
 10
-39.620899999999999
 20
31.2517
 30
0.0
 10
-39.620899999999999
 20
31.2517
 30
0.0
 10
-39.619199999999999
 20
31.2517
 30
0.0
 10
-37.262799999999999
 20
29.877400000000002
 30
0.0
 10
-37.042099999999998
 20
29.749300000000002
 30
0.0
 10
-37.042099999999998
 20
29.749300000000002
 30
0.0
 10
-36.278199999999998
 20
29.3063
 30
0.0
 10
-35.034300000000002
 20
28.881799999999998
 30
0.0
 10
-34.168999999999997
 20
28.540900000000001
 30
0.0
 10
-34.168999999999997
 20
28.540900000000001
 30
0.0
 10
-32.651800000000001
 20
27.942599999999999
 30
0.0
 10
-30.786200000000001
 20
27.3142
 30
0.0
 10
-29.221800000000002
 20
26.650300000000001
 30
0.0
 10
-29.221800000000002
 20
26.650300000000001
 30
0.0
 10
-30.612500000000001
 20
20.739799999999999
 30
0.0
 10
-33.715600000000002
 20
15.4894
 30
0.0
 10
-37.979700000000001
 20
11.452
 30
0.0
  0
SPLINE
  5
2E
100
AcDbEntity
  8
RÚteg 1
 62
     7
100
AcDbSpline
210
0.0
220
0.0
230
1.0
 70
     1
 71
     3
 72
    20
 73
    16
 74
     0
 42
0.0000000001
 43
0.0000000001
 40
0.0
 40
0.0
 40
0.0
 40
0.0
 40
0.25
 40
0.25
 40
0.25
 40
0.25
 40
0.5
 40
0.5
 40
0.5
 40
0.5
 40
0.75
 40
0.75
 40
0.75
 40
0.75
 40
1.0
 40
1.0
 40
1.0
 40
1.0
 10
-29.052499999999998
 20
27.412800000000001
 30
0.0
 10
-29.052499999999998
 20
27.412800000000001
 30
0.0
 10
-33.035400000000003
 20
33.685099999999998
 30
0.0
 10
-33.035400000000003
 20
33.685099999999998
 30
0.0
 10
-33.035400000000003
 20
33.685099999999998
 30
0.0
 10
-33.035400000000003
 20
33.685099999999998
 30
0.0
 10
-29.041499999999999
 20
39.909500000000001
 30
0.0
 10
-29.041499999999999
 20
39.909500000000001
 30
0.0
 10
-29.041499999999999
 20
39.909500000000001
 30
0.0
 10
-28.626300000000001
 20
37.900199999999998
 30
0.0
 10
-28.407599999999999
 20
35.8187
 30
0.0
 10
-28.407599999999999
 20
33.686399999999999
 30
0.0
 10
-28.407599999999999
 20
33.686399999999999
 30
0.0
 10
-28.407599999999999
 20
31.536300000000001
 30
0.0
 10
-28.630299999999998
 20
29.437899999999999
 30
0.0
 10
-29.052499999999998
 20
27.412800000000001
 30
0.0
  0
SPLINE
  5
2F
100
AcDbEntity
  8
RÚteg 1
 62
     7
100
AcDbSpline
210
0.0
220
0.0
230
1.0
 70
     1
 71
     3
 72
    56
 73
    52
 74
     0
 42
0.0000000001
 43
0.0000000001
 40
0.0
 40
0.0
 40
0.0
 40
0.0
 40
0.0769230769230769
 40
0.0769230769230769
 40
0.0769230769230769
 40
0.0769230769230769
 40
0.1538461538461539
 40
0.1538461538461539
 40
0.1538461538461539
 40
0.1538461538461539
 40
0.2307692307692308
 40
0.2307692307692308
 40
0.2307692307692308
 40
0.2307692307692308
 40
0.3076923076923077
 40
0.3076923076923077
 40
0.3076923076923077
 40
0.3076923076923077
 40
0.3846153846153846
 40
0.3846153846153846
 40
0.3846153846153846
 40
0.3846153846153846
 40
0.4615384615384616
 40
0.4615384615384616
 40
0.4615384615384616
 40
0.4615384615384616
 40
0.5384615384615386
 40
0.5384615384615386
 40
0.5384615384615386
 40
0.5384615384615386
 40
0.6153846153846154
 40
0.6153846153846154
 40
0.6153846153846154
 40
0.6153846153846154
 40
0.6923076923076923
 40
0.6923076923076923
 40
0.6923076923076923
 40
0.6923076923076923
 40
0.7692307692307692
 40
0.7692307692307692
 40
0.7692307692307692
 40
0.7692307692307692
 40
0.846153846153846
 40
0.846153846153846
 40
0.846153846153846
 40
0.846153846153846
 40
0.9230769230769229
 40
0.9230769230769229
 40
0.9230769230769229
 40
0.9230769230769229
 40
1.0
 40
1.0
 40
1.0
 40
1.0
 10
-29.216799999999999
 20
40.702500000000001
 30
0.0
 10
-30.814900000000002
 20
40.048299999999998
 30
0.0
 10
-32.6693
 20
39.4315
 30
0.0
 10
-34.2211
 20
38.812199999999997
 30
0.0
 10
-34.2211
 20
38.812199999999997
 30
0.0
 10
-35.110799999999998
 20
38.457500000000003
 30
0.0
 10
-36.333599999999997
 20
38.055500000000002
 30
0.0
 10
-37.086199999999998
 20
37.5961
 30
0.0
 10
-37.086199999999998
 20
37.5961
 30
0.0
 10
-37.3782
 20
37.417900000000003
 30
0.0
 10
-39.564399999999999
 20
36.121000000000002
 30
0.0
 10
-39.692599999999999
 20
36.121000000000002
 30
0.0
 10
-39.692599999999999
 20
36.121000000000002
 30
0.0
 10
-39.799799999999998
 20
36.121000000000002
 30
0.0
 10
-40.827100000000002
 20
38.042299999999997
 30
0.0
 10
-40.9587
 20
38.292000000000002
 30
0.0
 10
-40.9587
 20
38.292000000000002
 30
0.0
 10
-41.206800000000001
 20
38.764200000000002
 30
0.0
 10
-42.028199999999998
 20
40.118200000000002
 30
0.0
 10
-42.127099999999999
 20
40.488900000000001
 30
0.0
 10
-42.127099999999999
 20
40.488900000000001
 30
0.0
 10
-42.127099999999999
 20
40.488900000000001
 30
0.0
 10
-51.290999999999997
 20
38.119900000000001
 30
0.0
 10
-51.290999999999997
 20
38.119900000000001
 30
0.0
 10
-51.290999999999997
 20
38.119900000000001
 30
0.0
 10
-51.290999999999997
 20
38.119900000000001
 30
0.0
 10
-44.692700000000002
 20
44.916200000000003
 30
0.0
 10
-44.692700000000002
 20
44.916200000000003
 30
0.0
 10
-44.692700000000002
 20
44.916200000000003
 30
0.0
 10
-44.692700000000002
 20
44.916200000000003
 30
0.0
 10
-47.280500000000004
 20
49.154299999999999
 30
0.0
 10
-47.280500000000004
 20
49.154299999999999
 30
0.0
 10
-47.280500000000004
 20
49.154299999999999
 30
0.0
 10
-47.127099999999999
 20
49.385199999999998
 30
0.0
 10
-44.9437
 20
50.5991
 30
0.0
 10
-44.513599999999997
 20
50.823399999999999
 30
0.0
 10
-44.513599999999997
 20
50.823399999999999
 30
0.0
 10
-43.666699999999999
 20
51.264699999999998
 30
0.0
 10
-42.828600000000002
 20
52.198900000000002
 30
0.0
 10
-42.057099999999998
 20
52.7348
 30
0.0
 10
-42.057099999999998
 20
52.7348
 30
0.0
 10
-41.204099999999997
 20
53.327100000000002
 30
0.0
 10
-40.440600000000003
 20
54.096699999999998
 30
0.0
 10
-39.622500000000002
 20
54.668199999999999
 30
0.0
 10
-39.622500000000002
 20
54.668199999999999
 30
0.0
 10
-39.094099999999997
 20
55.036999999999999
 30
0.0
 10
-38.5229
 20
55.4816
 30
0.0
 10
-37.984400000000001
 20
55.924999999999997
 30
0.0
 10
-37.984400000000001
 20
55.924999999999997
 30
0.0
 10
-33.713299999999997
 20
51.881999999999998
 30
0.0
 10
-30.605699999999999
 20
46.6233
 30
0.0
 10
-29.216799999999999
 20
40.702500000000001
 30
0.0
  0
SPLINE
  5
30
100
AcDbEntity
  8
RÚteg 1
 62
     7
100
AcDbSpline
210
0.0
220
0.0
230
1.0
 70
     1
 71
     3
 72
    20
 73
    16
 74
     0
 42
0.0000000001
 43
0.0000000001
 40
0.0
 40
0.0
 40
0.0
 40
0.0
 40
0.25
 40
0.25
 40
0.25
 40
0.25
 40
0.5
 40
0.5
 40
0.5
 40
0.5
 40
0.75
 40
0.75
 40
0.75
 40
0.75
 40
1.0
 40
1.0
 40
1.0
 40
1.0
 10
-38.644399999999997
 20
56.5304
 30
0.0
 10
-38.644399999999997
 20
56.5304
 30
0.0
 10
-45.419499999999999
 20
56.207799999999999
 30
0.0
 10
-45.419499999999999
 20
56.207799999999999
 30
0.0
 10
-45.419499999999999
 20
56.207799999999999
 30
0.0
 10
-45.419499999999999
 20
56.207799999999999
 30
0.0
 10
-45.9223
 20
56.241900000000001
 30
0.0
 10
-45.9223
 20
56.241900000000001
 30
0.0
 10
-45.9223
 20
56.241900000000001
 30
0.0
 10
-46.2485
 20
56.241900000000001
 30
0.0
 10
-48.199399999999997
 20
60.5152
 30
0.0
 10
-49.3598
 20
62.744700000000002
 30
0.0
 10
-49.3598
 20
62.744700000000002
 30
0.0
 10
-45.357500000000002
 20
61.4129
 30
0.0
 10
-41.721600000000002
 20
59.278100000000002
 30
0.0
 10
-38.644399999999997
 20
56.5304
 30
0.0
  0
SPLINE
  5
31
100
AcDbEntity
  8
RÚteg 1
 62
     7
100
AcDbSpline
210
0.0
220
0.0
230
1.0
 70
     1
 71
     3
 72
    72
 73
    68
 74
     0
 42
0.0000000001
 43
0.0000000001
 40
0.0
 40
0.0
 40
0.0
 40
0.0
 40
0.0588235294117647
 40
0.0588235294117647
 40
0.0588235294117647
 40
0.0588235294117647
 40
0.1176470588235294
 40
0.1176470588235294
 40
0.1176470588235294
 40
0.1176470588235294
 40
0.1764705882352941
 40
0.1764705882352941
 40
0.1764705882352941
 40
0.1764705882352941
 40
0.2352941176470588
 40
0.2352941176470588
 40
0.2352941176470588
 40
0.2352941176470588
 40
0.2941176470588235
 40
0.2941176470588235
 40
0.2941176470588235
 40
0.2941176470588235
 40
0.3529411764705883
 40
0.3529411764705883
 40
0.3529411764705883
 40
0.3529411764705883
 40
0.411764705882353
 40
0.411764705882353
 40
0.411764705882353
 40
0.411764705882353
 40
0.4705882352941177
 40
0.4705882352941177
 40
0.4705882352941177
 40
0.4705882352941177
 40
0.5294117647058824
 40
0.5294117647058824
 40
0.5294117647058824
 40
0.5294117647058824
 40
0.5882352941176471
 40
0.5882352941176471
 40
0.5882352941176471
 40
0.5882352941176471
 40
0.6470588235294118
 40
0.6470588235294118
 40
0.6470588235294118
 40
0.6470588235294118
 40
0.7058823529411765
 40
0.7058823529411765
 40
0.7058823529411765
 40
0.7058823529411765
 40
0.7647058823529412
 40
0.7647058823529412
 40
0.7647058823529412
 40
0.7647058823529412
 40
0.823529411764706
 40
0.823529411764706
 40
0.823529411764706
 40
0.823529411764706
 40
0.8823529411764707
 40
0.8823529411764707
 40
0.8823529411764707
 40
0.8823529411764707
 40
0.9411764705882354
 40
0.9411764705882354
 40
0.9411764705882354
 40
0.9411764705882354
 40
1.0
 40
1.0
 40
1.0
 40
1.0
 10
-50.293500000000002
 20
63.037700000000001
 30
0.0
 10
-50.293500000000002
 20
63.037700000000001
 30
0.0
 10
-51.4771
 20
54.887500000000003
 30
0.0
 10
-51.4771
 20
54.887500000000003
 30
0.0
 10
-51.4771
 20
54.887500000000003
 30
0.0
 10
-51.4771
 20
54.887500000000003
 30
0.0
 10
-51.435899999999997
 20
51.587600000000002
 30
0.0
 10
-51.435899999999997
 20
51.587600000000002
 30
0.0
 10
-51.435899999999997
 20
51.587600000000002
 30
0.0
 10
-52.828299999999999
 20
51.587600000000002
 30
0.0
 10
-54.124600000000001
 20
51.664299999999997
 30
0.0
 10
-55.588999999999999
 20
51.659100000000002
 30
0.0
 10
-55.588999999999999
 20
51.659100000000002
 30
0.0
 10
-56.678800000000003
 20
51.655200000000001
 30
0.0
 10
-56.421900000000001
 20
52.001899999999999
 30
0.0
 10
-56.7059
 20
50.842700000000001
 30
0.0
 10
-56.7059
 20
50.842700000000001
 30
0.0
 10
-56.850099999999998
 20
50.253100000000003
 30
0.0
 10
-57.0105
 20
49.778700000000001
 30
0.0
 10
-57.148299999999999
 20
49.208799999999997
 30
0.0
 10
-57.148299999999999
 20
49.208799999999997
 30
0.0
 10
-57.401600000000002
 20
48.162399999999998
 30
0.0
 10
-57.745699999999999
 20
46.9758
 30
0.0
 10
-58.068399999999997
 20
45.904000000000003
 30
0.0
 10
-58.068399999999997
 20
45.904000000000003
 30
0.0
 10
-58.305399999999999
 20
45.116599999999998
 30
0.0
 10
-58.891500000000001
 20
43.392200000000003
 30
0.0
 10
-58.9542
 20
42.636800000000001
 30
0.0
 10
-58.9542
 20
42.636800000000001
 30
0.0
 10
-58.9542
 20
42.636800000000001
 30
0.0
 10
-59.097499999999997
 20
42.636800000000001
 30
0.0
 10
-59.097499999999997
 20
42.636800000000001
 30
0.0
 10
-59.097499999999997
 20
42.636800000000001
 30
0.0
 10
-59.164400000000001
 20
43.440399999999997
 30
0.0
 10
-59.758699999999997
 20
45.120199999999997
 30
0.0
 10
-59.999699999999997
 20
45.959200000000003
 30
0.0
 10
-59.999699999999997
 20
45.959200000000003
 30
0.0
 10
-60.313600000000001
 20
47.050400000000003
 30
0.0
 10
-60.648099999999999
 20
48.1539
 30
0.0
 10
-60.903300000000002
 20
49.208799999999997
 30
0.0
 10
-60.903300000000002
 20
49.208799999999997
 30
0.0
 10
-61.045699999999997
 20
49.796700000000001
 30
0.0
 10
-61.2104
 20
50.289099999999998
 30
0.0
 10
-61.360100000000003
 20
50.900300000000001
 30
0.0
 10
-61.360100000000003
 20
50.900300000000001
 30
0.0
 10
-61.621699999999997
 20
51.969099999999997
 30
0.0
 10
-61.430300000000003
 20
51.6569
 30
0.0
 10
-62.534500000000001
 20
51.659199999999998
 30
0.0
 10
-62.534500000000001
 20
51.659199999999998
 30
0.0
 10
-63.975099999999998
 20
51.662199999999999
 30
0.0
 10
-65.245000000000005
 20
51.587600000000002
 30
0.0
 10
-66.616
 20
51.587600000000002
 30
0.0
 10
-66.616
 20
51.587600000000002
 30
0.0
 10
-66.616
 20
51.587600000000002
 30
0.0
 10
-66.616
 20
54.881399999999999
 30
0.0
 10
-66.616
 20
54.881399999999999
 30
0.0
 10
-66.616
 20
54.881399999999999
 30
0.0
 10
-66.616
 20
54.881399999999999
 30
0.0
 10
-67.7941
 20
63.026400000000002
 30
0.0
 10
-67.7941
 20
63.026400000000002
 30
0.0
 10
-67.7941
 20
63.026400000000002
 30
0.0
 10
-65.015799999999999
 20
63.856099999999998
 30
0.0
 10
-62.072699999999998
 20
64.303799999999995
 30
0.0
 10
-59.024999999999999
 20
64.303799999999995
 30
0.0
 10
-59.024999999999999
 20
64.303799999999995
 30
0.0
 10
-55.991
 20
64.303799999999995
 30
0.0
 10
-53.060699999999997
 20
63.860300000000002
 30
0.0
 10
-50.293500000000002
 20
63.037700000000001
 30
0.0
  0
SPLINE
  5
32
100
AcDbEntity
  8
RÚteg 1
 62
     7
100
AcDbSpline
210
0.0
220
0.0
230
1.0
 70
     1
 71
     3
 72
    20
 73
    16
 74
     0
 42
0.0000000001
 43
0.0000000001
 40
0.0
 40
0.0
 40
0.0
 40
0.0
 40
0.25
 40
0.25
 40
0.25
 40
0.25
 40
0.5
 40
0.5
 40
0.5
 40
0.5
 40
0.75
 40
0.75
 40
0.75
 40
0.75
 40
1.0
 40
1.0
 40
1.0
 40
1.0
 10
-68.710400000000007
 20
62.738
 30
0.0
 10
-69.854600000000005
 20
60.509700000000002
 30
0.0
 10
-71.799800000000005
 20
56.241900000000001
 30
0.0
 10
-72.129599999999996
 20
56.241900000000001
 30
0.0
 10
-72.129599999999996
 20
56.241900000000001
 30
0.0
 10
-72.129599999999996
 20
56.241900000000001
 30
0.0
 10
-72.630799999999994
 20
56.241900000000001
 30
0.0
 10
-72.630799999999994
 20
56.241900000000001
 30
0.0
 10
-72.630799999999994
 20
56.241900000000001
 30
0.0
 10
-72.630799999999994
 20
56.241900000000001
 30
0.0
 10
-79.399299999999997
 20
56.536099999999998
 30
0.0
 10
-79.399299999999997
 20
56.536099999999998
 30
0.0
 10
-79.399299999999997
 20
56.536099999999998
 30
0.0
 10
-76.328299999999999
 20
59.276499999999999
 30
0.0
 10
-72.702299999999994
 20
61.407299999999999
 30
0.0
 10
-68.710400000000007
 20
62.738
 30
0.0
  0
SPLINE
  5
33
100
AcDbEntity
  8
RÚteg 1
 62
     7
100
AcDbSpline
210
0.0
220
0.0
230
1.0
 70
     1
 71
     3
 72
    52
 73
    48
 74
     0
 42
0.0000000001
 43
0.0000000001
 40
0.0
 40
0.0
 40
0.0
 40
0.0
 40
0.0833333333333333
 40
0.0833333333333333
 40
0.0833333333333333
 40
0.0833333333333333
 40
0.1666666666666667
 40
0.1666666666666667
 40
0.1666666666666667
 40
0.1666666666666667
 40
0.25
 40
0.25
 40
0.25
 40
0.25
 40
0.3333333333333333
 40
0.3333333333333333
 40
0.3333333333333333
 40
0.3333333333333333
 40
0.4166666666666666
 40
0.4166666666666666
 40
0.4166666666666666
 40
0.4166666666666666
 40
0.4999999999999999
 40
0.4999999999999999
 40
0.4999999999999999
 40
0.4999999999999999
 40
0.5833333333333333
 40
0.5833333333333333
 40
0.5833333333333333
 40
0.5833333333333333
 40
0.6666666666666666
 40
0.6666666666666666
 40
0.6666666666666666
 40
0.6666666666666666
 40
0.75
 40
0.75
 40
0.75
 40
0.75
 40
0.8333333333333334
 40
0.8333333333333334
 40
0.8333333333333334
 40
0.8333333333333334
 40
0.9166666666666667
 40
0.9166666666666667
 40
0.9166666666666667
 40
0.9166666666666667
 40
1.0
 40
1.0
 40
1.0
 40
1.0
 10
17.2089
 20
67.705100000000002
 30
0.0
 10
34.016500000000001
 20
65.687299999999993
 30
0.0
 10
47.049999999999997
 20
51.3765
 30
0.0
 10
47.049999999999997
 20
34.025399999999998
 30
0.0
 10
47.049999999999997
 20
34.025399999999998
 30
0.0
 10
47.049999999999997
 20
15.2926
 30
0.0
 10
31.8581
 20
0.1006
 30
0.0
 10
13.1249
 20
0.1006
 30
0.0
 10
13.1249
 20
0.1006
 30
0.0
 10
-5.6079999999999997
 20
0.1006
 30
0.0
 10
-20.800000000000001
 20
15.2926
 30
0.0
 10
-20.800000000000001
 20
34.025399999999998
 30
0.0
 10
-20.800000000000001
 20
34.025399999999998
 30
0.0
 10
-20.800000000000001
 20
51.3765
 30
0.0
 10
-7.7667000000000002
 20
65.687299999999993
 30
0.0
 10
9.0411999999999999
 20
67.705100000000002
 30
0.0
 10
9.0411999999999999
 20
67.705100000000002
 30
0.0
 10
9.0411999999999999
 20
67.705100000000002
 30
0.0
 10
9.0411999999999999
 20
73.097300000000004
 30
0.0
 10
9.0411999999999999
 20
73.097300000000004
 30
0.0
 10
9.0411999999999999
 20
73.097300000000004
 30
0.0
 10
9.0411999999999999
 20
73.436300000000003
 30
0.0
 10
9.2879000000000005
 20
73.720500000000001
 30
0.0
 10
9.6107999999999993
 20
73.7791
 30
0.0
 10
9.6107999999999993
 20
73.7791
 30
0.0
 10
9.1729000000000003
 20
74.442899999999995
 30
0.0
 10
8.9174000000000007
 20
75.238100000000003
 30
0.0
 10
8.9174000000000007
 20
76.092600000000004
 30
0.0
 10
8.9174000000000007
 20
76.092600000000004
 30
0.0
 10
8.9174000000000007
 20
78.415999999999997
 30
0.0
 10
10.8017
 20
80.299999999999997
 30
0.0
 10
13.1249
 20
80.299999999999997
 30
0.0
 10
13.1249
 20
80.299999999999997
 30
0.0
 10
15.4482
 20
80.299999999999997
 30
0.0
 10
17.3323
 20
78.415999999999997
 30
0.0
 10
17.3323
 20
76.092600000000004
 30
0.0
 10
17.3323
 20
76.092600000000004
 30
0.0
 10
17.3323
 20
75.238100000000003
 30
0.0
 10
17.077200000000001
 20
74.442899999999995
 30
0.0
 10
16.639199999999999
 20
73.7791
 30
0.0
 10
16.639199999999999
 20
73.7791
 30
0.0
 10
16.9617
 20
73.720500000000001
 30
0.0
 10
17.2089
 20
73.436300000000003
 30
0.0
 10
17.2089
 20
73.097300000000004
 30
0.0
 10
17.2089
 20
73.097300000000004
 30
0.0
 10
17.2089
 20
73.097300000000004
 30
0.0
 10
17.2089
 20
67.705100000000002
 30
0.0
 10
17.2089
 20
67.705100000000002
 30
0.0
  0
SPLINE
  5
34
100
AcDbEntity
  8
RÚteg 1
 62
     7
100
AcDbSpline
210
0.0
220
0.0
230
1.0
 70
     1
 71
     3
 72
    20
 73
    16
 74
     0
 42
0.0000000001
 43
0.0000000001
 40
0.0
 40
0.0
 40
0.0
 40
0.0
 40
0.25
 40
0.25
 40
0.25
 40
0.25
 40
0.5
 40
0.5
 40
0.5
 40
0.5
 40
0.75
 40
0.75
 40
0.75
 40
0.75
 40
1.0
 40
1.0
 40
1.0
 40
1.0
 10
13.1249
 20
78.349199999999996
 30
0.0
 10
14.371
 20
78.349199999999996
 30
0.0
 10
15.3817
 20
77.338800000000006
 30
0.0
 10
15.3817
 20
76.092600000000004
 30
0.0
 10
15.3817
 20
76.092600000000004
 30
0.0
 10
15.3817
 20
74.846500000000006
 30
0.0
 10
14.371
 20
73.835999999999999
 30
0.0
 10
13.1249
 20
73.835999999999999
 30
0.0
 10
13.1249
 20
73.835999999999999
 30
0.0
 10
11.8789
 20
73.835999999999999
 30
0.0
 10
10.8682
 20
74.846500000000006
 30
0.0
 10
10.8682
 20
76.092600000000004
 30
0.0
 10
10.8682
 20
76.092600000000004
 30
0.0
 10
10.8682
 20
77.338800000000006
 30
0.0
 10
11.8789
 20
78.349199999999996
 30
0.0
 10
13.1249
 20
78.349199999999996
 30
0.0
  0
SPLINE
  5
35
100
AcDbEntity
  8
RÚteg 1
 62
     7
100
AcDbSpline
210
0.0
220
0.0
230
1.0
 70
     1
 71
     3
 72
    48
 73
    44
 74
     0
 42
0.0000000001
 43
0.0000000001
 40
0.0
 40
0.0
 40
0.0
 40
0.0
 40
0.0909090909090909
 40
0.0909090909090909
 40
0.0909090909090909
 40
0.0909090909090909
 40
0.1818181818181818
 40
0.1818181818181818
 40
0.1818181818181818
 40
0.1818181818181818
 40
0.2727272727272727
 40
0.2727272727272727
 40
0.2727272727272727
 40
0.2727272727272727
 40
0.3636363636363637
 40
0.3636363636363637
 40
0.3636363636363637
 40
0.3636363636363637
 40
0.4545454545454546
 40
0.4545454545454546
 40
0.4545454545454546
 40
0.4545454545454546
 40
0.5454545454545455
 40
0.5454545454545455
 40
0.5454545454545455
 40
0.5454545454545455
 40
0.6363636363636365
 40
0.6363636363636365
 40
0.6363636363636365
 40
0.6363636363636365
 40
0.7272727272727274
 40
0.7272727272727274
 40
0.7272727272727274
 40
0.7272727272727274
 40
0.8181818181818183
 40
0.8181818181818183
 40
0.8181818181818183
 40
0.8181818181818183
 40
0.9090909090909093
 40
0.9090909090909093
 40
0.9090909090909093
 40
0.9090909090909093
 40
1.0
 40
1.0
 40
1.0
 40
1.0
 10
12.719200000000001
 20
64.637799999999999
 30
0.0
 10
12.719200000000001
 20
64.637799999999999
 30
0.0
 10
9.6143999999999998
 20
46.5991
 30
0.0
 10
9.6143999999999998
 20
46.5991
 30
0.0
 10
9.6143999999999998
 20
46.5991
 30
0.0
 10
9.5836000000000006
 20
46.4208
 30
0.0
 10
12.3085
 20
42.453099999999999
 30
0.0
 10
12.3085
 20
42.271900000000002
 30
0.0
 10
12.3085
 20
42.271900000000002
 30
0.0
 10
12.3085
 20
42.242199999999997
 30
0.0
 10
10.8142
 20
38.559699999999999
 30
0.0
 10
10.675800000000001
 20
38.271099999999997
 30
0.0
 10
10.675800000000001
 20
38.271099999999997
 30
0.0
 10
10.236700000000001
 20
38.271099999999997
 30
0.0
 10
6.6951999999999998
 20
38.694699999999997
 30
0.0
 10
6.4593999999999996
 20
38.790599999999998
 30
0.0
 10
6.4593999999999996
 20
38.790599999999998
 30
0.0
 10
6.1094999999999997
 20
38.933
 30
0.0
 10
4.9549000000000003
 20
41.384999999999998
 30
0.0
 10
4.7154999999999996
 20
41.863500000000002
 30
0.0
 10
4.7154999999999996
 20
41.863500000000002
 30
0.0
 10
3.6985000000000001
 20
43.898699999999998
 30
0.0
 10
4.1779000000000002
 20
43.128599999999999
 30
0.0
 10
2.1027
 20
43.986400000000003
 30
0.0
 10
2.1027
 20
43.986400000000003
 30
0.0
 10
1.0353000000000001
 20
44.427500000000002
 30
0.0
 10
-0.3052
 20
44.887500000000003
 30
0.0
 10
-1.4386000000000001
 20
45.2622
 30
0.0
 10
-1.4386000000000001
 20
45.2622
 30
0.0
 10
-3.8140999999999998
 20
46.046700000000001
 30
0.0
 10
-6.1355000000000004
 20
47.003500000000003
 30
0.0
 10
-8.4407999999999994
 20
47.8125
 30
0.0
 10
-8.4407999999999994
 20
47.8125
 30
0.0
 10
-9.6061999999999994
 20
48.221299999999999
 30
0.0
 10
-10.7525
 20
48.728400000000001
 30
0.0
 10
-11.928900000000001
 20
49.141399999999997
 30
0.0
 10
-11.928900000000001
 20
49.141399999999997
 30
0.0
 10
-12.3154
 20
49.277099999999997
 30
0.0
 10
-12.757
 20
49.457099999999997
 30
0.0
 10
-13.212199999999999
 20
49.6419
 30
0.0
 10
-13.212199999999999
 20
49.6419
 30
0.0
 10
-7.9394999999999998
 20
58.512500000000003
 30
0.0
 10
1.6866000000000001
 20
64.494200000000006
 30
0.0
 10
12.719200000000001
 20
64.637799999999999
 30
0.0
  0
SPLINE
  5
36
100
AcDbEntity
  8
RÚteg 1
 62
     7
100
AcDbSpline
210
0.0
220
0.0
230
1.0
 70
     1
 71
     3
 72
    60
 73
    56
 74
     0
 42
0.0000000001
 43
0.0000000001
 40
0.0
 40
0.0
 40
0.0
 40
0.0
 40
0.0714285714285714
 40
0.0714285714285714
 40
0.0714285714285714
 40
0.0714285714285714
 40
0.1428571428571429
 40
0.1428571428571429
 40
0.1428571428571429
 40
0.1428571428571429
 40
0.2142857142857143
 40
0.2142857142857143
 40
0.2142857142857143
 40
0.2142857142857143
 40
0.2857142857142857
 40
0.2857142857142857
 40
0.2857142857142857
 40
0.2857142857142857
 40
0.3571428571428571
 40
0.3571428571428571
 40
0.3571428571428571
 40
0.3571428571428571
 40
0.4285714285714285
 40
0.4285714285714285
 40
0.4285714285714285
 40
0.4285714285714285
 40
0.4999999999999999
 40
0.4999999999999999
 40
0.4999999999999999
 40
0.4999999999999999
 40
0.5714285714285713
 40
0.5714285714285713
 40
0.5714285714285713
 40
0.5714285714285713
 40
0.6428571428571427
 40
0.6428571428571427
 40
0.6428571428571427
 40
0.6428571428571427
 40
0.7142857142857141
 40
0.7142857142857141
 40
0.7142857142857141
 40
0.7142857142857141
 40
0.7857142857142855
 40
0.7857142857142855
 40
0.7857142857142855
 40
0.7857142857142855
 40
0.8571428571428569
 40
0.8571428571428569
 40
0.8571428571428569
 40
0.8571428571428569
 40
0.9285714285714283
 40
0.9285714285714283
 40
0.9285714285714283
 40
0.9285714285714283
 40
1.0
 40
1.0
 40
1.0
 40
1.0
 10
-13.6485
 20
48.883000000000003
 30
0.0
 10
-12.4733
 20
47.921199999999999
 30
0.0
 10
-11.098699999999999
 20
46.8292
 30
0.0
 10
-10.7483
 20
46.566400000000002
 30
0.0
 10
-10.7483
 20
46.566400000000002
 30
0.0
 10
-9.1105
 20
45.337499999999999
 30
0.0
 10
-7.6395999999999997
 20
43.854500000000002
 30
0.0
 10
-6.0125999999999999
 20
42.647399999999998
 30
0.0
 10
-6.0125999999999999
 20
42.647399999999998
 30
0.0
 10
-4.4306000000000001
 20
41.473399999999998
 30
0.0
 10
-2.968
 20
39.898099999999999
 30
0.0
 10
-1.3754
 20
38.712200000000003
 30
0.0
 10
-1.3754
 20
38.712200000000003
 30
0.0
 10
-0.5118
 20
38.068899999999999
 30
0.0
 10
-0.126
 20
37.091200000000001
 30
0.0
 10
1.4503999999999999
 20
37.209200000000003
 30
0.0
 10
1.4503999999999999
 20
37.209200000000003
 30
0.0
 10
2.7749000000000001
 20
37.308399999999999
 30
0.0
 10
4.2016999999999998
 20
37.3733
 30
0.0
 10
5.5716999999999999
 20
37.340699999999998
 30
0.0
 10
5.5716999999999999
 20
37.340699999999998
 30
0.0
 10
5.5716999999999999
 20
37.340699999999998
 30
0.0
 10
8.1667000000000005
 20
33.926900000000003
 30
0.0
 10
8.1667000000000005
 20
33.926900000000003
 30
0.0
 10
8.1667000000000005
 20
33.926900000000003
 30
0.0
 10
8.1667000000000005
 20
33.926900000000003
 30
0.0
 10
5.6135999999999999
 20
30.514800000000001
 30
0.0
 10
5.6135999999999999
 20
30.514800000000001
 30
0.0
 10
5.6135999999999999
 20
30.514800000000001
 30
0.0
 10
4.3526999999999996
 20
30.514800000000001
 30
0.0
 10
2.6724000000000001
 20
30.537800000000001
 30
0.0
 10
1.5255000000000001
 20
30.6723
 30
0.0
 10
1.5255000000000001
 20
30.6723
 30
0.0
 10
-0.0669
 20
30.859300000000001
 30
0.0
 10
-0.4903
 20
29.8172
 30
0.0
 10
-1.3264
 20
29.208500000000001
 30
0.0
 10
-1.3264
 20
29.208500000000001
 30
0.0
 10
-2.9098000000000002
 20
28.055800000000001
 30
0.0
 10
-4.4244000000000003
 20
26.4192
 30
0.0
 10
-6.0125999999999999
 20
25.240600000000001
 30
0.0
 10
-6.0125999999999999
 20
25.240600000000001
 30
0.0
 10
-7.6071
 20
24.057400000000001
 30
0.0
 10
-9.1222999999999992
 20
22.599499999999999
 30
0.0
 10
-10.700799999999999
 20
21.356000000000002
 30
0.0
 10
-10.700799999999999
 20
21.356000000000002
 30
0.0
 10
-11.0983
 20
21.0428
 30
0.0
 10
-12.431699999999999
 20
19.998200000000001
 30
0.0
 10
-13.5883
 20
19.060700000000001
 30
0.0
 10
-13.5883
 20
19.060700000000001
 30
0.0
 10
-16.0732
 20
23.486000000000001
 30
0.0
 10
-17.4922
 20
28.590299999999999
 30
0.0
 10
-17.4922
 20
34.025399999999998
 30
0.0
 10
-17.4922
 20
34.025399999999998
 30
0.0
 10
-17.4922
 20
39.417299999999997
 30
0.0
 10
-16.0962
 20
44.482799999999997
 30
0.0
 10
-13.6485
 20
48.883000000000003
 30
0.0
  0
SPLINE
  5
37
100
AcDbEntity
  8
RÚteg 1
 62
     7
100
AcDbSpline
210
0.0
220
0.0
230
1.0
 70
     1
 71
     3
 72
    48
 73
    44
 74
     0
 42
0.0000000001
 43
0.0000000001
 40
0.0
 40
0.0
 40
0.0
 40
0.0
 40
0.0909090909090909
 40
0.0909090909090909
 40
0.0909090909090909
 40
0.0909090909090909
 40
0.1818181818181818
 40
0.1818181818181818
 40
0.1818181818181818
 40
0.1818181818181818
 40
0.2727272727272727
 40
0.2727272727272727
 40
0.2727272727272727
 40
0.2727272727272727
 40
0.3636363636363637
 40
0.3636363636363637
 40
0.3636363636363637
 40
0.3636363636363637
 40
0.4545454545454546
 40
0.4545454545454546
 40
0.4545454545454546
 40
0.4545454545454546
 40
0.5454545454545455
 40
0.5454545454545455
 40
0.5454545454545455
 40
0.5454545454545455
 40
0.6363636363636365
 40
0.6363636363636365
 40
0.6363636363636365
 40
0.6363636363636365
 40
0.7272727272727274
 40
0.7272727272727274
 40
0.7272727272727274
 40
0.7272727272727274
 40
0.8181818181818183
 40
0.8181818181818183
 40
0.8181818181818183
 40
0.8181818181818183
 40
0.9090909090909093
 40
0.9090909090909093
 40
0.9090909090909093
 40
0.9090909090909093
 40
1.0
 40
1.0
 40
1.0
 40
1.0
 10
-13.1386
 20
18.2852
 30
0.0
 10
-12.744300000000001
 20
18.446100000000001
 30
0.0
 10
-12.356299999999999
 20
18.602
 30
0.0
 10
-11.990600000000001
 20
18.726700000000001
 30
0.0
 10
-11.990600000000001
 20
18.726700000000001
 30
0.0
 10
-10.7995
 20
19.132400000000001
 30
0.0
 10
-9.6342999999999996
 20
19.636399999999998
 30
0.0
 10
-8.5009999999999994
 20
20.053899999999999
 30
0.0
 10
-8.5009999999999994
 20
20.053899999999999
 30
0.0
 10
-6.1938000000000004
 20
20.9041
 30
0.0
 10
-3.8412000000000002
 20
21.833500000000001
 30
0.0
 10
-1.5001
 20
22.605799999999999
 30
0.0
 10
-1.5001
 20
22.605799999999999
 30
0.0
 10
-0.3938
 20
22.970600000000001
 30
0.0
 10
0.861
 20
23.409600000000001
 30
0.0
 10
1.9884999999999999
 20
23.852599999999999
 30
0.0
 10
1.9884999999999999
 20
23.852599999999999
 30
0.0
 10
4.0442999999999998
 20
24.66
 30
0.0
 10
3.7187999999999999
 20
24.032399999999999
 30
0.0
 10
4.6879999999999997
 20
25.970199999999998
 30
0.0
 10
4.6879999999999997
 20
25.970199999999998
 30
0.0
 10
4.9039000000000001
 20
26.401900000000001
 30
0.0
 10
6.1696
 20
28.966100000000001
 30
0.0
 10
6.3982999999999999
 20
29.077000000000002
 30
0.0
 10
6.3982999999999999
 20
29.077000000000002
 30
0.0
 10
6.5458999999999996
 20
29.148399999999999
 30
0.0
 10
10.276
 20
29.616800000000001
 30
0.0
 10
10.675800000000001
 20
29.616800000000001
 30
0.0
 10
10.675800000000001
 20
29.616800000000001
 30
0.0
 10
10.8224
 20
29.3108
 30
0.0
 10
12.3085
 20
25.723299999999998
 30
0.0
 10
12.3085
 20
25.697800000000001
 30
0.0
 10
12.3085
 20
25.697800000000001
 30
0.0
 10
12.3085
 20
25.397500000000001
 30
0.0
 10
9.6029
 20
21.436699999999998
 30
0.0
 10
9.6181000000000001
 20
21.371200000000002
 30
0.0
 10
9.6181000000000001
 20
21.371200000000002
 30
0.0
 10
9.6181000000000001
 20
21.371200000000002
 30
0.0
 10
12.6929
 20
3.4138000000000002
 30
0.0
 10
12.6929
 20
3.4138000000000002
 30
0.0
 10
12.6929
 20
3.4138000000000002
 30
0.0
 10
1.7228000000000001
 20
3.5659000000000001
 30
0.0
 10
-7.8544999999999998
 20
9.4888999999999992
 30
0.0
 10
-13.1386
 20
18.2852
 30
0.0
  0
SPLINE
  5
38
100
AcDbEntity
  8
RÚteg 1
 62
     7
100
AcDbSpline
210
0.0
220
0.0
230
1.0
 70
     1
 71
     3
 72
    48
 73
    44
 74
     0
 42
0.0000000001
 43
0.0000000001
 40
0.0
 40
0.0
 40
0.0
 40
0.0
 40
0.0909090909090909
 40
0.0909090909090909
 40
0.0909090909090909
 40
0.0909090909090909
 40
0.1818181818181818
 40
0.1818181818181818
 40
0.1818181818181818
 40
0.1818181818181818
 40
0.2727272727272727
 40
0.2727272727272727
 40
0.2727272727272727
 40
0.2727272727272727
 40
0.3636363636363637
 40
0.3636363636363637
 40
0.3636363636363637
 40
0.3636363636363637
 40
0.4545454545454546
 40
0.4545454545454546
 40
0.4545454545454546
 40
0.4545454545454546
 40
0.5454545454545455
 40
0.5454545454545455
 40
0.5454545454545455
 40
0.5454545454545455
 40
0.6363636363636365
 40
0.6363636363636365
 40
0.6363636363636365
 40
0.6363636363636365
 40
0.7272727272727274
 40
0.7272727272727274
 40
0.7272727272727274
 40
0.7272727272727274
 40
0.8181818181818183
 40
0.8181818181818183
 40
0.8181818181818183
 40
0.8181818181818183
 40
0.9090909090909093
 40
0.9090909090909093
 40
0.9090909090909093
 40
0.9090909090909093
 40
1.0
 40
1.0
 40
1.0
 40
1.0
 10
13.531599999999999
 20
3.4134000000000002
 30
0.0
 10
13.531599999999999
 20
3.4134000000000002
 30
0.0
 10
16.6357
 20
21.3705
 30
0.0
 10
16.6357
 20
21.3705
 30
0.0
 10
16.6357
 20
21.3705
 30
0.0
 10
16.393000000000001
 20
21.7332
 30
0.0
 10
13.9414
 20
25.572299999999998
 30
0.0
 10
13.9414
 20
25.616399999999999
 30
0.0
 10
13.9414
 20
25.616399999999999
 30
0.0
 10
13.9414
 20
25.8597
 30
0.0
 10
15.6174
 20
29.616800000000001
 30
0.0
 10
15.656000000000001
 20
29.616800000000001
 30
0.0
 10
15.656000000000001
 20
29.616800000000001
 30
0.0
 10
16.0687
 20
29.616800000000001
 30
0.0
 10
19.694600000000001
 20
29.154900000000001
 30
0.0
 10
19.848600000000001
 20
29.073899999999998
 30
0.0
 10
19.848600000000001
 20
29.073899999999998
 30
0.0
 10
20.109500000000001
 20
28.937200000000001
 30
0.0
 10
21.331199999999999
 20
26.4314
 30
0.0
 10
21.562000000000001
 20
25.970199999999998
 30
0.0
 10
21.562000000000001
 20
25.970199999999998
 30
0.0
 10
22.550000000000001
 20
23.994900000000001
 30
0.0
 10
22.159500000000001
 20
24.709900000000001
 30
0.0
 10
24.203199999999999
 20
23.876100000000001
 30
0.0
 10
24.203199999999999
 20
23.876100000000001
 30
0.0
 10
25.305700000000002
 20
23.426500000000001
 30
0.0
 10
26.651900000000001
 20
22.9678
 30
0.0
 10
27.7498
 20
22.605799999999999
 30
0.0
 10
27.7498
 20
22.605799999999999
 30
0.0
 10
30.091100000000001
 20
21.833500000000001
 30
0.0
 10
32.443899999999999
 20
20.9041
 30
0.0
 10
34.750900000000001
 20
20.053899999999999
 30
0.0
 10
34.750900000000001
 20
20.053899999999999
 30
0.0
 10
35.864600000000003
 20
19.643599999999999
 30
0.0
 10
37.026400000000002
 20
19.151299999999999
 30
0.0
 10
38.178800000000003
 20
18.746600000000001
 30
0.0
 10
38.178800000000003
 20
18.746600000000001
 30
0.0
 10
38.543199999999999
 20
18.618500000000001
 30
0.0
 10
38.956699999999998
 20
18.4513
 30
0.0
 10
39.384
 20
18.277699999999999
 30
0.0
 10
39.384
 20
18.277699999999999
 30
0.0
 10
34.094799999999999
 20
9.4794
 30
0.0
 10
24.509399999999999
 20
3.5568
 30
0.0
 10
13.531599999999999
 20
3.4134000000000002
 30
0.0
  0
SPLINE
  5
39
100
AcDbEntity
  8
RÚteg 1
 62
     7
100
AcDbSpline
210
0.0
220
0.0
230
1.0
 70
     1
 71
     3
 72
    60
 73
    56
 74
     0
 42
0.0000000001
 43
0.0000000001
 40
0.0
 40
0.0
 40
0.0
 40
0.0
 40
0.0714285714285714
 40
0.0714285714285714
 40
0.0714285714285714
 40
0.0714285714285714
 40
0.1428571428571429
 40
0.1428571428571429
 40
0.1428571428571429
 40
0.1428571428571429
 40
0.2142857142857143
 40
0.2142857142857143
 40
0.2142857142857143
 40
0.2142857142857143
 40
0.2857142857142857
 40
0.2857142857142857
 40
0.2857142857142857
 40
0.2857142857142857
 40
0.3571428571428571
 40
0.3571428571428571
 40
0.3571428571428571
 40
0.3571428571428571
 40
0.4285714285714285
 40
0.4285714285714285
 40
0.4285714285714285
 40
0.4285714285714285
 40
0.4999999999999999
 40
0.4999999999999999
 40
0.4999999999999999
 40
0.4999999999999999
 40
0.5714285714285713
 40
0.5714285714285713
 40
0.5714285714285713
 40
0.5714285714285713
 40
0.6428571428571427
 40
0.6428571428571427
 40
0.6428571428571427
 40
0.6428571428571427
 40
0.7142857142857141
 40
0.7142857142857141
 40
0.7142857142857141
 40
0.7142857142857141
 40
0.7857142857142855
 40
0.7857142857142855
 40
0.7857142857142855
 40
0.7857142857142855
 40
0.8571428571428569
 40
0.8571428571428569
 40
0.8571428571428569
 40
0.8571428571428569
 40
0.9285714285714283
 40
0.9285714285714283
 40
0.9285714285714283
 40
0.9285714285714283
 40
1.0
 40
1.0
 40
1.0
 40
1.0
 10
39.835900000000002
 20
19.0563
 30
0.0
 10
38.674900000000001
 20
20.005299999999998
 30
0.0
 10
37.342500000000001
 20
21.063300000000002
 30
0.0
 10
36.9985
 20
21.3217
 30
0.0
 10
36.9985
 20
21.3217
 30
0.0
 10
35.364899999999999
 20
22.547000000000001
 30
0.0
 10
33.887099999999997
 20
24.0349
 30
0.0
 10
32.262500000000003
 20
25.240600000000001
 30
0.0
 10
32.262500000000003
 20
25.240600000000001
 30
0.0
 10
30.680700000000002
 20
26.4145
 30
0.0
 10
29.218299999999999
 20
27.9895
 30
0.0
 10
27.625399999999999
 20
29.175799999999999
 30
0.0
 10
27.625399999999999
 20
29.175799999999999
 30
0.0
 10
26.761800000000001
 20
29.819199999999999
 30
0.0
 10
26.376100000000001
 20
30.7971
 30
0.0
 10
24.799600000000002
 20
30.678799999999999
 30
0.0
 10
24.799600000000002
 20
30.678799999999999
 30
0.0
 10
23.475000000000001
 20
30.5794
 30
0.0
 10
22.048400000000001
 20
30.514800000000001
 30
0.0
 10
20.6782
 20
30.5471
 30
0.0
 10
20.6782
 20
30.5471
 30
0.0
 10
20.6782
 20
30.5471
 30
0.0
 10
18.083200000000001
 20
33.960799999999999
 30
0.0
 10
18.083200000000001
 20
33.960799999999999
 30
0.0
 10
18.083200000000001
 20
33.960799999999999
 30
0.0
 10
18.083200000000001
 20
33.960799999999999
 30
0.0
 10
20.636299999999999
 20
37.3733
 30
0.0
 10
20.636299999999999
 20
37.3733
 30
0.0
 10
20.636299999999999
 20
37.3733
 30
0.0
 10
21.897200000000002
 20
37.3733
 30
0.0
 10
23.577500000000001
 20
37.350299999999997
 30
0.0
 10
24.724299999999999
 20
37.215699999999998
 30
0.0
 10
24.724299999999999
 20
37.215699999999998
 30
0.0
 10
26.316800000000001
 20
37.028599999999997
 30
0.0
 10
26.740300000000001
 20
38.070700000000002
 30
0.0
 10
27.5764
 20
38.679499999999997
 30
0.0
 10
27.5764
 20
38.679499999999997
 30
0.0
 10
29.165800000000001
 20
39.836599999999997
 30
0.0
 10
30.6706
 20
41.466000000000001
 30
0.0
 10
32.262500000000003
 20
42.647399999999998
 30
0.0
 10
32.262500000000003
 20
42.647399999999998
 30
0.0
 10
33.856400000000001
 20
43.830199999999998
 30
0.0
 10
35.374600000000001
 20
45.290700000000001
 30
0.0
 10
36.951000000000001
 20
46.5321
 30
0.0
 10
36.951000000000001
 20
46.5321
 30
0.0
 10
37.355600000000003
 20
46.8506
 30
0.0
 10
38.730699999999999
 20
47.927900000000001
 30
0.0
 10
39.9011
 20
48.8782
 30
0.0
 10
39.9011
 20
48.8782
 30
0.0
 10
42.347099999999998
 20
44.478700000000003
 30
0.0
 10
43.742100000000001
 20
39.414999999999999
 30
0.0
 10
43.742100000000001
 20
34.025399999999998
 30
0.0
 10
43.742100000000001
 20
34.025399999999998
 30
0.0
 10
43.742100000000001
 20
28.5883
 30
0.0
 10
42.322299999999998
 20
23.482399999999998
 30
0.0
 10
39.835900000000002
 20
19.0563
 30
0.0
  0
SPLINE
  5
3A
100
AcDbEntity
  8
RÚteg 1
 62
     7
100
AcDbSpline
210
0.0
220
0.0
230
1.0
 70
     1
 71
     3
 72
    44
 73
    40
 74
     0
 42
0.0000000001
 43
0.0000000001
 40
0.0
 40
0.0
 40
0.0
 40
0.0
 40
0.1
 40
0.1
 40
0.1
 40
0.1
 40
0.2
 40
0.2
 40
0.2
 40
0.2
 40
0.3
 40
0.3
 40
0.3
 40
0.3
 40
0.4
 40
0.4
 40
0.4
 40
0.4
 40
0.5
 40
0.5
 40
0.5
 40
0.5
 40
0.6
 40
0.6
 40
0.6
 40
0.6
 40
0.7
 40
0.7
 40
0.7
 40
0.7
 40
0.7999999999999999
 40
0.7999999999999999
 40
0.7999999999999999
 40
0.7999999999999999
 40
0.8999999999999999
 40
0.8999999999999999
 40
0.8999999999999999
 40
0.8999999999999999
 40
1.0
 40
1.0
 40
1.0
 40
1.0
 10
39.444299999999998
 20
49.671999999999997
 30
0.0
 10
37.657200000000003
 20
48.991300000000003
 30
0.0
 10
35.388500000000001
 20
48.068800000000003
 30
0.0
 10
34.750900000000001
 20
47.833799999999997
 30
0.0
 10
34.750900000000001
 20
47.833799999999997
 30
0.0
 10
32.448599999999999
 20
46.985399999999998
 30
0.0
 10
30.086500000000001
 20
46.046500000000002
 30
0.0
 10
27.749700000000001
 20
45.282299999999999
 30
0.0
 10
27.749700000000001
 20
45.282299999999999
 30
0.0
 10
26.6571
 20
44.924900000000001
 30
0.0
 10
25.3781
 20
44.473999999999997
 30
0.0
 10
24.261299999999999
 20
44.035400000000003
 30
0.0
 10
24.261299999999999
 20
44.035400000000003
 30
0.0
 10
22.205300000000001
 20
43.227699999999999
 30
0.0
 10
22.531099999999999
 20
43.855499999999999
 30
0.0
 10
21.562000000000001
 20
41.917700000000004
 30
0.0
 10
21.562000000000001
 20
41.917700000000004
 30
0.0
 10
21.331199999999999
 20
41.456499999999998
 30
0.0
 10
20.109500000000001
 20
38.950800000000001
 30
0.0
 10
19.848600000000001
 20
38.814100000000003
 30
0.0
 10
19.848600000000001
 20
38.814100000000003
 30
0.0
 10
19.679200000000002
 20
38.725200000000001
 30
0.0
 10
16.011500000000002
 20
38.271099999999997
 30
0.0
 10
15.574299999999999
 20
38.271099999999997
 30
0.0
 10
15.574299999999999
 20
38.271099999999997
 30
0.0
 10
15.4274
 20
38.577399999999997
 30
0.0
 10
13.9414
 20
42.164700000000003
 30
0.0
 10
13.9414
 20
42.189999999999998
 30
0.0
 10
13.9414
 20
42.189999999999998
 30
0.0
 10
13.9414
 20
42.492100000000001
 30
0.0
 10
16.648900000000001
 20
46.4422
 30
0.0
 10
16.6313
 20
46.516599999999997
 30
0.0
 10
16.6313
 20
46.516599999999997
 30
0.0
 10
16.6313
 20
46.516599999999997
 30
0.0
 10
13.504
 20
64.638300000000001
 30
0.0
 10
13.504
 20
64.638300000000001
 30
0.0
 10
13.504
 20
64.638300000000001
 30
0.0
 10
24.535299999999999
 20
64.503900000000002
 30
0.0
 10
34.163499999999999
 20
58.534300000000002
 30
0.0
 10
39.444299999999998
 20
49.671999999999997
 30
0.0
  0
ENDSEC
  0
SECTION
  2
OBJECTS
  0
DICTIONARY
  5
19
100
AcDbDictionary
280
     0
281
     1
  3
ACAD_GROUP
350
1A
  3
ACAD_MLINESTYLE
350
1B
  3
ACAD_LAYOUT
350
1E
  3
ACAD_PLOTSETTINGS
350
22
  3
ACAD_PLOTSTYLENAME
350
1F
  3
ACAD_WIPEOUT_VARS
350
23
  0
DICTIONARY
  5
1A
102
{ACAD_REACTORS
330
19
102
}
100
AcDbDictionary
280
     0
281
     1
  0
DICTIONARY
  5
1B
102
{ACAD_REACTORS
330
19
102
}
100
AcDbDictionary
280
     0
281
     1
  3
Standard
350
1C
  0
MLINESTYLE
  5
1C
102
{ACAD_REACTORS
330
1B
102
}
100
AcDbMlineStyle
  2
Standard
 70
     0
  3

 62
     0
 51
90.0
 52
90.0
 71
     2
 49
0.5
 62
   256
  6
BYLAYER
 49
-0.5
 62
   256
  6
BYLAYER
  0
ACDBDICTIONARYWDFLT
  5
1F
102
{ACAD_REACTORS
330
19
102
}
100
AcDbDictionary
281
     1
  3
Normal
350
1D
100
AcDbDictionaryWithDefault
340
1D
  0
ACDBPLACEHOLDER
  5
1D
102
{ACAD_REACTORS
330
1F
102
}
  0
LAYOUT
  5
20
102
{ACAD_REACTORS
330
1E
102
}
100
AcDbPlotSettings
  1

  2

  4

  6

 40
0.0
 41
0.0
 42
0.0
 43
0.0
 44
0.0
 45
0.0
 46
0.0
 47
0.0
 48
0.0
 49
0.0
140
0.0
141
0.0
142
1.0
143
1.0
 70
  1024
 72
     0
 73
     0
 74
     0
  7

 75
     0
147
1.0
148
0.0
149
0.0
100
AcDbLayout
  1
Model
 70
     0
 71
     0
 10
0.0
 20
0.0
 11
0.0
 21
0.0
 12
0.0
 22
0.0
 32
0.0
 14
0.0
 24
0.0
 34
0.0
 15
0.0
 25
0.0
 35
0.0
146
0.0
 13
0.0
 23
0.0
 33
0.0
 16
0.0
 26
0.0
 36
0.0
 17
0.0
 27
0.0
 37
0.0
 76
     0
330
A
331
0
345
0
346
0
  0
LAYOUT
  5
21
102
{ACAD_REACTORS
330
1E
102
}
100
AcDbPlotSettings
  1

  2

  4

  6

 40
0.0
 41
0.0
 42
0.0
 43
0.0
 44
0.0
 45
0.0
 46
0.0
 47
0.0
 48
0.0
 49
0.0
140
0.0
141
0.0
142
1.0
143
1.0
 70
     0
 72
     0
 73
     0
 74
     0
  7

 75
     0
147
1.0
148
0.0
149
0.0
100
AcDbLayout
  1
Layout1
 70
     0
 71
     0
 10
0.0
 20
0.0
 11
0.0
 21
0.0
 12
0.0
 22
0.0
 32
0.0
 14
0.0
 24
0.0
 34
0.0
 15
0.0
 25
0.0
 35
0.0
146
0.0
 13
0.0
 23
0.0
 33
0.0
 16
0.0
 26
0.0
 36
0.0
 17
0.0
 27
0.0
 37
0.0
 76
     0
330
B
331
0
345
0
346
0
  0
DICTIONARY
  5
1E
102
{ACAD_REACTORS
330
19
102
}
100
AcDbDictionary
280
     0
281
     1
  3
Layout1
350
21
  3
Model
350
20
  0
DICTIONARY
  5
22
102
{ACAD_REACTORS
330
19
102
}
100
AcDbDictionary
280
     0
281
     1
  0
WIPEOUTVARIABLES
  5
23
100
AcDbWipeoutVariables
 70
     1
  0
ENDSEC
  0
EOF
