0
SECTION
2
HEADER
9
$ACADVER
1
AC1003
9
$INSBASE
10
0.0
20
0.0
30
0.0
9
$EXTMIN
10
0.000
20
0.000
30
0.0
9
$EXTMAX
10
675.000
20
722.000
30
0.0
9
$LIMMIN
10
0.000
20
0.000
9
$LIMMAX
10
675.000
20
722.000
9
$LTSCALE
40
1.0
9
$LUNITS
70
2
9
$LUPREC
70
3
9
$LIMCHECK
70
0
9
$UCSNAME
2

9
$UCSORG
10
0.0
20
0.0
30
0.0
9
$UCSXDIR
10
1.0
20
0.0
30
0.0
9
$UCSYDIR
10
0.0
20
1.0
30
0.0
9
$WORLDVIEW
70
1
9
$UNITMODE
70
0
0
ENDSEC
0
SECTION
2
TABLES
0
TABLE
2
VPORT
70
1
0
VPORT
2
*ACTIVE
70
0
10
0.0
20
0.0
11
1.0
21
1.0
12
337.500
22
361.000
13
0.0
23
0.0
14
1.0
24
1.0
15
0.0
25
0.0
16
0.0
26
0.0
36
1.0
17
0.0
27
0.0
37
0.0
40
500.0
41
1.070
42
50.0
43
0.0
44
0.0
50
0.0
51
0.0
71
0
72
100
73
1
74
1
75
0
76
0
77
0
78
0
0
ENDTAB
0
TABLE
2
LTYPE
70
1
0
LTYPE
2
CONTINUOUS
70
64
3
Solid line
72
65
73
0
40
0.000
0
ENDTAB
0
TABLE
2
LAYER
70
1
0
LAYER
2
0
70
64
62
7
6
CONTINUOUS
0
ENDTAB
0
ENDSEC
0
SECTION
2
BLOCKS
0
ENDSEC
0
SECTION
2
ENTITIES
0
POLYLINE
8
0
6
CONTINUOUS
66
1
62
7
10
0.0
20
0.0
30
0.000000
0
VERTEX
8
0
10
330.000000
20
639.000000
0
VERTEX
8
0
10
334.000000
20
641.000000
0
VERTEX
8
0
10
338.000000
20
646.000000
0
VERTEX
8
0
10
337.000000
20
654.000000
0
VERTEX
8
0
10
333.000000
20
658.000000
0
VERTEX
8
0
10
324.000000
20
658.000000
0
VERTEX
8
0
10
319.000000
20
652.000000
0
VERTEX
8
0
10
319.000000
20
646.000000
0
VERTEX
8
0
10
323.000000
20
641.000000
0
VERTEX
8
0
10
330.000000
20
639.000000
0
SEQEND
0
POLYLINE
8
0
6
CONTINUOUS
66
1
62
7
10
0.0
20
0.0
30
0.000000
0
VERTEX
8
0
10
547.000000
20
503.000000
0
VERTEX
8
0
10
544.240000
20
507.180000
0
VERTEX
8
0
10
529.750594
20
526.767221
0
VERTEX
8
0
10
502.000000
20
556.000000
0
VERTEX
8
0
10
473.820000
20
576.760000
0
VERTEX
8
0
10
457.153846
20
586.230769
0
VERTEX
8
0
10
435.900000
20
597.700000
0
VERTEX
8
0
10
412.100000
20
606.300000
0
VERTEX
8
0
10
394.923077
20
611.615385
0
VERTEX
8
0
10
386.076923
20
613.384615
0
VERTEX
8
0
10
358.962069
20
618.544828
0
VERTEX
8
0
10
335.000000
20
621.000000
0
VERTEX
8
0
10
321.962069
20
620.455172
0
VERTEX
8
0
10
290.048780
20
617.560976
0
VERTEX
8
0
10
272.088235
20
613.647059
0
VERTEX
8
0
10
262.076923
20
611.615385
0
VERTEX
8
0
10
243.100000
20
605.700000
0
VERTEX
8
0
10
221.100000
20
597.700000
0
VERTEX
8
0
10
199.100000
20
585.800000
0
VERTEX
8
0
10
197.900000
20
585.200000
0
VERTEX
8
0
10
183.180000
20
576.760000
0
VERTEX
8
0
10
179.820000
20
574.240000
0
VERTEX
8
0
10
155.000000
20
556.000000
0
VERTEX
8
0
10
127.249406
20
526.767221
0
VERTEX
8
0
10
113.240000
20
507.820000
0
VERTEX
8
0
10
110.000000
20
503.000000
0
SEQEND
0
POLYLINE
8
0
6
CONTINUOUS
66
1
62
7
10
0.0
20
0.0
30
0.000000
0
VERTEX
8
0
10
109.000000
20
502.000000
0
VERTEX
8
0
10
110.000000
20
503.000000
0
SEQEND
0
POLYLINE
8
0
6
CONTINUOUS
66
1
62
7
10
0.0
20
0.0
30
0.000000
0
VERTEX
8
0
10
111.000000
20
502.000000
0
VERTEX
8
0
10
110.000000
20
503.000000
0
SEQEND
0
POLYLINE
8
0
6
CONTINUOUS
66
1
62
7
10
0.0
20
0.0
30
0.000000
0
VERTEX
8
0
10
546.000000
20
502.000000
0
VERTEX
8
0
10
547.000000
20
503.000000
0
SEQEND
0
POLYLINE
8
0
6
CONTINUOUS
66
1
62
7
10
0.0
20
0.0
30
0.000000
0
VERTEX
8
0
10
548.000000
20
502.000000
0
VERTEX
8
0
10
547.000000
20
503.000000
0
SEQEND
0
POLYLINE
8
0
6
CONTINUOUS
66
1
62
7
10
0.0
20
0.0
30
0.000000
0
VERTEX
8
0
10
110.000000
20
501.000000
0
VERTEX
8
0
10
109.000000
20
502.000000
0
SEQEND
0
POLYLINE
8
0
6
CONTINUOUS
66
1
62
7
10
0.0
20
0.0
30
0.000000
0
VERTEX
8
0
10
110.000000
20
501.000000
0
VERTEX
8
0
10
111.000000
20
502.000000
0
SEQEND
0
POLYLINE
8
0
6
CONTINUOUS
66
1
62
7
10
0.0
20
0.0
30
0.000000
0
VERTEX
8
0
10
547.000000
20
501.000000
0
VERTEX
8
0
10
546.000000
20
502.000000
0
SEQEND
0
POLYLINE
8
0
6
CONTINUOUS
66
1
62
7
10
0.0
20
0.0
30
0.000000
0
VERTEX
8
0
10
547.000000
20
501.000000
0
VERTEX
8
0
10
548.000000
20
502.000000
0
SEQEND
0
POLYLINE
8
0
6
CONTINUOUS
66
1
62
7
10
0.0
20
0.0
30
0.000000
0
VERTEX
8
0
10
549.000000
20
501.000000
0
VERTEX
8
0
10
548.000000
20
502.000000
0
SEQEND
0
POLYLINE
8
0
6
CONTINUOUS
66
1
62
7
10
0.0
20
0.0
30
0.000000
0
VERTEX
8
0
10
108.000000
20
500.000000
0
VERTEX
8
0
10
109.000000
20
502.000000
0
SEQEND
0
POLYLINE
8
0
6
CONTINUOUS
66
1
62
7
10
0.0
20
0.0
30
0.000000
0
VERTEX
8
0
10
108.000000
20
500.000000
0
VERTEX
8
0
10
110.000000
20
501.000000
0
SEQEND
0
POLYLINE
8
0
6
CONTINUOUS
66
1
62
7
10
0.0
20
0.0
30
0.000000
0
VERTEX
8
0
10
549.000000
20
500.000000
0
VERTEX
8
0
10
547.000000
20
501.000000
0
SEQEND
0
POLYLINE
8
0
6
CONTINUOUS
66
1
62
7
10
0.0
20
0.0
30
0.000000
0
VERTEX
8
0
10
549.000000
20
500.000000
0
VERTEX
8
0
10
549.000000
20
501.000000
0
SEQEND
0
POLYLINE
8
0
6
CONTINUOUS
66
1
62
7
10
0.0
20
0.0
30
0.000000
0
VERTEX
8
0
10
106.000000
20
498.000000
0
VERTEX
8
0
10
108.000000
20
500.000000
0
SEQEND
0
POLYLINE
8
0
6
CONTINUOUS
66
1
62
7
10
0.0
20
0.0
30
0.000000
0
VERTEX
8
0
10
551.000000
20
498.000000
0
VERTEX
8
0
10
549.000000
20
500.000000
0
SEQEND
0
POLYLINE
8
0
6
CONTINUOUS
66
1
62
7
10
0.0
20
0.0
30
0.000000
0
VERTEX
8
0
10
547.000000
20
471.000000
0
VERTEX
8
0
10
545.000000
20
471.000000
0
SEQEND
0
POLYLINE
8
0
6
CONTINUOUS
66
1
62
7
10
0.0
20
0.0
30
0.000000
0
VERTEX
8
0
10
145.000000
20
458.000000
0
VERTEX
8
0
10
147.000000
20
459.000000
0
VERTEX
8
0
10
149.000000
20
462.000000
0
VERTEX
8
0
10
148.000000
20
467.000000
0
VERTEX
8
0
10
146.000000
20
468.000000
0
VERTEX
8
0
10
144.000000
20
467.000000
0
VERTEX
8
0
10
141.000000
20
463.000000
0
VERTEX
8
0
10
141.000000
20
461.000000
0
VERTEX
8
0
10
144.000000
20
458.000000
0
VERTEX
8
0
10
145.000000
20
458.000000
0
SEQEND
0
POLYLINE
8
0
6
CONTINUOUS
66
1
62
7
10
0.0
20
0.0
30
0.000000
0
VERTEX
8
0
10
158.000000
20
458.000000
0
VERTEX
8
0
10
161.000000
20
459.000000
0
VERTEX
8
0
10
164.000000
20
463.000000
0
VERTEX
8
0
10
163.000000
20
466.000000
0
VERTEX
8
0
10
161.100000
20
467.200000
0
VERTEX
8
0
10
160.000000
20
468.000000
0
VERTEX
8
0
10
157.000000
20
468.000000
0
VERTEX
8
0
10
154.000000
20
464.000000
0
VERTEX
8
0
10
154.000000
20
460.000000
0
VERTEX
8
0
10
156.000000
20
458.000000
0
VERTEX
8
0
10
158.000000
20
458.000000
0
SEQEND
0
POLYLINE
8
0
6
CONTINUOUS
66
1
62
7
10
0.0
20
0.0
30
0.000000
0
VERTEX
8
0
10
500.000000
20
458.000000
0
VERTEX
8
0
10
503.000000
20
461.000000
0
VERTEX
8
0
10
503.000000
20
463.000000
0
VERTEX
8
0
10
501.000000
20
467.000000
0
VERTEX
8
0
10
499.000000
20
468.000000
0
VERTEX
8
0
10
496.000000
20
468.000000
0
VERTEX
8
0
10
493.000000
20
464.000000
0
VERTEX
8
0
10
493.800000
20
460.900000
0
VERTEX
8
0
10
494.000000
20
460.000000
0
VERTEX
8
0
10
496.000000
20
458.000000
0
VERTEX
8
0
10
500.000000
20
458.000000
0
SEQEND
0
POLYLINE
8
0
6
CONTINUOUS
66
1
62
7
10
0.0
20
0.0
30
0.000000
0
VERTEX
8
0
10
513.000000
20
458.000000
0
VERTEX
8
0
10
516.000000
20
461.000000
0
VERTEX
8
0
10
514.000000
20
467.000000
0
VERTEX
8
0
10
513.000000
20
468.000000
0
VERTEX
8
0
10
510.000000
20
468.000000
0
VERTEX
8
0
10
507.000000
20
465.000000
0
VERTEX
8
0
10
507.000000
20
463.000000
0
VERTEX
8
0
10
509.000000
20
459.000000
0
VERTEX
8
0
10
513.000000
20
458.000000
0
SEQEND
0
POLYLINE
8
0
6
CONTINUOUS
66
1
62
7
10
0.0
20
0.0
30
0.000000
0
VERTEX
8
0
10
135.000000
20
455.000000
0
VERTEX
8
0
10
138.000000
20
460.000000
0
VERTEX
8
0
10
138.000000
20
463.000000
0
VERTEX
8
0
10
136.000000
20
467.000000
0
VERTEX
8
0
10
134.000000
20
469.000000
0
VERTEX
8
0
10
133.000000
20
469.000000
0
VERTEX
8
0
10
131.000000
20
467.000000
0
VERTEX
8
0
10
131.000000
20
459.000000
0
VERTEX
8
0
10
132.000000
20
457.000000
0
VERTEX
8
0
10
135.000000
20
455.000000
0
SEQEND
0
POLYLINE
8
0
6
CONTINUOUS
66
1
62
7
10
0.0
20
0.0
30
0.000000
0
VERTEX
8
0
10
522.000000
20
455.000000
0
VERTEX
8
0
10
524.760000
20
458.180000
0
VERTEX
8
0
10
527.000000
20
464.000000
0
VERTEX
8
0
10
526.000000
20
466.000000
0
VERTEX
8
0
10
523.000000
20
469.000000
0
VERTEX
8
0
10
520.800000
20
466.100000
0
VERTEX
8
0
10
519.000000
20
462.000000
0
VERTEX
8
0
10
519.000000
20
457.000000
0
VERTEX
8
0
10
521.000000
20
455.000000
0
VERTEX
8
0
10
522.000000
20
455.000000
0
SEQEND
0
POLYLINE
8
0
6
CONTINUOUS
66
1
62
7
10
0.0
20
0.0
30
0.000000
0
VERTEX
8
0
10
111.000000
20
453.000000
0
VERTEX
8
0
10
122.000000
20
456.000000
0
VERTEX
8
0
10
123.000000
20
457.000000
0
VERTEX
8
0
10
124.000000
20
459.000000
0
VERTEX
8
0
10
124.000000
20
462.000000
0
VERTEX
8
0
10
122.000000
20
465.000000
0
VERTEX
8
0
10
115.000000
20
466.000000
0
VERTEX
8
0
10
111.153846
20
463.769231
0
VERTEX
8
0
10
105.000000
20
460.000000
0
VERTEX
8
0
10
104.000000
20
458.000000
0
VERTEX
8
0
10
104.000000
20
455.000000
0
VERTEX
8
0
10
106.000000
20
453.000000
0
VERTEX
8
0
10
111.000000
20
453.000000
0
SEQEND
0
POLYLINE
8
0
6
CONTINUOUS
66
1
62
7
10
0.0
20
0.0
30
0.000000
0
VERTEX
8
0
10
553.000000
20
453.000000
0
VERTEX
8
0
10
551.000000
20
461.000000
0
VERTEX
8
0
10
547.100000
20
463.200000
0
VERTEX
8
0
10
542.000000
20
466.000000
0
VERTEX
8
0
10
536.000000
20
466.000000
0
VERTEX
8
0
10
534.000000
20
465.000000
0
VERTEX
8
0
10
532.800000
20
463.100000
0
VERTEX
8
0
10
532.000000
20
460.000000
0
VERTEX
8
0
10
536.000000
20
455.000000
0
VERTEX
8
0
10
553.000000
20
453.000000
0
SEQEND
0
POLYLINE
8
0
6
CONTINUOUS
66
1
62
7
10
0.0
20
0.0
30
0.000000
0
VERTEX
8
0
10
575.000000
20
449.000000
0
VERTEX
8
0
10
575.000000
20
450.000000
0
SEQEND
0
POLYLINE
8
0
6
CONTINUOUS
66
1
62
7
10
0.0
20
0.0
30
0.000000
0
VERTEX
8
0
10
82.000000
20
448.000000
0
VERTEX
8
0
10
82.000000
20
450.000000
0
SEQEND
0
POLYLINE
8
0
6
CONTINUOUS
66
1
62
7
10
0.0
20
0.0
30
0.000000
0
VERTEX
8
0
10
507.000000
20
444.000000
0
VERTEX
8
0
10
512.000000
20
448.000000
0
VERTEX
8
0
10
511.200000
20
451.100000
0
VERTEX
8
0
10
511.000000
20
452.000000
0
VERTEX
8
0
10
509.100000
20
453.200000
0
VERTEX
8
0
10
503.250000
20
453.750000
0
VERTEX
8
0
10
502.000000
20
451.000000
0
VERTEX
8
0
10
502.000000
20
447.000000
0
VERTEX
8
0
10
506.100000
20
444.200000
0
VERTEX
8
0
10
507.000000
20
444.000000
0
SEQEND
0
POLYLINE
8
0
6
CONTINUOUS
66
1
62
7
10
0.0
20
0.0
30
0.000000
0
VERTEX
8
0
10
151.000000
20
443.000000
0
VERTEX
8
0
10
153.000000
20
444.000000
0
VERTEX
8
0
10
154.300000
20
446.900000
0
VERTEX
8
0
10
155.000000
20
448.000000
0
VERTEX
8
0
10
154.300000
20
451.100000
0
VERTEX
8
0
10
154.000000
20
453.000000
0
VERTEX
8
0
10
152.100000
20
454.200000
0
VERTEX
8
0
10
151.000000
20
455.000000
0
VERTEX
8
0
10
147.000000
20
455.000000
0
VERTEX
8
0
10
144.000000
20
450.000000
0
VERTEX
8
0
10
144.800000
20
446.900000
0
VERTEX
8
0
10
147.000000
20
444.000000
0
VERTEX
8
0
10
150.100000
20
443.200000
0
VERTEX
8
0
10
151.000000
20
443.000000
0
SEQEND
0
POLYLINE
8
0
6
CONTINUOUS
66
1
62
7
10
0.0
20
0.0
30
0.000000
0
VERTEX
8
0
10
111.000000
20
502.000000
0
VERTEX
8
0
10
125.923077
20
506.384615
0
VERTEX
8
0
10
127.000000
20
507.000000
0
VERTEX
8
0
10
157.000000
20
507.000000
0
VERTEX
8
0
10
181.940000
20
502.580000
0
VERTEX
8
0
10
201.100000
20
498.300000
0
VERTEX
8
0
10
228.100000
20
488.200000
0
VERTEX
8
0
10
243.846154
20
479.769231
0
VERTEX
8
0
10
256.900000
20
471.800000
0
VERTEX
8
0
10
260.000000
20
470.000000
0
VERTEX
8
0
10
270.000000
20
482.000000
0
VERTEX
8
0
10
272.100000
20
482.800000
0
VERTEX
8
0
10
276.000000
20
485.000000
0
VERTEX
8
0
10
286.000000
20
485.000000
0
VERTEX
8
0
10
287.100000
20
484.200000
0
VERTEX
8
0
10
297.000000
20
480.000000
0
VERTEX
8
0
10
311.000000
20
466.000000
0
VERTEX
8
0
10
314.756098
20
460.804878
0
VERTEX
8
0
10
315.243902
20
460.195122
0
VERTEX
8
0
10
326.769231
20
443.846154
0
VERTEX
8
0
10
327.000000
20
443.000000
0
VERTEX
8
0
10
329.000000
20
442.000000
0
VERTEX
8
0
10
333.769231
20
449.153846
0
VERTEX
8
0
10
342.000000
20
462.000000
0
VERTEX
8
0
10
360.000000
20
480.000000
0
VERTEX
8
0
10
364.100000
20
481.700000
0
VERTEX
8
0
10
365.900000
20
482.300000
0
VERTEX
8
0
10
371.000000
20
485.000000
0
VERTEX
8
0
10
381.000000
20
485.000000
0
VERTEX
8
0
10
382.100000
20
484.200000
0
VERTEX
8
0
10
387.000000
20
482.000000
0
VERTEX
8
0
10
396.000000
20
473.000000
0
VERTEX
8
0
10
396.000000
20
472.000000
0
VERTEX
8
0
10
397.000000
20
471.000000
0
VERTEX
8
0
10
406.900000
20
476.200000
0
VERTEX
8
0
10
431.100000
20
489.700000
0
VERTEX
8
0
10
455.923077
20
498.384615
0
VERTEX
8
0
10
476.048780
20
503.560976
0
VERTEX
8
0
10
485.048780
20
504.560976
0
VERTEX
8
0
10
498.932432
20
506.405405
0
VERTEX
8
0
10
500.000000
20
507.000000
0
VERTEX
8
0
10
530.000000
20
507.000000
0
VERTEX
8
0
10
538.911765
20
504.647059
0
VERTEX
8
0
10
546.000000
20
502.000000
0
SEQEND
0
POLYLINE
8
0
6
CONTINUOUS
66
1
62
7
10
0.0
20
0.0
30
0.000000
0
VERTEX
8
0
10
166.000000
20
438.000000
0
VERTEX
8
0
10
169.000000
20
442.000000
0
VERTEX
8
0
10
167.200000
20
451.100000
0
VERTEX
8
0
10
167.000000
20
452.000000
0
VERTEX
8
0
10
164.000000
20
455.000000
0
VERTEX
8
0
10
163.000000
20
455.000000
0
VERTEX
8
0
10
159.800000
20
451.100000
0
VERTEX
8
0
10
159.000000
20
450.000000
0
VERTEX
8
0
10
159.647059
20
446.911765
0
VERTEX
8
0
10
161.000000
20
442.000000
0
VERTEX
8
0
10
166.000000
20
438.000000
0
SEQEND
0
POLYLINE
8
0
6
CONTINUOUS
66
1
62
7
10
0.0
20
0.0
30
0.000000
0
VERTEX
8
0
10
238.000000
20
438.000000
0
VERTEX
8
0
10
238.000000
20
439.000000
0
VERTEX
8
0
10
236.000000
20
441.000000
0
VERTEX
8
0
10
212.100000
20
453.300000
0
VERTEX
8
0
10
209.100000
20
454.300000
0
VERTEX
8
0
10
191.076923
20
459.384615
0
VERTEX
8
0
10
185.000000
20
461.000000
0
VERTEX
8
0
10
177.000000
20
461.000000
0
VERTEX
8
0
10
175.000000
20
459.000000
0
VERTEX
8
0
10
176.647059
20
452.911765
0
VERTEX
8
0
10
180.000000
20
442.000000
0
VERTEX
8
0
10
183.100000
20
440.200000
0
VERTEX
8
0
10
199.012484
20
438.486859
0
VERTEX
8
0
10
238.000000
20
438.000000
0
SEQEND
0
POLYLINE
8
0
6
CONTINUOUS
66
1
62
7
10
0.0
20
0.0
30
0.000000
0
VERTEX
8
0
10
240.000000
20
438.000000
0
VERTEX
8
0
10
238.000000
20
438.000000
0
SEQEND
0
POLYLINE
8
0
6
CONTINUOUS
66
1
62
7
10
0.0
20
0.0
30
0.000000
0
VERTEX
8
0
10
467.000000
20
438.000000
0
VERTEX
8
0
10
471.800000
20
439.600000
0
VERTEX
8
0
10
476.000000
20
442.000000
0
VERTEX
8
0
10
476.800000
20
444.100000
0
VERTEX
8
0
10
482.000000
20
459.000000
0
VERTEX
8
0
10
480.000000
20
461.000000
0
VERTEX
8
0
10
472.000000
20
461.000000
0
VERTEX
8
0
10
467.076923
20
459.615385
0
VERTEX
8
0
10
462.076923
20
458.615385
0
VERTEX
8
0
10
443.100000
20
452.700000
0
VERTEX
8
0
10
437.900000
20
450.200000
0
VERTEX
8
0
10
423.000000
20
442.000000
0
VERTEX
8
0
10
421.000000
20
440.000000
0
VERTEX
8
0
10
422.000000
20
439.000000
0
VERTEX
8
0
10
435.014679
20
438.484404
0
VERTEX
8
0
10
467.000000
20
438.000000
0
SEQEND
0
POLYLINE
8
0
6
CONTINUOUS
66
1
62
7
10
0.0
20
0.0
30
0.000000
0
VERTEX
8
0
10
490.000000
20
438.000000
0
VERTEX
8
0
10
495.000000
20
442.000000
0
VERTEX
8
0
10
496.700000
20
446.100000
0
VERTEX
8
0
10
498.000000
20
450.000000
0
VERTEX
8
0
10
494.000000
20
455.000000
0
VERTEX
8
0
10
491.000000
20
454.000000
0
VERTEX
8
0
10
489.384615
20
450.923077
0
VERTEX
8
0
10
488.615385
20
447.076923
0
VERTEX
8
0
10
488.000000
20
440.000000
0
VERTEX
8
0
10
490.000000
20
438.000000
0
SEQEND
0
POLYLINE
8
0
6
CONTINUOUS
66
1
62
7
10
0.0
20
0.0
30
0.000000
0
VERTEX
8
0
10
139.000000
20
432.000000
0
VERTEX
8
0
10
141.000000
20
433.000000
0
VERTEX
8
0
10
142.200000
20
434.900000
0
VERTEX
8
0
10
143.300000
20
437.900000
0
VERTEX
8
0
10
144.000000
20
442.000000
0
VERTEX
8
0
10
141.000000
20
449.000000
0
VERTEX
8
0
10
137.000000
20
452.000000
0
VERTEX
8
0
10
136.000000
20
452.000000
0
VERTEX
8
0
10
134.000000
20
449.000000
0
VERTEX
8
0
10
134.000000
20
445.000000
0
VERTEX
8
0
10
136.300000
20
437.100000
0
VERTEX
8
0
10
139.000000
20
432.000000
0
SEQEND
0
POLYLINE
8
0
6
CONTINUOUS
66
1
62
7
10
0.0
20
0.0
30
0.000000
0
VERTEX
8
0
10
205.000000
20
432.000000
0
VERTEX
8
0
10
207.000000
20
433.000000
0
SEQEND
0
POLYLINE
8
0
6
CONTINUOUS
66
1
62
7
10
0.0
20
0.0
30
0.000000
0
VERTEX
8
0
10
452.000000
20
432.000000
0
VERTEX
8
0
10
450.000000
20
433.000000
0
SEQEND
0
POLYLINE
8
0
6
CONTINUOUS
66
1
62
7
10
0.0
20
0.0
30
0.000000
0
VERTEX
8
0
10
518.000000
20
432.000000
0
VERTEX
8
0
10
518.800000
20
433.100000
0
VERTEX
8
0
10
523.000000
20
444.000000
0
VERTEX
8
0
10
523.000000
20
449.000000
0
VERTEX
8
0
10
520.000000
20
452.000000
0
VERTEX
8
0
10
519.000000
20
452.000000
0
VERTEX
8
0
10
514.000000
20
445.000000
0
VERTEX
8
0
10
514.000000
20
435.000000
0
VERTEX
8
0
10
517.000000
20
432.000000
0
VERTEX
8
0
10
518.000000
20
432.000000
0
SEQEND
0
POLYLINE
8
0
6
CONTINUOUS
66
1
62
7
10
0.0
20
0.0
30
0.000000
0
VERTEX
8
0
10
122.000000
20
428.000000
0
VERTEX
8
0
10
128.750000
20
430.250000
0
VERTEX
8
0
10
127.300000
20
444.100000
0
VERTEX
8
0
10
126.300000
20
447.100000
0
VERTEX
8
0
10
126.000000
20
449.000000
0
VERTEX
8
0
10
124.000000
20
451.000000
0
VERTEX
8
0
10
115.000000
20
451.000000
0
VERTEX
8
0
10
110.076923
20
449.615385
0
VERTEX
8
0
10
107.250000
20
448.750000
0
VERTEX
8
0
10
107.000000
20
448.000000
0
VERTEX
8
0
10
110.700000
20
431.900000
0
VERTEX
8
0
10
111.000000
20
430.000000
0
VERTEX
8
0
10
113.000000
20
428.000000
0
VERTEX
8
0
10
122.000000
20
428.000000
0
SEQEND
0
POLYLINE
8
0
6
CONTINUOUS
66
1
62
7
10
0.0
20
0.0
30
0.000000
0
VERTEX
8
0
10
544.000000
20
427.000000
0
VERTEX
8
0
10
545.600000
20
429.200000
0
VERTEX
8
0
10
548.647059
20
442.088235
0
VERTEX
8
0
10
549.352941
20
444.911765
0
VERTEX
8
0
10
550.000000
20
446.000000
0
VERTEX
8
0
10
547.000000
20
449.000000
0
VERTEX
8
0
10
535.923077
20
451.615385
0
VERTEX
8
0
10
532.000000
20
452.000000
0
VERTEX
8
0
10
531.000000
20
451.000000
0
VERTEX
8
0
10
528.000000
20
433.000000
0
VERTEX
8
0
10
530.000000
20
430.000000
0
VERTEX
8
0
10
530.900000
20
429.800000
0
VERTEX
8
0
10
539.067568
20
427.405405
0
VERTEX
8
0
10
544.000000
20
427.000000
0
SEQEND
0
POLYLINE
8
0
6
CONTINUOUS
66
1
62
7
10
0.0
20
0.0
30
0.000000
0
VERTEX
8
0
10
258.000000
20
426.000000
0
VERTEX
8
0
10
259.000000
20
427.000000
0
SEQEND
0
POLYLINE
8
0
6
CONTINUOUS
66
1
62
7
10
0.0
20
0.0
30
0.000000
0
VERTEX
8
0
10
260.000000
20
426.000000
0
VERTEX
8
0
10
259.000000
20
427.000000
0
SEQEND
0
POLYLINE
8
0
6
CONTINUOUS
66
1
62
7
10
0.0
20
0.0
30
0.000000
0
VERTEX
8
0
10
259.000000
20
425.000000
0
VERTEX
8
0
10
258.000000
20
426.000000
0
SEQEND
0
POLYLINE
8
0
6
CONTINUOUS
66
1
62
7
10
0.0
20
0.0
30
0.000000
0
VERTEX
8
0
10
259.000000
20
425.000000
0
VERTEX
8
0
10
260.000000
20
426.000000
0
SEQEND
0
POLYLINE
8
0
6
CONTINUOUS
66
1
62
7
10
0.0
20
0.0
30
0.000000
0
VERTEX
8
0
10
156.000000
20
424.000000
0
VERTEX
8
0
10
159.000000
20
425.000000
0
VERTEX
8
0
10
162.000000
20
428.000000
0
VERTEX
8
0
10
163.000000
20
431.000000
0
VERTEX
8
0
10
162.300000
20
434.100000
0
VERTEX
8
0
10
162.000000
20
436.000000
0
VERTEX
8
0
10
157.100000
20
440.200000
0
VERTEX
8
0
10
156.000000
20
441.000000
0
VERTEX
8
0
10
152.900000
20
440.200000
0
VERTEX
8
0
10
152.000000
20
440.000000
0
VERTEX
8
0
10
147.800000
20
435.100000
0
VERTEX
8
0
10
147.000000
20
434.000000
0
VERTEX
8
0
10
148.000000
20
428.000000
0
VERTEX
8
0
10
151.000000
20
425.000000
0
VERTEX
8
0
10
154.100000
20
424.300000
0
VERTEX
8
0
10
156.000000
20
424.000000
0
SEQEND
0
POLYLINE
8
0
6
CONTINUOUS
66
1
62
7
10
0.0
20
0.0
30
0.000000
0
VERTEX
8
0
10
503.000000
20
424.000000
0
VERTEX
8
0
10
506.000000
20
425.000000
0
VERTEX
8
0
10
509.000000
20
428.000000
0
VERTEX
8
0
10
510.000000
20
431.000000
0
VERTEX
8
0
10
509.300000
20
434.100000
0
VERTEX
8
0
10
509.000000
20
436.000000
0
VERTEX
8
0
10
504.100000
20
440.200000
0
VERTEX
8
0
10
503.000000
20
441.000000
0
VERTEX
8
0
10
499.900000
20
440.200000
0
VERTEX
8
0
10
499.000000
20
440.000000
0
VERTEX
8
0
10
494.800000
20
435.100000
0
VERTEX
8
0
10
494.000000
20
434.000000
0
VERTEX
8
0
10
495.000000
20
428.000000
0
VERTEX
8
0
10
498.000000
20
425.000000
0
VERTEX
8
0
10
501.100000
20
424.300000
0
VERTEX
8
0
10
503.000000
20
424.000000
0
SEQEND
0
POLYLINE
8
0
6
CONTINUOUS
66
1
62
7
10
0.0
20
0.0
30
0.000000
0
VERTEX
8
0
10
205.000000
20
432.000000
0
VERTEX
8
0
10
202.100000
20
433.300000
0
VERTEX
8
0
10
201.000000
20
434.000000
0
VERTEX
8
0
10
183.000000
20
434.000000
0
VERTEX
8
0
10
182.000000
20
433.000000
0
VERTEX
8
0
10
182.000000
20
427.000000
0
VERTEX
8
0
10
186.000000
20
421.000000
0
VERTEX
8
0
10
191.900000
20
424.200000
0
VERTEX
8
0
10
193.100000
20
424.800000
0
VERTEX
8
0
10
202.846154
20
430.230769
0
VERTEX
8
0
10
205.000000
20
432.000000
0
SEQEND
0
POLYLINE
8
0
6
CONTINUOUS
66
1
62
7
10
0.0
20
0.0
30
0.000000
0
VERTEX
8
0
10
452.000000
20
432.000000
0
VERTEX
8
0
10
455.180000
20
429.240000
0
VERTEX
8
0
10
466.100000
20
423.200000
0
VERTEX
8
0
10
471.000000
20
421.000000
0
VERTEX
8
0
10
473.000000
20
423.000000
0
VERTEX
8
0
10
475.000000
20
431.000000
0
VERTEX
8
0
10
475.000000
20
432.000000
0
VERTEX
8
0
10
473.000000
20
434.000000
0
VERTEX
8
0
10
456.000000
20
434.000000
0
VERTEX
8
0
10
453.100000
20
432.700000
0
VERTEX
8
0
10
452.000000
20
432.000000
0
SEQEND
0
POLYLINE
8
0
6
CONTINUOUS
66
1
62
7
10
0.0
20
0.0
30
0.000000
0
VERTEX
8
0
10
151.000000
20
408.000000
0
VERTEX
8
0
10
165.100000
20
413.800000
0
VERTEX
8
0
10
172.000000
20
418.000000
0
VERTEX
8
0
10
173.000000
20
425.000000
0
VERTEX
8
0
10
170.000000
20
434.000000
0
VERTEX
8
0
10
169.000000
20
435.000000
0
VERTEX
8
0
10
167.000000
20
433.000000
0
VERTEX
8
0
10
166.200000
20
429.900000
0
VERTEX
8
0
10
165.000000
20
427.000000
0
VERTEX
8
0
10
162.000000
20
424.000000
0
VERTEX
8
0
10
157.911765
20
422.352941
0
VERTEX
8
0
10
151.000000
20
421.000000
0
VERTEX
8
0
10
141.000000
20
429.000000
0
VERTEX
8
0
10
139.000000
20
427.000000
0
VERTEX
8
0
10
139.000000
20
420.000000
0
VERTEX
8
0
10
144.000000
20
410.000000
0
VERTEX
8
0
10
146.000000
20
408.000000
0
VERTEX
8
0
10
151.000000
20
408.000000
0
SEQEND
0
POLYLINE
8
0
6
CONTINUOUS
66
1
62
7
10
0.0
20
0.0
30
0.000000
0
VERTEX
8
0
10
509.000000
20
407.000000
0
VERTEX
8
0
10
515.200000
20
413.900000
0
VERTEX
8
0
10
518.000000
20
423.000000
0
VERTEX
8
0
10
518.000000
20
428.000000
0
VERTEX
8
0
10
517.000000
20
429.000000
0
VERTEX
8
0
10
515.900000
20
428.200000
0
VERTEX
8
0
10
501.000000
20
421.000000
0
VERTEX
8
0
10
497.100000
20
422.200000
0
VERTEX
8
0
10
494.000000
20
424.000000
0
VERTEX
8
0
10
492.769231
20
426.846154
0
VERTEX
8
0
10
488.000000
20
435.000000
0
VERTEX
8
0
10
487.000000
20
435.000000
0
VERTEX
8
0
10
484.700000
20
430.100000
0
VERTEX
8
0
10
483.000000
20
421.000000
0
VERTEX
8
0
10
485.000000
20
417.000000
0
VERTEX
8
0
10
491.900000
20
412.800000
0
VERTEX
8
0
10
493.100000
20
412.200000
0
VERTEX
8
0
10
508.100000
20
407.200000
0
VERTEX
8
0
10
509.000000
20
407.000000
0
SEQEND
0
POLYLINE
8
0
6
CONTINUOUS
66
1
62
7
10
0.0
20
0.0
30
0.000000
0
VERTEX
8
0
10
130.000000
20
401.000000
0
VERTEX
8
0
10
131.076923
20
401.615385
0
VERTEX
8
0
10
137.000000
20
403.000000
0
VERTEX
8
0
10
139.000000
20
405.000000
0
VERTEX
8
0
10
139.000000
20
406.000000
0
VERTEX
8
0
10
133.800000
20
418.900000
0
VERTEX
8
0
10
130.000000
20
425.000000
0
VERTEX
8
0
10
123.000000
20
425.000000
0
VERTEX
8
0
10
121.900000
20
424.300000
0
VERTEX
8
0
10
118.000000
20
423.000000
0
VERTEX
8
0
10
116.000000
20
421.000000
0
VERTEX
8
0
10
116.000000
20
419.000000
0
VERTEX
8
0
10
121.300000
20
405.100000
0
VERTEX
8
0
10
122.000000
20
403.000000
0
VERTEX
8
0
10
123.900000
20
401.800000
0
VERTEX
8
0
10
130.000000
20
401.000000
0
SEQEND
0
POLYLINE
8
0
6
CONTINUOUS
66
1
62
7
10
0.0
20
0.0
30
0.000000
0
VERTEX
8
0
10
530.000000
20
401.000000
0
VERTEX
8
0
10
533.000000
20
402.000000
0
VERTEX
8
0
10
534.230769
20
403.846154
0
VERTEX
8
0
10
535.769231
20
406.153846
0
VERTEX
8
0
10
541.000000
20
421.000000
0
VERTEX
8
0
10
539.000000
20
423.000000
0
VERTEX
8
0
10
533.900000
20
424.700000
0
VERTEX
8
0
10
532.100000
20
425.300000
0
VERTEX
8
0
10
528.000000
20
426.000000
0
VERTEX
8
0
10
526.000000
20
425.000000
0
VERTEX
8
0
10
524.800000
20
423.100000
0
VERTEX
8
0
10
523.800000
20
421.100000
0
VERTEX
8
0
10
519.000000
20
409.000000
0
VERTEX
8
0
10
519.000000
20
404.000000
0
VERTEX
8
0
10
520.000000
20
403.000000
0
VERTEX
8
0
10
526.076923
20
401.384615
0
VERTEX
8
0
10
530.000000
20
401.000000
0
SEQEND
0
POLYLINE
8
0
6
CONTINUOUS
66
1
62
7
10
0.0
20
0.0
30
0.000000
0
VERTEX
8
0
10
411.000000
20
398.000000
0
VERTEX
8
0
10
412.000000
20
399.000000
0
VERTEX
8
0
10
415.000000
20
399.000000
0
SEQEND
0
POLYLINE
8
0
6
CONTINUOUS
66
1
62
7
10
0.0
20
0.0
30
0.000000
0
VERTEX
8
0
10
416.000000
20
398.000000
0
VERTEX
8
0
10
415.000000
20
399.000000
0
SEQEND
0
POLYLINE
8
0
6
CONTINUOUS
66
1
62
7
10
0.0
20
0.0
30
0.000000
0
VERTEX
8
0
10
412.000000
20
397.000000
0
VERTEX
8
0
10
411.000000
20
398.000000
0
SEQEND
0
POLYLINE
8
0
6
CONTINUOUS
66
1
62
7
10
0.0
20
0.0
30
0.000000
0
VERTEX
8
0
10
412.000000
20
397.000000
0
VERTEX
8
0
10
415.000000
20
397.000000
0
VERTEX
8
0
10
416.000000
20
398.000000
0
SEQEND
0
POLYLINE
8
0
6
CONTINUOUS
66
1
62
7
10
0.0
20
0.0
30
0.000000
0
VERTEX
8
0
10
157.000000
20
391.000000
0
VERTEX
8
0
10
166.900000
20
394.300000
0
VERTEX
8
0
10
176.000000
20
399.000000
0
VERTEX
8
0
10
177.000000
20
402.000000
0
VERTEX
8
0
10
176.000000
20
409.000000
0
VERTEX
8
0
10
174.000000
20
411.000000
0
VERTEX
8
0
10
169.000000
20
411.000000
0
VERTEX
8
0
10
161.100000
20
407.800000
0
VERTEX
8
0
10
150.000000
20
402.000000
0
VERTEX
8
0
10
148.000000
20
400.000000
0
VERTEX
8
0
10
149.200000
20
397.100000
0
VERTEX
8
0
10
152.000000
20
392.000000
0
VERTEX
8
0
10
157.000000
20
391.000000
0
SEQEND
0
POLYLINE
8
0
6
CONTINUOUS
66
1
62
7
10
0.0
20
0.0
30
0.000000
0
VERTEX
8
0
10
503.000000
20
390.000000
0
VERTEX
8
0
10
506.000000
20
392.000000
0
VERTEX
8
0
10
507.647059
20
396.088235
0
VERTEX
8
0
10
509.000000
20
401.000000
0
VERTEX
8
0
10
501.100000
20
405.200000
0
VERTEX
8
0
10
492.100000
20
409.300000
0
VERTEX
8
0
10
482.250000
20
411.750000
0
VERTEX
8
0
10
482.000000
20
411.000000
0
VERTEX
8
0
10
481.000000
20
403.000000
0
VERTEX
8
0
10
482.000000
20
400.000000
0
VERTEX
8
0
10
494.100000
20
393.300000
0
VERTEX
8
0
10
503.000000
20
390.000000
0
SEQEND
0
POLYLINE
8
0
6
CONTINUOUS
66
1
62
7
10
0.0
20
0.0
30
0.000000
0
VERTEX
8
0
10
137.000000
20
380.000000
0
VERTEX
8
0
10
144.000000
20
383.000000
0
VERTEX
8
0
10
146.000000
20
385.000000
0
VERTEX
8
0
10
146.000000
20
388.000000
0
VERTEX
8
0
10
143.000000
20
397.000000
0
VERTEX
8
0
10
141.000000
20
399.000000
0
VERTEX
8
0
10
133.000000
20
399.000000
0
VERTEX
8
0
10
130.000000
20
398.000000
0
VERTEX
8
0
10
128.000000
20
396.000000
0
VERTEX
8
0
10
131.200000
20
384.100000
0
VERTEX
8
0
10
134.000000
20
380.000000
0
VERTEX
8
0
10
137.000000
20
380.000000
0
SEQEND
0
POLYLINE
8
0
6
CONTINUOUS
66
1
62
7
10
0.0
20
0.0
30
0.000000
0
VERTEX
8
0
10
206.000000
20
379.000000
0
VERTEX
8
0
10
203.000000
20
385.000000
0
VERTEX
8
0
10
199.000000
20
389.000000
0
VERTEX
8
0
10
192.900000
20
392.800000
0
VERTEX
8
0
10
190.000000
20
394.000000
0
VERTEX
8
0
10
189.000000
20
393.000000
0
VERTEX
8
0
10
189.700000
20
389.900000
0
VERTEX
8
0
10
193.000000
20
381.000000
0
VERTEX
8
0
10
195.000000
20
379.000000
0
VERTEX
8
0
10
206.000000
20
379.000000
0
SEQEND
0
POLYLINE
8
0
6
CONTINUOUS
66
1
62
7
10
0.0
20
0.0
30
0.000000
0
VERTEX
8
0
10
523.000000
20
379.000000
0
VERTEX
8
0
10
524.800000
20
382.100000
0
VERTEX
8
0
10
529.000000
20
395.000000
0
VERTEX
8
0
10
529.000000
20
396.000000
0
VERTEX
8
0
10
527.000000
20
398.000000
0
VERTEX
8
0
10
516.000000
20
400.000000
0
VERTEX
8
0
10
512.000000
20
394.000000
0
VERTEX
8
0
10
512.000000
20
385.000000
0
VERTEX
8
0
10
513.846154
20
383.769231
0
VERTEX
8
0
10
521.200000
20
379.400000
0
VERTEX
8
0
10
523.000000
20
379.000000
0
SEQEND
0
POLYLINE
8
0
6
CONTINUOUS
66
1
62
7
10
0.0
20
0.0
30
0.000000
0
VERTEX
8
0
10
457.000000
20
378.000000
0
VERTEX
8
0
10
462.000000
20
380.000000
0
VERTEX
8
0
10
465.200000
20
384.900000
0
VERTEX
8
0
10
467.352941
20
391.911765
0
VERTEX
8
0
10
468.000000
20
393.000000
0
VERTEX
8
0
10
467.000000
20
394.000000
0
VERTEX
8
0
10
463.846154
20
392.230769
0
VERTEX
8
0
10
463.180000
20
391.760000
0
VERTEX
8
0
10
449.000000
20
380.000000
0
VERTEX
8
0
10
453.076923
20
378.384615
0
VERTEX
8
0
10
457.000000
20
378.000000
0
SEQEND
0
POLYLINE
8
0
6
CONTINUOUS
66
1
62
7
10
0.0
20
0.0
30
0.000000
0
VERTEX
8
0
10
258.000000
20
426.000000
0
VERTEX
8
0
10
249.900000
20
429.800000
0
VERTEX
8
0
10
238.932432
20
433.594595
0
VERTEX
8
0
10
233.000000
20
435.000000
0
VERTEX
8
0
10
219.923077
20
433.384615
0
VERTEX
8
0
10
216.076923
20
432.615385
0
VERTEX
8
0
10
195.846154
20
422.230769
0
VERTEX
8
0
10
195.153846
20
421.769231
0
VERTEX
8
0
10
183.000000
20
414.000000
0
VERTEX
8
0
10
183.000000
20
411.000000
0
VERTEX
8
0
10
185.900000
20
408.800000
0
VERTEX
8
0
10
187.076923
20
408.384615
0
VERTEX
8
0
10
216.044554
20
404.445545
0
VERTEX
8
0
10
224.955446
20
403.554455
0
VERTEX
8
0
10
239.911765
20
400.647059
0
VERTEX
8
0
10
247.911765
20
398.647059
0
VERTEX
8
0
10
267.100000
20
391.200000
0
VERTEX
8
0
10
271.100000
20
389.200000
0
VERTEX
8
0
10
292.846154
20
376.769231
0
VERTEX
8
0
10
303.000000
20
370.000000
0
VERTEX
8
0
10
305.000000
20
372.000000
0
VERTEX
8
0
10
299.754098
20
380.795082
0
VERTEX
8
0
10
295.245902
20
386.204918
0
VERTEX
8
0
10
280.750247
20
402.761106
0
VERTEX
8
0
10
259.000000
20
425.000000
0
SEQEND
0
POLYLINE
8
0
6
CONTINUOUS
66
1
62
7
10
0.0
20
0.0
30
0.000000
0
VERTEX
8
0
10
545.000000
20
471.000000
0
VERTEX
8
0
10
544.000000
20
473.000000
0
VERTEX
8
0
10
529.000000
20
480.000000
0
VERTEX
8
0
10
501.000000
20
480.000000
0
VERTEX
8
0
10
479.067568
20
476.594595
0
VERTEX
8
0
10
477.911765
20
476.352941
0
VERTEX
8
0
10
454.100000
20
469.700000
0
VERTEX
8
0
10
452.900000
20
469.200000
0
VERTEX
8
0
10
427.100000
20
457.800000
0
VERTEX
8
0
10
421.100000
20
454.800000
0
VERTEX
8
0
10
380.000000
20
427.000000
0
VERTEX
8
0
10
372.000000
20
419.000000
0
VERTEX
8
0
10
361.240000
20
405.820000
0
VERTEX
8
0
10
348.200000
20
386.900000
0
VERTEX
8
0
10
345.800000
20
383.100000
0
VERTEX
8
0
10
341.000000
20
373.000000
0
VERTEX
8
0
10
341.000000
20
371.000000
0
VERTEX
8
0
10
342.000000
20
370.000000
0
VERTEX
8
0
10
344.000000
20
371.000000
0
VERTEX
8
0
10
354.249057
20
382.771698
0
VERTEX
8
0
10
392.000000
20
423.000000
0
VERTEX
8
0
10
410.180000
20
437.760000
0
VERTEX
8
0
10
418.180000
20
443.760000
0
VERTEX
8
0
10
444.100000
20
456.700000
0
VERTEX
8
0
10
462.900000
20
463.300000
0
VERTEX
8
0
10
480.923077
20
467.384615
0
VERTEX
8
0
10
492.932432
20
469.405405
0
VERTEX
8
0
10
517.000000
20
472.000000
0
VERTEX
8
0
10
545.000000
20
471.000000
0
SEQEND
0
POLYLINE
8
0
6
CONTINUOUS
66
1
62
7
10
0.0
20
0.0
30
0.000000
0
VERTEX
8
0
10
169.000000
20
368.000000
0
VERTEX
8
0
10
170.100000
20
368.700000
0
VERTEX
8
0
10
183.000000
20
373.000000
0
VERTEX
8
0
10
186.000000
20
376.000000
0
VERTEX
8
0
10
186.000000
20
380.000000
0
VERTEX
8
0
10
183.800000
20
383.900000
0
VERTEX
8
0
10
181.800000
20
387.900000
0
VERTEX
8
0
10
179.000000
20
392.000000
0
VERTEX
8
0
10
175.000000
20
394.000000
0
VERTEX
8
0
10
172.000000
20
394.000000
0
VERTEX
8
0
10
170.900000
20
393.200000
0
VERTEX
8
0
10
159.000000
20
387.000000
0
VERTEX
8
0
10
157.000000
20
385.000000
0
VERTEX
8
0
10
156.300000
20
382.900000
0
VERTEX
8
0
10
155.000000
20
380.000000
0
VERTEX
8
0
10
159.000000
20
370.000000
0
VERTEX
8
0
10
161.000000
20
368.000000
0
VERTEX
8
0
10
169.000000
20
368.000000
0
SEQEND
0
POLYLINE
8
0
6
CONTINUOUS
66
1
62
7
10
0.0
20
0.0
30
0.000000
0
VERTEX
8
0
10
260.000000
20
426.000000
0
VERTEX
8
0
10
278.000000
20
411.000000
0
VERTEX
8
0
10
284.000000
20
405.000000
0
VERTEX
8
0
10
304.756098
20
378.804878
0
VERTEX
8
0
10
313.000000
20
368.000000
0
VERTEX
8
0
10
315.000000
20
370.000000
0
VERTEX
8
0
10
313.300000
20
378.100000
0
VERTEX
8
0
10
305.760000
20
392.820000
0
VERTEX
8
0
10
296.240000
20
405.180000
0
VERTEX
8
0
10
279.000000
20
424.000000
0
VERTEX
8
0
10
249.846154
20
445.769231
0
VERTEX
8
0
10
227.900000
20
458.800000
0
VERTEX
8
0
10
215.100000
20
465.200000
0
VERTEX
8
0
10
191.088235
20
473.352941
0
VERTEX
8
0
10
183.088235
20
475.352941
0
VERTEX
8
0
10
165.053846
20
478.430769
0
VERTEX
8
0
10
156.000000
20
480.000000
0
VERTEX
8
0
10
130.000000
20
480.000000
0
VERTEX
8
0
10
115.000000
20
474.000000
0
VERTEX
8
0
10
114.000000
20
473.000000
0
VERTEX
8
0
10
115.000000
20
472.000000
0
VERTEX
8
0
10
126.020755
20
471.477358
0
VERTEX
8
0
10
147.979245
20
470.522642
0
VERTEX
8
0
10
167.932432
20
468.594595
0
VERTEX
8
0
10
178.932432
20
466.594595
0
VERTEX
8
0
10
206.100000
20
459.200000
0
VERTEX
8
0
10
215.100000
20
455.200000
0
VERTEX
8
0
10
242.100000
20
440.200000
0
VERTEX
8
0
10
259.000000
20
427.000000
0
SEQEND
0
POLYLINE
8
0
6
CONTINUOUS
66
1
62
7
10
0.0
20
0.0
30
0.000000
0
VERTEX
8
0
10
350.000000
20
368.000000
0
VERTEX
8
0
10
351.800000
20
373.100000
0
VERTEX
8
0
10
356.245902
20
379.795082
0
VERTEX
8
0
10
369.754098
20
396.204918
0
VERTEX
8
0
10
392.795082
20
419.245902
0
VERTEX
8
0
10
403.900000
20
428.200000
0
VERTEX
8
0
10
413.911765
20
432.352941
0
VERTEX
8
0
10
421.000000
20
434.000000
0
VERTEX
8
0
10
439.000000
20
434.000000
0
VERTEX
8
0
10
454.846154
20
425.769231
0
VERTEX
8
0
10
460.820000
20
421.760000
0
VERTEX
8
0
10
471.000000
20
414.000000
0
VERTEX
8
0
10
473.000000
20
411.000000
0
VERTEX
8
0
10
471.100000
20
409.800000
0
VERTEX
8
0
10
469.900000
20
409.300000
0
VERTEX
8
0
10
456.946154
20
406.430769
0
VERTEX
8
0
10
442.053846
20
404.569231
0
VERTEX
8
0
10
422.911765
20
401.352941
0
VERTEX
8
0
10
415.000000
20
399.000000
0
SEQEND
0
POLYLINE
8
0
6
CONTINUOUS
66
1
62
7
10
0.0
20
0.0
30
0.000000
0
VERTEX
8
0
10
350.000000
20
368.000000
0
VERTEX
8
0
10
350.846154
20
368.230769
0
VERTEX
8
0
10
372.846154
20
383.230769
0
VERTEX
8
0
10
375.153846
20
384.769231
0
VERTEX
8
0
10
389.100000
20
390.800000
0
VERTEX
8
0
10
389.900000
20
391.200000
0
VERTEX
8
0
10
408.088235
20
397.647059
0
VERTEX
8
0
10
411.000000
20
398.000000
0
SEQEND
0
POLYLINE
8
0
6
CONTINUOUS
66
1
62
7
10
0.0
20
0.0
30
0.000000
0
VERTEX
8
0
10
349.000000
20
367.000000
0
VERTEX
8
0
10
350.000000
20
368.000000
0
SEQEND
0
POLYLINE
8
0
6
CONTINUOUS
66
1
62
7
10
0.0
20
0.0
30
0.000000
0
VERTEX
8
0
10
493.000000
20
367.000000
0
VERTEX
8
0
10
494.100000
20
367.700000
0
VERTEX
8
0
10
496.000000
20
368.000000
0
VERTEX
8
0
10
499.200000
20
371.900000
0
VERTEX
8
0
10
501.000000
20
375.000000
0
VERTEX
8
0
10
501.000000
20
384.000000
0
VERTEX
8
0
10
500.000000
20
386.000000
0
VERTEX
8
0
10
498.000000
20
388.000000
0
VERTEX
8
0
10
492.900000
20
389.800000
0
VERTEX
8
0
10
489.100000
20
391.300000
0
VERTEX
8
0
10
485.000000
20
393.000000
0
VERTEX
8
0
10
478.088235
20
391.647059
0
VERTEX
8
0
10
476.900000
20
391.200000
0
VERTEX
8
0
10
474.000000
20
389.000000
0
VERTEX
8
0
10
472.800000
20
386.100000
0
VERTEX
8
0
10
471.000000
20
381.000000
0
VERTEX
8
0
10
472.000000
20
375.000000
0
VERTEX
8
0
10
479.900000
20
370.800000
0
VERTEX
8
0
10
493.000000
20
367.000000
0
SEQEND
0
POLYLINE
8
0
6
CONTINUOUS
66
1
62
7
10
0.0
20
0.0
30
0.000000
0
VERTEX
8
0
10
241.000000
20
363.000000
0
VERTEX
8
0
10
240.000000
20
363.000000
0
SEQEND
0
POLYLINE
8
0
6
CONTINUOUS
66
1
62
7
10
0.0
20
0.0
30
0.000000
0
VERTEX
8
0
10
305.000000
20
362.000000
0
VERTEX
8
0
10
306.000000
20
363.000000
0
VERTEX
8
0
10
280.153846
20
380.230769
0
VERTEX
8
0
10
277.846154
20
381.769231
0
VERTEX
8
0
10
256.900000
20
391.800000
0
VERTEX
8
0
10
253.100000
20
393.300000
0
VERTEX
8
0
10
227.932432
20
399.594595
0
VERTEX
8
0
10
216.060000
20
401.420000
0
VERTEX
8
0
10
196.000000
20
404.000000
0
VERTEX
8
0
10
186.000000
20
404.000000
0
VERTEX
8
0
10
184.800000
20
402.100000
0
VERTEX
8
0
10
184.000000
20
401.000000
0
VERTEX
8
0
10
186.900000
20
398.800000
0
VERTEX
8
0
10
190.100000
20
397.200000
0
VERTEX
8
0
10
200.180000
20
391.240000
0
VERTEX
8
0
10
215.180000
20
380.240000
0
VERTEX
8
0
10
226.100000
20
374.200000
0
VERTEX
8
0
10
230.900000
20
371.800000
0
VERTEX
8
0
10
247.076923
20
364.384615
0
VERTEX
8
0
10
250.923077
20
363.615385
0
VERTEX
8
0
10
267.012484
20
362.486859
0
VERTEX
8
0
10
305.000000
20
362.000000
0
SEQEND
0
POLYLINE
8
0
6
CONTINUOUS
66
1
62
7
10
0.0
20
0.0
30
0.000000
0
VERTEX
8
0
10
412.000000
20
397.000000
0
VERTEX
8
0
10
393.900000
20
389.200000
0
VERTEX
8
0
10
367.900000
20
375.200000
0
VERTEX
8
0
10
362.900000
20
372.200000
0
VERTEX
8
0
10
356.000000
20
368.000000
0
VERTEX
8
0
10
353.000000
20
365.000000
0
VERTEX
8
0
10
353.000000
20
364.000000
0
VERTEX
8
0
10
355.000000
20
362.000000
0
VERTEX
8
0
10
408.000000
20
362.000000
0
VERTEX
8
0
10
412.195122
20
365.756098
0
VERTEX
8
0
10
423.100000
20
370.800000
0
VERTEX
8
0
10
442.820000
20
381.240000
0
VERTEX
8
0
10
446.180000
20
383.760000
0
VERTEX
8
0
10
464.100000
20
395.800000
0
VERTEX
8
0
10
468.100000
20
397.800000
0
VERTEX
8
0
10
472.000000
20
401.000000
0
VERTEX
8
0
10
468.000000
20
403.000000
0
VERTEX
8
0
10
447.000000
20
403.000000
0
VERTEX
8
0
10
420.932432
20
398.405405
0
VERTEX
8
0
10
416.000000
20
398.000000
0
SEQEND
0
POLYLINE
8
0
6
CONTINUOUS
66
1
62
7
10
0.0
20
0.0
30
0.000000
0
VERTEX
8
0
10
149.000000
20
360.000000
0
VERTEX
8
0
10
154.000000
20
363.000000
0
VERTEX
8
0
10
151.300000
20
372.100000
0
VERTEX
8
0
10
150.000000
20
379.000000
0
VERTEX
8
0
10
148.000000
20
381.000000
0
VERTEX
8
0
10
141.000000
20
378.000000
0
VERTEX
8
0
10
138.000000
20
374.000000
0
VERTEX
8
0
10
138.000000
20
373.000000
0
VERTEX
8
0
10
142.200000
20
363.100000
0
VERTEX
8
0
10
144.000000
20
360.000000
0
VERTEX
8
0
10
149.000000
20
360.000000
0
SEQEND
0
POLYLINE
8
0
6
CONTINUOUS
66
1
62
7
10
0.0
20
0.0
30
0.000000
0
VERTEX
8
0
10
512.000000
20
358.000000
0
VERTEX
8
0
10
515.200000
20
363.900000
0
VERTEX
8
0
10
519.000000
20
373.000000
0
VERTEX
8
0
10
519.000000
20
374.000000
0
VERTEX
8
0
10
516.000000
20
378.000000
0
VERTEX
8
0
10
513.900000
20
378.800000
0
VERTEX
8
0
10
509.000000
20
381.000000
0
VERTEX
8
0
10
507.000000
20
379.000000
0
VERTEX
8
0
10
504.200000
20
368.900000
0
VERTEX
8
0
10
503.800000
20
368.100000
0
VERTEX
8
0
10
502.000000
20
365.000000
0
VERTEX
8
0
10
502.000000
20
363.000000
0
VERTEX
8
0
10
503.000000
20
362.000000
0
VERTEX
8
0
10
511.100000
20
358.200000
0
VERTEX
8
0
10
512.000000
20
358.000000
0
SEQEND
0
POLYLINE
8
0
6
CONTINUOUS
66
1
62
7
10
0.0
20
0.0
30
0.000000
0
VERTEX
8
0
10
226.000000
20
357.000000
0
VERTEX
8
0
10
240.000000
20
363.000000
0
SEQEND
0
POLYLINE
8
0
6
CONTINUOUS
66
1
62
7
10
0.0
20
0.0
30
0.000000
0
VERTEX
8
0
10
227.000000
20
356.000000
0
VERTEX
8
0
10
226.000000
20
357.000000
0
SEQEND
0
POLYLINE
8
0
6
CONTINUOUS
66
1
62
7
10
0.0
20
0.0
30
0.000000
0
VERTEX
8
0
10
240.000000
20
363.000000
0
VERTEX
8
0
10
236.820000
20
365.760000
0
VERTEX
8
0
10
232.900000
20
367.800000
0
VERTEX
8
0
10
210.932432
20
373.594595
0
VERTEX
8
0
10
206.067568
20
374.405405
0
VERTEX
8
0
10
199.000000
20
375.000000
0
VERTEX
8
0
10
197.000000
20
373.000000
0
VERTEX
8
0
10
199.300000
20
368.100000
0
VERTEX
8
0
10
204.240000
20
359.180000
0
VERTEX
8
0
10
209.000000
20
353.000000
0
VERTEX
8
0
10
226.000000
20
357.000000
0
SEQEND
0
POLYLINE
8
0
6
CONTINUOUS
66
1
62
7
10
0.0
20
0.0
30
0.000000
0
VERTEX
8
0
10
448.000000
20
353.000000
0
VERTEX
8
0
10
450.000000
20
354.000000
0
VERTEX
8
0
10
454.200000
20
361.900000
0
VERTEX
8
0
10
454.800000
20
363.100000
0
VERTEX
8
0
10
457.240000
20
367.820000
0
VERTEX
8
0
10
460.000000
20
371.000000
0
VERTEX
8
0
10
460.000000
20
373.000000
0
VERTEX
8
0
10
458.100000
20
374.200000
0
VERTEX
8
0
10
457.000000
20
375.000000
0
VERTEX
8
0
10
448.923077
20
374.384615
0
VERTEX
8
0
10
436.076923
20
371.615385
0
VERTEX
8
0
10
427.100000
20
368.700000
0
VERTEX
8
0
10
417.000000
20
364.000000
0
VERTEX
8
0
10
420.000000
20
361.000000
0
VERTEX
8
0
10
430.088235
20
357.352941
0
VERTEX
8
0
10
448.000000
20
353.000000
0
SEQEND
0
POLYLINE
8
0
6
CONTINUOUS
66
1
62
7
10
0.0
20
0.0
30
0.000000
0
VERTEX
8
0
10
176.000000
20
338.000000
0
VERTEX
8
0
10
188.900000
20
344.200000
0
VERTEX
8
0
10
201.000000
20
352.000000
0
VERTEX
8
0
10
201.000000
20
353.000000
0
VERTEX
8
0
10
194.000000
20
366.000000
0
VERTEX
8
0
10
191.000000
20
369.000000
0
VERTEX
8
0
10
187.000000
20
370.000000
0
VERTEX
8
0
10
182.076923
20
368.615385
0
VERTEX
8
0
10
166.000000
20
363.000000
0
VERTEX
8
0
10
164.000000
20
361.000000
0
VERTEX
8
0
10
164.000000
20
356.000000
0
VERTEX
8
0
10
165.200000
20
354.100000
0
VERTEX
8
0
10
166.700000
20
350.900000
0
VERTEX
8
0
10
171.000000
20
341.000000
0
VERTEX
8
0
10
176.000000
20
338.000000
0
SEQEND
0
POLYLINE
8
0
6
CONTINUOUS
66
1
62
7
10
0.0
20
0.0
30
0.000000
0
VERTEX
8
0
10
481.000000
20
338.000000
0
VERTEX
8
0
10
485.000000
20
341.000000
0
VERTEX
8
0
10
488.800000
20
348.100000
0
VERTEX
8
0
10
489.800000
20
350.100000
0
VERTEX
8
0
10
493.000000
20
359.000000
0
VERTEX
8
0
10
489.000000
20
363.000000
0
VERTEX
8
0
10
477.900000
20
367.800000
0
VERTEX
8
0
10
477.100000
20
368.200000
0
VERTEX
8
0
10
473.000000
20
370.000000
0
VERTEX
8
0
10
468.000000
20
370.000000
0
VERTEX
8
0
10
460.000000
20
362.000000
0
VERTEX
8
0
10
456.000000
20
354.000000
0
VERTEX
8
0
10
456.000000
20
352.000000
0
VERTEX
8
0
10
469.100000
20
343.200000
0
VERTEX
8
0
10
481.000000
20
338.000000
0
SEQEND
0
POLYLINE
8
0
6
CONTINUOUS
66
1
62
7
10
0.0
20
0.0
30
0.000000
0
VERTEX
8
0
10
153.000000
20
326.000000
0
VERTEX
8
0
10
156.100000
20
327.700000
0
VERTEX
8
0
10
161.820000
20
330.240000
0
VERTEX
8
0
10
167.000000
20
334.000000
0
VERTEX
8
0
10
163.700000
20
340.900000
0
VERTEX
8
0
10
162.800000
20
342.900000
0
VERTEX
8
0
10
160.384615
20
350.076923
0
VERTEX
8
0
10
159.000000
20
356.000000
0
VERTEX
8
0
10
156.000000
20
358.000000
0
VERTEX
8
0
10
152.900000
20
357.200000
0
VERTEX
8
0
10
148.000000
20
355.000000
0
VERTEX
8
0
10
144.000000
20
350.000000
0
VERTEX
8
0
10
147.647059
20
340.911765
0
VERTEX
8
0
10
148.647059
20
336.911765
0
VERTEX
8
0
10
151.000000
20
327.000000
0
VERTEX
8
0
10
153.000000
20
326.000000
0
SEQEND
0
POLYLINE
8
0
6
CONTINUOUS
66
1
62
7
10
0.0
20
0.0
30
0.000000
0
VERTEX
8
0
10
503.000000
20
326.000000
0
VERTEX
8
0
10
504.769231
20
328.153846
0
VERTEX
8
0
10
507.700000
20
335.100000
0
VERTEX
8
0
10
508.300000
20
336.900000
0
VERTEX
8
0
10
512.400000
20
349.800000
0
VERTEX
8
0
10
511.000000
20
353.000000
0
VERTEX
8
0
10
504.100000
20
357.200000
0
VERTEX
8
0
10
503.000000
20
358.000000
0
VERTEX
8
0
10
499.000000
20
357.000000
0
VERTEX
8
0
10
492.769231
20
341.153846
0
VERTEX
8
0
10
490.000000
20
337.000000
0
VERTEX
8
0
10
490.000000
20
334.000000
0
VERTEX
8
0
10
491.000000
20
333.000000
0
VERTEX
8
0
10
501.100000
20
327.200000
0
VERTEX
8
0
10
503.000000
20
326.000000
0
SEQEND
0
POLYLINE
8
0
6
CONTINUOUS
66
1
62
7
10
0.0
20
0.0
30
0.000000
0
VERTEX
8
0
10
227.000000
20
356.000000
0
VERTEX
8
0
10
225.900000
20
355.200000
0
VERTEX
8
0
10
213.000000
20
350.000000
0
VERTEX
8
0
10
211.000000
20
348.000000
0
VERTEX
8
0
10
217.700000
20
329.900000
0
VERTEX
8
0
10
220.230769
20
324.153846
0
VERTEX
8
0
10
224.000000
20
319.000000
0
VERTEX
8
0
10
224.900000
20
318.800000
0
VERTEX
8
0
10
228.000000
20
317.000000
0
VERTEX
8
0
10
231.000000
20
317.000000
0
VERTEX
8
0
10
268.900000
20
330.300000
0
VERTEX
8
0
10
286.100000
20
337.800000
0
VERTEX
8
0
10
297.000000
20
344.000000
0
VERTEX
8
0
10
304.000000
20
351.000000
0
VERTEX
8
0
10
305.000000
20
354.000000
0
VERTEX
8
0
10
303.800000
20
355.900000
0
VERTEX
8
0
10
302.000000
20
359.000000
0
VERTEX
8
0
10
227.000000
20
356.000000
0
SEQEND
0
POLYLINE
8
0
6
CONTINUOUS
66
1
62
7
10
0.0
20
0.0
30
0.000000
0
VERTEX
8
0
10
432.000000
20
316.000000
0
VERTEX
8
0
10
445.200000
20
341.900000
0
VERTEX
8
0
10
446.000000
20
343.000000
0
VERTEX
8
0
10
446.000000
20
347.000000
0
VERTEX
8
0
10
437.900000
20
351.700000
0
VERTEX
8
0
10
436.100000
20
352.300000
0
VERTEX
8
0
10
412.967005
20
355.538071
0
VERTEX
8
0
10
398.972414
20
356.531034
0
VERTEX
8
0
10
355.000000
20
359.000000
0
VERTEX
8
0
10
352.000000
20
355.000000
0
VERTEX
8
0
10
352.800000
20
351.900000
0
VERTEX
8
0
10
360.000000
20
344.000000
0
VERTEX
8
0
10
371.100000
20
337.200000
0
VERTEX
8
0
10
371.900000
20
336.800000
0
VERTEX
8
0
10
412.100000
20
321.300000
0
VERTEX
8
0
10
413.900000
20
320.700000
0
VERTEX
8
0
10
426.060000
20
316.420000
0
VERTEX
8
0
10
432.000000
20
316.000000
0
SEQEND
0
POLYLINE
8
0
6
CONTINUOUS
66
1
62
7
10
0.0
20
0.0
30
0.000000
0
VERTEX
8
0
10
397.000000
20
296.000000
0
VERTEX
8
0
10
396.000000
20
297.000000
0
SEQEND
0
POLYLINE
8
0
6
CONTINUOUS
66
1
62
7
10
0.0
20
0.0
30
0.000000
0
VERTEX
8
0
10
272.000000
20
295.000000
0
VERTEX
8
0
10
277.100000
20
296.700000
0
VERTEX
8
0
10
283.153846
20
299.769231
0
VERTEX
8
0
10
286.820000
20
302.240000
0
VERTEX
8
0
10
313.000000
20
321.000000
0
VERTEX
8
0
10
314.200000
20
323.900000
0
VERTEX
8
0
10
316.000000
20
327.000000
0
VERTEX
8
0
10
315.000000
20
333.000000
0
VERTEX
8
0
10
314.000000
20
334.000000
0
VERTEX
8
0
10
298.820000
20
322.240000
0
VERTEX
8
0
10
287.846154
20
314.230769
0
VERTEX
8
0
10
264.000000
20
302.000000
0
VERTEX
8
0
10
262.000000
20
300.000000
0
VERTEX
8
0
10
262.000000
20
297.000000
0
VERTEX
8
0
10
263.900000
20
295.800000
0
VERTEX
8
0
10
272.000000
20
295.000000
0
SEQEND
0
POLYLINE
8
0
6
CONTINUOUS
66
1
62
7
10
0.0
20
0.0
30
0.000000
0
VERTEX
8
0
10
433.000000
20
295.000000
0
VERTEX
8
0
10
436.000000
20
300.000000
0
VERTEX
8
0
10
436.000000
20
306.000000
0
VERTEX
8
0
10
430.846154
20
309.769231
0
VERTEX
8
0
10
368.900000
20
333.800000
0
VERTEX
8
0
10
361.195122
20
338.243902
0
VERTEX
8
0
10
348.000000
20
350.000000
0
VERTEX
8
0
10
346.000000
20
348.000000
0
VERTEX
8
0
10
346.000000
20
344.000000
0
VERTEX
8
0
10
350.200000
20
334.100000
0
VERTEX
8
0
10
350.800000
20
332.900000
0
VERTEX
8
0
10
356.000000
20
327.000000
0
VERTEX
8
0
10
362.204918
20
322.245902
0
VERTEX
8
0
10
373.100000
20
315.200000
0
VERTEX
8
0
10
373.900000
20
314.800000
0
VERTEX
8
0
10
390.088235
20
307.352941
0
VERTEX
8
0
10
433.000000
20
295.000000
0
SEQEND
0
POLYLINE
8
0
6
CONTINUOUS
66
1
62
7
10
0.0
20
0.0
30
0.000000
0
VERTEX
8
0
10
222.000000
20
294.000000
0
VERTEX
8
0
10
261.900000
20
306.300000
0
VERTEX
8
0
10
279.100000
20
312.800000
0
VERTEX
8
0
10
293.000000
20
321.000000
0
VERTEX
8
0
10
307.000000
20
335.000000
0
VERTEX
8
0
10
308.769231
20
338.153846
0
VERTEX
8
0
10
311.000000
20
344.000000
0
VERTEX
8
0
10
310.000000
20
350.000000
0
VERTEX
8
0
10
309.000000
20
351.000000
0
VERTEX
8
0
10
307.000000
20
349.000000
0
VERTEX
8
0
10
307.000000
20
348.000000
0
VERTEX
8
0
10
302.000000
20
343.000000
0
VERTEX
8
0
10
291.846154
20
336.230769
0
VERTEX
8
0
10
285.900000
20
333.300000
0
VERTEX
8
0
10
223.000000
20
308.000000
0
VERTEX
8
0
10
221.000000
20
306.000000
0
VERTEX
8
0
10
220.700000
20
304.100000
0
VERTEX
8
0
10
220.000000
20
303.000000
0
VERTEX
8
0
10
220.000000
20
295.000000
0
VERTEX
8
0
10
222.000000
20
294.000000
0
SEQEND
0
POLYLINE
8
0
6
CONTINUOUS
66
1
62
7
10
0.0
20
0.0
30
0.000000
0
VERTEX
8
0
10
396.000000
20
297.000000
0
VERTEX
8
0
10
392.000000
20
302.000000
0
VERTEX
8
0
10
387.900000
20
303.700000
0
VERTEX
8
0
10
384.900000
20
304.800000
0
VERTEX
8
0
10
368.195122
20
313.243902
0
VERTEX
8
0
10
363.216814
20
317.247788
0
VERTEX
8
0
10
343.000000
20
335.000000
0
VERTEX
8
0
10
341.000000
20
330.000000
0
VERTEX
8
0
10
341.000000
20
326.000000
0
VERTEX
8
0
10
343.000000
20
322.000000
0
VERTEX
8
0
10
350.820000
20
315.760000
0
VERTEX
8
0
10
357.153846
20
311.230769
0
VERTEX
8
0
10
378.900000
20
296.800000
0
VERTEX
8
0
10
383.088235
20
295.352941
0
VERTEX
8
0
10
393.000000
20
293.000000
0
VERTEX
8
0
10
396.000000
20
297.000000
0
SEQEND
0
POLYLINE
8
0
6
CONTINUOUS
66
1
62
7
10
0.0
20
0.0
30
0.000000
0
VERTEX
8
0
10
206.000000
20
290.000000
0
VERTEX
8
0
10
209.900000
20
292.200000
0
VERTEX
8
0
10
216.000000
20
296.000000
0
VERTEX
8
0
10
216.200000
20
296.900000
0
VERTEX
8
0
10
218.000000
20
302.000000
0
VERTEX
8
0
10
218.000000
20
311.000000
0
VERTEX
8
0
10
211.700000
20
329.900000
0
VERTEX
8
0
10
209.352941
20
337.088235
0
VERTEX
8
0
10
208.000000
20
343.000000
0
VERTEX
8
0
10
206.000000
20
345.000000
0
VERTEX
8
0
10
200.000000
20
345.000000
0
VERTEX
8
0
10
198.100000
20
343.800000
0
VERTEX
8
0
10
195.100000
20
342.700000
0
VERTEX
8
0
10
183.000000
20
336.000000
0
VERTEX
8
0
10
178.000000
20
330.000000
0
VERTEX
8
0
10
178.800000
20
327.900000
0
VERTEX
8
0
10
180.230769
20
325.153846
0
VERTEX
8
0
10
193.800000
20
299.900000
0
VERTEX
8
0
10
200.000000
20
293.000000
0
VERTEX
8
0
10
204.100000
20
291.200000
0
VERTEX
8
0
10
206.000000
20
290.000000
0
SEQEND
0
POLYLINE
8
0
6
CONTINUOUS
66
1
62
7
10
0.0
20
0.0
30
0.000000
0
VERTEX
8
0
10
454.000000
20
289.000000
0
VERTEX
8
0
10
461.769231
20
300.153846
0
VERTEX
8
0
10
476.800000
20
326.100000
0
VERTEX
8
0
10
478.200000
20
328.900000
0
VERTEX
8
0
10
477.230769
20
332.153846
0
VERTEX
8
0
10
474.000000
20
336.000000
0
VERTEX
8
0
10
459.900000
20
342.700000
0
VERTEX
8
0
10
457.000000
20
344.000000
0
VERTEX
8
0
10
453.000000
20
344.000000
0
VERTEX
8
0
10
450.000000
20
343.000000
0
VERTEX
8
0
10
444.800000
20
335.100000
0
VERTEX
8
0
10
442.647059
20
327.088235
0
VERTEX
8
0
10
440.000000
20
313.000000
0
VERTEX
8
0
10
440.000000
20
305.000000
0
VERTEX
8
0
10
442.000000
20
295.000000
0
VERTEX
8
0
10
448.900000
20
290.800000
0
VERTEX
8
0
10
454.000000
20
289.000000
0
SEQEND
0
POLYLINE
8
0
6
CONTINUOUS
66
1
62
7
10
0.0
20
0.0
30
0.000000
0
VERTEX
8
0
10
189.000000
20
287.000000
0
VERTEX
8
0
10
194.000000
20
290.000000
0
VERTEX
8
0
10
194.000000
20
291.000000
0
VERTEX
8
0
10
181.800000
20
312.900000
0
VERTEX
8
0
10
181.000000
20
315.000000
0
VERTEX
8
0
10
168.100000
20
327.200000
0
VERTEX
8
0
10
167.000000
20
328.000000
0
VERTEX
8
0
10
158.900000
20
324.200000
0
VERTEX
8
0
10
158.100000
20
323.800000
0
VERTEX
8
0
10
154.000000
20
321.000000
0
VERTEX
8
0
10
153.800000
20
320.100000
0
VERTEX
8
0
10
154.230769
20
317.153846
0
VERTEX
8
0
10
162.000000
20
306.000000
0
VERTEX
8
0
10
167.846154
20
301.769231
0
VERTEX
8
0
10
189.000000
20
287.000000
0
SEQEND
0
POLYLINE
8
0
6
CONTINUOUS
66
1
62
7
10
0.0
20
0.0
30
0.000000
0
VERTEX
8
0
10
317.000000
20
287.000000
0
VERTEX
8
0
10
317.000000
20
289.000000
0
SEQEND
0
POLYLINE
8
0
6
CONTINUOUS
66
1
62
7
10
0.0
20
0.0
30
0.000000
0
VERTEX
8
0
10
465.000000
20
286.000000
0
VERTEX
8
0
10
476.100000
20
292.800000
0
VERTEX
8
0
10
498.000000
20
310.000000
0
VERTEX
8
0
10
498.230769
20
310.846154
0
VERTEX
8
0
10
503.500000
20
319.000000
0
VERTEX
8
0
10
503.000000
20
321.000000
0
VERTEX
8
0
10
500.153846
20
323.230769
0
VERTEX
8
0
10
497.153846
20
325.230769
0
VERTEX
8
0
10
493.000000
20
328.000000
0
VERTEX
8
0
10
488.000000
20
328.000000
0
VERTEX
8
0
10
482.000000
20
322.000000
0
VERTEX
8
0
10
463.800000
20
298.100000
0
VERTEX
8
0
10
463.300000
20
296.900000
0
VERTEX
8
0
10
461.000000
20
288.000000
0
VERTEX
8
0
10
463.000000
20
286.000000
0
VERTEX
8
0
10
465.000000
20
286.000000
0
SEQEND
0
POLYLINE
8
0
6
CONTINUOUS
66
1
62
7
10
0.0
20
0.0
30
0.000000
0
VERTEX
8
0
10
266.000000
20
284.000000
0
VERTEX
8
0
10
269.000000
20
286.000000
0
VERTEX
8
0
10
271.200000
20
288.900000
0
VERTEX
8
0
10
272.000000
20
291.000000
0
VERTEX
8
0
10
271.000000
20
292.000000
0
VERTEX
8
0
10
268.000000
20
291.000000
0
VERTEX
8
0
10
265.000000
20
287.000000
0
VERTEX
8
0
10
265.000000
20
285.000000
0
VERTEX
8
0
10
266.000000
20
284.000000
0
SEQEND
0
POLYLINE
8
0
6
CONTINUOUS
66
1
62
7
10
0.0
20
0.0
30
0.000000
0
VERTEX
8
0
10
390.000000
20
284.000000
0
VERTEX
8
0
10
392.000000
20
286.000000
0
VERTEX
8
0
10
389.000000
20
291.000000
0
VERTEX
8
0
10
387.100000
20
291.300000
0
VERTEX
8
0
10
384.250000
20
291.750000
0
VERTEX
8
0
10
384.200000
20
290.100000
0
VERTEX
8
0
10
387.000000
20
286.000000
0
VERTEX
8
0
10
390.000000
20
284.000000
0
SEQEND
0
POLYLINE
8
0
6
CONTINUOUS
66
1
62
7
10
0.0
20
0.0
30
0.000000
0
VERTEX
8
0
10
222.000000
20
279.000000
0
VERTEX
8
0
10
232.911765
20
282.352941
0
VERTEX
8
0
10
252.900000
20
289.300000
0
VERTEX
8
0
10
254.100000
20
289.800000
0
VERTEX
8
0
10
259.000000
20
293.000000
0
VERTEX
8
0
10
259.000000
20
297.000000
0
VERTEX
8
0
10
255.000000
20
299.000000
0
VERTEX
8
0
10
250.000000
20
299.000000
0
VERTEX
8
0
10
241.088235
20
296.647059
0
VERTEX
8
0
10
239.911765
20
296.352941
0
VERTEX
8
0
10
221.000000
20
290.000000
0
VERTEX
8
0
10
218.000000
20
287.000000
0
VERTEX
8
0
10
219.000000
20
281.000000
0
VERTEX
8
0
10
221.000000
20
279.000000
0
VERTEX
8
0
10
222.000000
20
279.000000
0
SEQEND
0
POLYLINE
8
0
6
CONTINUOUS
66
1
62
7
10
0.0
20
0.0
30
0.000000
0
VERTEX
8
0
10
397.000000
20
296.000000
0
VERTEX
8
0
10
397.000000
20
295.000000
0
VERTEX
8
0
10
400.000000
20
292.000000
0
VERTEX
8
0
10
432.100000
20
278.200000
0
VERTEX
8
0
10
434.000000
20
277.000000
0
VERTEX
8
0
10
436.000000
20
278.000000
0
VERTEX
8
0
10
439.000000
20
284.000000
0
VERTEX
8
0
10
438.200000
20
286.100000
0
VERTEX
8
0
10
438.000000
20
287.000000
0
VERTEX
8
0
10
433.100000
20
290.200000
0
VERTEX
8
0
10
425.088235
20
293.352941
0
VERTEX
8
0
10
422.100000
20
294.300000
0
VERTEX
8
0
10
405.000000
20
299.000000
0
VERTEX
8
0
10
400.000000
20
299.000000
0
VERTEX
8
0
10
397.000000
20
296.000000
0
SEQEND
0
POLYLINE
8
0
6
CONTINUOUS
66
1
62
7
10
0.0
20
0.0
30
0.000000
0
VERTEX
8
0
10
429.000000
20
251.000000
0
VERTEX
8
0
10
431.200000
20
254.900000
0
VERTEX
8
0
10
432.569231
20
258.053846
0
VERTEX
8
0
10
434.000000
20
271.000000
0
VERTEX
8
0
10
432.000000
20
273.000000
0
VERTEX
8
0
10
418.900000
20
279.700000
0
VERTEX
8
0
10
407.911765
20
284.647059
0
VERTEX
8
0
10
398.000000
20
287.000000
0
VERTEX
8
0
10
396.000000
20
286.000000
0
VERTEX
8
0
10
394.800000
20
284.100000
0
VERTEX
8
0
10
394.000000
20
283.000000
0
VERTEX
8
0
10
394.000000
20
278.000000
0
VERTEX
8
0
10
396.240000
20
273.180000
0
VERTEX
8
0
10
407.000000
20
260.000000
0
VERTEX
8
0
10
411.100000
20
258.200000
0
VERTEX
8
0
10
413.900000
20
256.800000
0
VERTEX
8
0
10
423.088235
20
252.352941
0
VERTEX
8
0
10
429.000000
20
251.000000
0
SEQEND
0
POLYLINE
8
0
6
CONTINUOUS
66
1
62
7
10
0.0
20
0.0
30
0.000000
0
VERTEX
8
0
10
229.000000
20
250.000000
0
VERTEX
8
0
10
239.100000
20
254.800000
0
VERTEX
8
0
10
250.000000
20
260.000000
0
VERTEX
8
0
10
259.200000
20
269.900000
0
VERTEX
8
0
10
263.000000
20
276.000000
0
VERTEX
8
0
10
263.000000
20
283.000000
0
VERTEX
8
0
10
260.000000
20
286.000000
0
VERTEX
8
0
10
253.000000
20
286.000000
0
VERTEX
8
0
10
245.100000
20
282.700000
0
VERTEX
8
0
10
233.100000
20
277.800000
0
VERTEX
8
0
10
223.000000
20
272.000000
0
VERTEX
8
0
10
223.000000
20
263.000000
0
VERTEX
8
0
10
228.000000
20
250.000000
0
VERTEX
8
0
10
229.000000
20
250.000000
0
SEQEND
0
POLYLINE
8
0
6
CONTINUOUS
66
1
62
7
10
0.0
20
0.0
30
0.000000
0
VERTEX
8
0
10
292.000000
20
239.000000
0
VERTEX
8
0
10
298.000000
20
243.000000
0
VERTEX
8
0
10
301.200000
20
248.900000
0
VERTEX
8
0
10
302.800000
20
252.100000
0
VERTEX
8
0
10
310.352941
20
279.911765
0
VERTEX
8
0
10
310.594595
20
281.067568
0
VERTEX
8
0
10
316.000000
20
313.000000
0
VERTEX
8
0
10
314.000000
20
315.000000
0
VERTEX
8
0
10
302.180000
20
308.760000
0
VERTEX
8
0
10
289.195122
20
298.756098
0
VERTEX
8
0
10
274.000000
20
286.000000
0
VERTEX
8
0
10
270.800000
20
281.100000
0
VERTEX
8
0
10
270.000000
20
280.000000
0
VERTEX
8
0
10
271.384615
20
272.076923
0
VERTEX
8
0
10
274.200000
20
265.100000
0
VERTEX
8
0
10
275.800000
20
261.900000
0
VERTEX
8
0
10
282.245902
20
250.204918
0
VERTEX
8
0
10
292.000000
20
239.000000
0
SEQEND
0
POLYLINE
8
0
6
CONTINUOUS
66
1
62
7
10
0.0
20
0.0
30
0.000000
0
VERTEX
8
0
10
365.000000
20
239.000000
0
VERTEX
8
0
10
374.752941
20
250.211765
0
VERTEX
8
0
10
376.800000
20
254.100000
0
VERTEX
8
0
10
378.200000
20
256.900000
0
VERTEX
8
0
10
387.000000
20
274.000000
0
VERTEX
8
0
10
387.000000
20
279.000000
0
VERTEX
8
0
10
385.760000
20
280.820000
0
VERTEX
8
0
10
378.000000
20
291.000000
0
VERTEX
8
0
10
372.195122
20
295.243902
0
VERTEX
8
0
10
343.000000
20
317.000000
0
VERTEX
8
0
10
341.000000
20
316.000000
0
VERTEX
8
0
10
344.594595
20
292.932432
0
VERTEX
8
0
10
345.405405
20
288.067568
0
VERTEX
8
0
10
352.800000
20
252.900000
0
VERTEX
8
0
10
354.230769
20
250.153846
0
VERTEX
8
0
10
359.000000
20
243.000000
0
VERTEX
8
0
10
365.000000
20
239.000000
0
SEQEND
0
POLYLINE
8
0
6
CONTINUOUS
66
1
62
7
10
0.0
20
0.0
30
0.000000
0
VERTEX
8
0
10
231.000000
20
237.000000
0
VERTEX
8
0
10
232.000000
20
238.000000
0
SEQEND
0
POLYLINE
8
0
6
CONTINUOUS
66
1
62
7
10
0.0
20
0.0
30
0.000000
0
VERTEX
8
0
10
233.000000
20
236.000000
0
VERTEX
8
0
10
232.000000
20
238.000000
0
SEQEND
0
POLYLINE
8
0
6
CONTINUOUS
66
1
62
7
10
0.0
20
0.0
30
0.000000
0
VERTEX
8
0
10
232.000000
20
235.000000
0
VERTEX
8
0
10
231.000000
20
237.000000
0
SEQEND
0
POLYLINE
8
0
6
CONTINUOUS
66
1
62
7
10
0.0
20
0.0
30
0.000000
0
VERTEX
8
0
10
232.000000
20
235.000000
0
VERTEX
8
0
10
233.000000
20
236.000000
0
SEQEND
0
POLYLINE
8
0
6
CONTINUOUS
66
1
62
7
10
0.0
20
0.0
30
0.000000
0
VERTEX
8
0
10
234.000000
20
235.000000
0
VERTEX
8
0
10
233.000000
20
236.000000
0
SEQEND
0
POLYLINE
8
0
6
CONTINUOUS
66
1
62
7
10
0.0
20
0.0
30
0.000000
0
VERTEX
8
0
10
233.000000
20
234.000000
0
VERTEX
8
0
10
232.000000
20
235.000000
0
SEQEND
0
POLYLINE
8
0
6
CONTINUOUS
66
1
62
7
10
0.0
20
0.0
30
0.000000
0
VERTEX
8
0
10
234.000000
20
234.000000
0
VERTEX
8
0
10
233.000000
20
234.000000
0
SEQEND
0
POLYLINE
8
0
6
CONTINUOUS
66
1
62
7
10
0.0
20
0.0
30
0.000000
0
VERTEX
8
0
10
234.000000
20
234.000000
0
VERTEX
8
0
10
234.000000
20
235.000000
0
SEQEND
0
POLYLINE
8
0
6
CONTINUOUS
66
1
62
7
10
0.0
20
0.0
30
0.000000
0
VERTEX
8
0
10
233.000000
20
233.000000
0
VERTEX
8
0
10
233.000000
20
234.000000
0
SEQEND
0
POLYLINE
8
0
6
CONTINUOUS
66
1
62
7
10
0.0
20
0.0
30
0.000000
0
VERTEX
8
0
10
235.000000
20
233.000000
0
VERTEX
8
0
10
234.000000
20
234.000000
0
SEQEND
0
POLYLINE
8
0
6
CONTINUOUS
66
1
62
7
10
0.0
20
0.0
30
0.000000
0
VERTEX
8
0
10
234.000000
20
232.000000
0
VERTEX
8
0
10
233.000000
20
233.000000
0
SEQEND
0
POLYLINE
8
0
6
CONTINUOUS
66
1
62
7
10
0.0
20
0.0
30
0.000000
0
VERTEX
8
0
10
234.000000
20
232.000000
0
VERTEX
8
0
10
235.000000
20
233.000000
0
SEQEND
0
POLYLINE
8
0
6
CONTINUOUS
66
1
62
7
10
0.0
20
0.0
30
0.000000
0
VERTEX
8
0
10
236.000000
20
232.000000
0
VERTEX
8
0
10
235.000000
20
233.000000
0
SEQEND
0
POLYLINE
8
0
6
CONTINUOUS
66
1
62
7
10
0.0
20
0.0
30
0.000000
0
VERTEX
8
0
10
235.000000
20
231.000000
0
VERTEX
8
0
10
234.000000
20
232.000000
0
SEQEND
0
POLYLINE
8
0
6
CONTINUOUS
66
1
62
7
10
0.0
20
0.0
30
0.000000
0
VERTEX
8
0
10
235.000000
20
231.000000
0
VERTEX
8
0
10
236.000000
20
232.000000
0
SEQEND
0
POLYLINE
8
0
6
CONTINUOUS
66
1
62
7
10
0.0
20
0.0
30
0.000000
0
VERTEX
8
0
10
298.000000
20
231.000000
0
VERTEX
8
0
10
299.769231
20
233.153846
0
VERTEX
8
0
10
302.000000
20
239.000000
0
VERTEX
8
0
10
300.000000
20
240.000000
0
VERTEX
8
0
10
297.000000
20
237.000000
0
VERTEX
8
0
10
296.000000
20
233.000000
0
VERTEX
8
0
10
298.000000
20
231.000000
0
SEQEND
0
POLYLINE
8
0
6
CONTINUOUS
66
1
62
7
10
0.0
20
0.0
30
0.000000
0
VERTEX
8
0
10
359.000000
20
231.000000
0
VERTEX
8
0
10
361.000000
20
233.000000
0
VERTEX
8
0
10
360.200000
20
235.100000
0
VERTEX
8
0
10
359.800000
20
235.900000
0
VERTEX
8
0
10
358.000000
20
239.000000
0
VERTEX
8
0
10
357.000000
20
238.000000
0
VERTEX
8
0
10
357.000000
20
232.000000
0
VERTEX
8
0
10
359.000000
20
231.000000
0
SEQEND
0
POLYLINE
8
0
6
CONTINUOUS
66
1
62
7
10
0.0
20
0.0
30
0.000000
0
VERTEX
8
0
10
329.000000
20
229.000000
0
VERTEX
8
0
10
331.352941
20
233.911765
0
VERTEX
8
0
10
333.549180
20
248.040984
0
VERTEX
8
0
10
334.535398
20
259.030973
0
VERTEX
8
0
10
338.352941
20
332.911765
0
VERTEX
8
0
10
343.000000
20
349.000000
0
VERTEX
8
0
10
343.000000
20
353.000000
0
VERTEX
8
0
10
338.647059
20
371.911765
0
VERTEX
8
0
10
338.000000
20
373.000000
0
VERTEX
8
0
10
338.000000
20
387.000000
0
VERTEX
8
0
10
339.405405
20
392.932432
0
VERTEX
8
0
10
340.352941
20
396.911765
0
VERTEX
8
0
10
347.230769
20
412.846154
0
VERTEX
8
0
10
350.800000
20
419.100000
0
VERTEX
8
0
10
361.243902
20
433.804878
0
VERTEX
8
0
10
365.245902
20
438.795082
0
VERTEX
8
0
10
379.000000
20
455.000000
0
VERTEX
8
0
10
376.000000
20
458.000000
0
VERTEX
8
0
10
375.000000
20
458.000000
0
VERTEX
8
0
10
358.000000
20
443.000000
0
VERTEX
8
0
10
349.769231
20
430.153846
0
VERTEX
8
0
10
341.200000
20
414.900000
0
VERTEX
8
0
10
330.000000
20
392.000000
0
VERTEX
8
0
10
328.000000
20
390.000000
0
VERTEX
8
0
10
321.800000
20
401.900000
0
VERTEX
8
0
10
310.200000
20
425.100000
0
VERTEX
8
0
10
299.000000
20
443.000000
0
VERTEX
8
0
10
291.216814
20
450.247788
0
VERTEX
8
0
10
282.000000
20
458.000000
0
VERTEX
8
0
10
281.000000
20
458.000000
0
VERTEX
8
0
10
279.000000
20
456.000000
0
VERTEX
8
0
10
292.240000
20
438.180000
0
VERTEX
8
0
10
303.760000
20
422.820000
0
VERTEX
8
0
10
308.800000
20
413.900000
0
VERTEX
8
0
10
313.800000
20
402.900000
0
VERTEX
8
0
10
317.615385
20
386.923077
0
VERTEX
8
0
10
318.384615
20
383.076923
0
VERTEX
8
0
10
319.000000
20
382.000000
0
VERTEX
8
0
10
319.000000
20
371.000000
0
VERTEX
8
0
10
316.700000
20
366.100000
0
VERTEX
8
0
10
315.700000
20
363.100000
0
VERTEX
8
0
10
313.000000
20
354.000000
0
VERTEX
8
0
10
318.384615
20
327.076923
0
VERTEX
8
0
10
321.475113
20
262.022624
0
VERTEX
8
0
10
322.560976
20
244.951220
0
VERTEX
8
0
10
324.300000
20
234.100000
0
VERTEX
8
0
10
324.800000
20
232.900000
0
VERTEX
8
0
10
328.000000
20
229.000000
0
VERTEX
8
0
10
329.000000
20
229.000000
0
SEQEND
0
POLYLINE
8
0
6
CONTINUOUS
66
1
62
7
10
0.0
20
0.0
30
0.000000
0
VERTEX
8
0
10
236.000000
20
232.000000
0
VERTEX
8
0
10
241.384615
20
227.576923
0
VERTEX
8
0
10
243.000000
20
228.000000
0
VERTEX
8
0
10
245.000000
20
230.000000
0
VERTEX
8
0
10
248.647059
20
241.088235
0
VERTEX
8
0
10
249.352941
20
243.911765
0
VERTEX
8
0
10
250.000000
20
245.000000
0
VERTEX
8
0
10
250.000000
20
252.000000
0
VERTEX
8
0
10
248.000000
20
254.000000
0
VERTEX
8
0
10
245.100000
20
252.700000
0
VERTEX
8
0
10
238.900000
20
250.200000
0
VERTEX
8
0
10
234.000000
20
248.000000
0
VERTEX
8
0
10
230.000000
20
244.000000
0
VERTEX
8
0
10
231.700000
20
239.900000
0
VERTEX
8
0
10
232.000000
20
238.000000
0
SEQEND
0
POLYLINE
8
0
6
CONTINUOUS
66
1
62
7
10
0.0
20
0.0
30
0.000000
0
VERTEX
8
0
10
416.000000
20
227.000000
0
VERTEX
8
0
10
425.000000
20
239.000000
0
VERTEX
8
0
10
425.000000
20
245.000000
0
VERTEX
8
0
10
420.100000
20
249.200000
0
VERTEX
8
0
10
411.911765
20
252.647059
0
VERTEX
8
0
10
409.088235
20
253.352941
0
VERTEX
8
0
10
408.000000
20
254.000000
0
VERTEX
8
0
10
406.000000
20
251.000000
0
VERTEX
8
0
10
406.000000
20
247.000000
0
VERTEX
8
0
10
412.000000
20
230.000000
0
VERTEX
8
0
10
416.000000
20
227.000000
0
SEQEND
0
POLYLINE
8
0
6
CONTINUOUS
66
1
62
7
10
0.0
20
0.0
30
0.000000
0
VERTEX
8
0
10
264.000000
20
220.000000
0
VERTEX
8
0
10
267.911765
20
221.352941
0
VERTEX
8
0
10
281.000000
20
226.000000
0
VERTEX
8
0
10
285.000000
20
230.000000
0
VERTEX
8
0
10
286.000000
20
237.000000
0
VERTEX
8
0
10
278.200000
20
251.100000
0
VERTEX
8
0
10
271.756098
20
263.804878
0
VERTEX
8
0
10
266.000000
20
271.000000
0
VERTEX
8
0
10
260.000000
20
266.000000
0
VERTEX
8
0
10
258.200000
20
261.900000
0
VERTEX
8
0
10
253.000000
20
248.000000
0
VERTEX
8
0
10
253.000000
20
232.000000
0
VERTEX
8
0
10
254.352941
20
228.088235
0
VERTEX
8
0
10
254.700000
20
226.900000
0
VERTEX
8
0
10
255.000000
20
225.000000
0
VERTEX
8
0
10
259.000000
20
221.000000
0
VERTEX
8
0
10
262.100000
20
220.300000
0
VERTEX
8
0
10
264.000000
20
220.000000
0
SEQEND
0
POLYLINE
8
0
6
CONTINUOUS
66
1
62
7
10
0.0
20
0.0
30
0.000000
0
VERTEX
8
0
10
317.000000
20
287.000000
0
VERTEX
8
0
10
315.000000
20
286.000000
0
VERTEX
8
0
10
307.384615
20
252.923077
0
VERTEX
8
0
10
306.615385
20
249.076923
0
VERTEX
8
0
10
303.000000
20
233.000000
0
VERTEX
8
0
10
303.000000
20
226.000000
0
VERTEX
8
0
10
305.000000
20
224.000000
0
VERTEX
8
0
10
310.100000
20
221.300000
0
VERTEX
8
0
10
313.100000
20
220.200000
0
VERTEX
8
0
10
316.000000
20
219.000000
0
VERTEX
8
0
10
318.000000
20
221.000000
0
VERTEX
8
0
10
319.000000
20
226.000000
0
VERTEX
8
0
10
319.000000
20
268.000000
0
VERTEX
8
0
10
317.538071
20
281.967005
0
VERTEX
8
0
10
317.000000
20
287.000000
0
SEQEND
0
POLYLINE
8
0
6
CONTINUOUS
66
1
62
7
10
0.0
20
0.0
30
0.000000
0
VERTEX
8
0
10
341.000000
20
219.000000
0
VERTEX
8
0
10
345.900000
20
221.300000
0
VERTEX
8
0
10
354.000000
20
226.000000
0
VERTEX
8
0
10
354.000000
20
233.000000
0
VERTEX
8
0
10
352.615385
20
237.923077
0
VERTEX
8
0
10
352.384615
20
239.076923
0
VERTEX
8
0
10
342.700000
20
284.900000
0
VERTEX
8
0
10
341.000000
20
288.000000
0
VERTEX
8
0
10
340.000000
20
287.000000
0
VERTEX
8
0
10
337.000000
20
230.000000
0
VERTEX
8
0
10
337.615385
20
228.923077
0
VERTEX
8
0
10
339.517241
20
221.206897
0
VERTEX
8
0
10
341.000000
20
219.000000
0
SEQEND
0
POLYLINE
8
0
6
CONTINUOUS
66
1
62
7
10
0.0
20
0.0
30
0.000000
0
VERTEX
8
0
10
396.000000
20
219.000000
0
VERTEX
8
0
10
402.300000
20
226.900000
0
VERTEX
8
0
10
404.000000
20
232.000000
0
VERTEX
8
0
10
404.000000
20
247.000000
0
VERTEX
8
0
10
402.647059
20
250.911765
0
VERTEX
8
0
10
399.200000
20
261.100000
0
VERTEX
8
0
10
397.200000
20
265.100000
0
VERTEX
8
0
10
394.000000
20
269.000000
0
VERTEX
8
0
10
393.153846
20
269.230769
0
VERTEX
8
0
10
391.000000
20
271.000000
0
VERTEX
8
0
10
388.000000
20
268.000000
0
VERTEX
8
0
10
370.000000
20
237.000000
0
VERTEX
8
0
10
372.000000
20
230.000000
0
VERTEX
8
0
10
373.000000
20
229.000000
0
VERTEX
8
0
10
386.900000
20
221.700000
0
VERTEX
8
0
10
396.000000
20
219.000000
0
SEQEND
0
POLYLINE
8
0
6
CONTINUOUS
66
1
62
7
10
0.0
20
0.0
30
0.000000
0
VERTEX
8
0
10
247.000000
20
216.000000
0
VERTEX
8
0
10
241.247059
20
222.211765
0
VERTEX
8
0
10
235.230769
20
230.153846
0
VERTEX
8
0
10
235.000000
20
231.000000
0
SEQEND
0
POLYLINE
8
0
6
CONTINUOUS
66
1
62
7
10
0.0
20
0.0
30
0.000000
0
VERTEX
8
0
10
247.000000
20
216.000000
0
VERTEX
8
0
10
248.000000
20
217.000000
0
SEQEND
0
POLYLINE
8
0
6
CONTINUOUS
66
1
62
7
10
0.0
20
0.0
30
0.000000
0
VERTEX
8
0
10
403.000000
20
214.000000
0
VERTEX
8
0
10
407.000000
20
216.000000
0
VERTEX
8
0
10
411.230769
20
221.846154
0
VERTEX
8
0
10
413.000000
20
224.000000
0
VERTEX
8
0
10
413.000000
20
226.000000
0
VERTEX
8
0
10
412.000000
20
227.000000
0
VERTEX
8
0
10
408.100000
20
225.800000
0
VERTEX
8
0
10
406.000000
20
225.000000
0
VERTEX
8
0
10
402.000000
20
217.000000
0
VERTEX
8
0
10
402.000000
20
215.000000
0
VERTEX
8
0
10
403.000000
20
214.000000
0
SEQEND
0
POLYLINE
8
0
6
CONTINUOUS
66
1
62
7
10
0.0
20
0.0
30
0.000000
0
VERTEX
8
0
10
248.000000
20
217.000000
0
VERTEX
8
0
10
253.000000
20
213.000000
0
VERTEX
8
0
10
255.000000
20
215.000000
0
VERTEX
8
0
10
255.000000
20
218.000000
0
VERTEX
8
0
10
251.000000
20
224.000000
0
VERTEX
8
0
10
247.000000
20
227.000000
0
VERTEX
8
0
10
246.000000
20
227.000000
0
VERTEX
8
0
10
244.000000
20
225.000000
0
VERTEX
8
0
10
247.200000
20
219.100000
0
VERTEX
8
0
10
248.000000
20
217.000000
0
SEQEND
0
POLYLINE
8
0
6
CONTINUOUS
66
1
62
7
10
0.0
20
0.0
30
0.000000
0
VERTEX
8
0
10
268.000000
20
201.000000
0
VERTEX
8
0
10
272.200000
20
206.900000
0
VERTEX
8
0
10
276.000000
20
218.000000
0
VERTEX
8
0
10
275.000000
20
219.000000
0
VERTEX
8
0
10
272.911765
20
218.352941
0
VERTEX
8
0
10
270.088235
20
217.647059
0
VERTEX
8
0
10
264.153846
20
214.769231
0
VERTEX
8
0
10
258.000000
20
211.000000
0
VERTEX
8
0
10
260.000000
20
207.000000
0
VERTEX
8
0
10
268.000000
20
201.000000
0
SEQEND
0
POLYLINE
8
0
6
CONTINUOUS
66
1
62
7
10
0.0
20
0.0
30
0.000000
0
VERTEX
8
0
10
389.000000
20
201.000000
0
VERTEX
8
0
10
394.000000
20
204.000000
0
VERTEX
8
0
10
399.000000
20
210.000000
0
VERTEX
8
0
10
390.900000
20
215.800000
0
VERTEX
8
0
10
381.000000
20
220.000000
0
VERTEX
8
0
10
380.000000
20
219.000000
0
VERTEX
8
0
10
385.243902
20
205.195122
0
VERTEX
8
0
10
389.000000
20
201.000000
0
SEQEND
0
POLYLINE
8
0
6
CONTINUOUS
66
1
62
7
10
0.0
20
0.0
30
0.000000
0
VERTEX
8
0
10
276.000000
20
194.000000
0
VERTEX
8
0
10
269.900000
20
196.800000
0
VERTEX
8
0
10
265.195122
20
199.243902
0
VERTEX
8
0
10
260.804878
20
202.756098
0
VERTEX
8
0
10
247.000000
20
215.000000
0
VERTEX
8
0
10
247.000000
20
216.000000
0
SEQEND
0
POLYLINE
8
0
6
CONTINUOUS
66
1
62
7
10
0.0
20
0.0
30
0.000000
0
VERTEX
8
0
10
276.000000
20
194.000000
0
VERTEX
8
0
10
277.000000
20
195.000000
0
SEQEND
0
POLYLINE
8
0
6
CONTINUOUS
66
1
62
7
10
0.0
20
0.0
30
0.000000
0
VERTEX
8
0
10
381.000000
20
194.000000
0
VERTEX
8
0
10
380.000000
20
195.000000
0
SEQEND
0
POLYLINE
8
0
6
CONTINUOUS
66
1
62
7
10
0.0
20
0.0
30
0.000000
0
VERTEX
8
0
10
277.000000
20
195.000000
0
VERTEX
8
0
10
284.000000
20
193.000000
0
VERTEX
8
0
10
286.100000
20
193.800000
0
VERTEX
8
0
10
290.000000
20
196.000000
0
VERTEX
8
0
10
292.700000
20
205.100000
0
VERTEX
8
0
10
293.647059
20
208.088235
0
VERTEX
8
0
10
297.000000
20
223.000000
0
VERTEX
8
0
10
295.800000
20
224.900000
0
VERTEX
8
0
10
292.000000
20
231.000000
0
VERTEX
8
0
10
290.000000
20
231.000000
0
VERTEX
8
0
10
283.800000
20
222.100000
0
VERTEX
8
0
10
276.352941
20
205.911765
0
VERTEX
8
0
10
275.000000
20
199.000000
0
VERTEX
8
0
10
276.200000
20
197.100000
0
VERTEX
8
0
10
277.000000
20
195.000000
0
SEQEND
0
POLYLINE
8
0
6
CONTINUOUS
66
1
62
7
10
0.0
20
0.0
30
0.000000
0
VERTEX
8
0
10
380.000000
20
195.000000
0
VERTEX
8
0
10
382.000000
20
199.000000
0
VERTEX
8
0
10
381.352941
20
202.088235
0
VERTEX
8
0
10
379.647059
20
208.911765
0
VERTEX
8
0
10
374.800000
20
218.900000
0
VERTEX
8
0
10
367.000000
20
231.000000
0
VERTEX
8
0
10
365.000000
20
231.000000
0
VERTEX
8
0
10
362.000000
20
228.000000
0
VERTEX
8
0
10
361.200000
20
225.900000
0
VERTEX
8
0
10
360.800000
20
225.100000
0
VERTEX
8
0
10
360.000000
20
224.000000
0
VERTEX
8
0
10
361.647059
20
214.911765
0
VERTEX
8
0
10
367.000000
20
196.000000
0
VERTEX
8
0
10
371.000000
20
193.000000
0
VERTEX
8
0
10
378.100000
20
194.800000
0
VERTEX
8
0
10
380.000000
20
195.000000
0
SEQEND
0
POLYLINE
8
0
6
CONTINUOUS
66
1
62
7
10
0.0
20
0.0
30
0.000000
0
VERTEX
8
0
10
311.000000
20
188.000000
0
VERTEX
8
0
10
314.000000
20
190.000000
0
VERTEX
8
0
10
315.615385
20
198.076923
0
VERTEX
8
0
10
316.384615
20
201.923077
0
VERTEX
8
0
10
317.000000
20
203.000000
0
VERTEX
8
0
10
317.000000
20
214.000000
0
VERTEX
8
0
10
315.100000
20
215.200000
0
VERTEX
8
0
10
304.000000
20
220.000000
0
VERTEX
8
0
10
302.000000
20
220.000000
0
VERTEX
8
0
10
299.800000
20
217.100000
0
VERTEX
8
0
10
295.647059
20
205.088235
0
VERTEX
8
0
10
293.000000
20
196.000000
0
VERTEX
8
0
10
293.000000
20
192.000000
0
VERTEX
8
0
10
294.000000
20
191.000000
0
VERTEX
8
0
10
305.060000
20
188.420000
0
VERTEX
8
0
10
311.000000
20
188.000000
0
SEQEND
0
POLYLINE
8
0
6
CONTINUOUS
66
1
62
7
10
0.0
20
0.0
30
0.000000
0
VERTEX
8
0
10
353.000000
20
188.000000
0
VERTEX
8
0
10
354.088235
20
188.647059
0
VERTEX
8
0
10
361.000000
20
190.000000
0
VERTEX
8
0
10
363.000000
20
192.000000
0
VERTEX
8
0
10
359.700000
20
208.900000
0
VERTEX
8
0
10
357.000000
20
219.000000
0
VERTEX
8
0
10
355.000000
20
221.000000
0
VERTEX
8
0
10
347.100000
20
217.800000
0
VERTEX
8
0
10
341.000000
20
214.000000
0
VERTEX
8
0
10
340.000000
20
211.000000
0
VERTEX
8
0
10
341.000000
20
190.000000
0
VERTEX
8
0
10
343.000000
20
188.000000
0
VERTEX
8
0
10
353.000000
20
188.000000
0
SEQEND
0
POLYLINE
8
0
6
CONTINUOUS
66
1
62
7
10
0.0
20
0.0
30
0.000000
0
VERTEX
8
0
10
336.000000
20
187.000000
0
VERTEX
8
0
10
338.000000
20
189.000000
0
VERTEX
8
0
10
338.000000
20
205.000000
0
VERTEX
8
0
10
335.580000
20
217.940000
0
VERTEX
8
0
10
335.352941
20
219.088235
0
VERTEX
8
0
10
335.000000
20
222.000000
0
VERTEX
8
0
10
330.000000
20
226.000000
0
VERTEX
8
0
10
327.000000
20
226.000000
0
VERTEX
8
0
10
323.000000
20
223.000000
0
VERTEX
8
0
10
322.800000
20
222.100000
0
VERTEX
8
0
10
319.466926
20
203.970817
0
VERTEX
8
0
10
319.250000
20
188.250000
0
VERTEX
8
0
10
320.900000
20
188.200000
0
VERTEX
8
0
10
322.100000
20
188.800000
0
VERTEX
8
0
10
329.000000
20
192.000000
0
VERTEX
8
0
10
336.000000
20
187.000000
0
SEQEND
0
POLYLINE
8
0
6
CONTINUOUS
66
1
62
7
10
0.0
20
0.0
30
0.000000
0
VERTEX
8
0
10
214.000000
20
120.000000
0
VERTEX
8
0
10
209.100000
20
122.200000
0
VERTEX
8
0
10
181.195122
20
138.243902
0
VERTEX
8
0
10
167.820000
20
148.760000
0
VERTEX
8
0
10
157.233888
20
157.249480
0
VERTEX
8
0
10
127.000000
20
186.000000
0
VERTEX
8
0
10
115.240000
20
202.180000
0
VERTEX
8
0
10
112.240000
20
206.180000
0
VERTEX
8
0
10
102.800000
20
219.900000
0
VERTEX
8
0
10
95.230769
20
234.153846
0
VERTEX
8
0
10
85.300000
20
255.100000
0
VERTEX
8
0
10
80.300000
20
269.100000
0
VERTEX
8
0
10
73.384615
20
292.076923
0
VERTEX
8
0
10
68.615385
20
313.923077
0
VERTEX
8
0
10
65.000000
20
348.000000
0
VERTEX
8
0
10
65.000000
20
365.000000
0
VERTEX
8
0
10
66.466926
20
380.970817
0
VERTEX
8
0
10
70.405405
20
409.932432
0
VERTEX
8
0
10
71.405405
20
415.932432
0
VERTEX
8
0
10
75.300000
20
429.900000
0
VERTEX
8
0
10
75.700000
20
431.100000
0
VERTEX
8
0
10
81.200000
20
446.900000
0
VERTEX
8
0
10
82.000000
20
448.000000
0
SEQEND
0
POLYLINE
8
0
6
CONTINUOUS
66
1
62
7
10
0.0
20
0.0
30
0.000000
0
VERTEX
8
0
10
214.000000
20
120.000000
0
VERTEX
8
0
10
214.000000
20
122.000000
0
VERTEX
8
0
10
211.100000
20
124.200000
0
VERTEX
8
0
10
209.900000
20
124.700000
0
VERTEX
8
0
10
203.195122
20
128.243902
0
VERTEX
8
0
10
198.000000
20
132.000000
0
VERTEX
8
0
10
194.769231
20
135.846154
0
VERTEX
8
0
10
193.230769
20
138.153846
0
VERTEX
8
0
10
187.700000
20
150.900000
0
VERTEX
8
0
10
178.800000
20
162.900000
0
VERTEX
8
0
10
174.647059
20
172.911765
0
VERTEX
8
0
10
172.580000
20
184.940000
0
VERTEX
8
0
10
166.800000
20
195.900000
0
VERTEX
8
0
10
163.800000
20
201.900000
0
VERTEX
8
0
10
161.000000
20
210.000000
0
VERTEX
8
0
10
161.554455
20
226.044554
0
VERTEX
8
0
10
163.000000
20
242.000000
0
VERTEX
8
0
10
161.647059
20
245.911765
0
VERTEX
8
0
10
159.000000
20
256.000000
0
VERTEX
8
0
10
160.000000
20
276.000000
0
VERTEX
8
0
10
158.180000
20
277.240000
0
VERTEX
8
0
10
150.820000
20
282.760000
0
VERTEX
8
0
10
143.000000
20
290.000000
0
VERTEX
8
0
10
134.230769
20
303.153846
0
VERTEX
8
0
10
131.420000
20
310.060000
0
VERTEX
8
0
10
130.580000
20
315.940000
0
VERTEX
8
0
10
125.800000
20
332.900000
0
VERTEX
8
0
10
122.458824
20
340.035294
0
VERTEX
8
0
10
121.541176
20
351.964706
0
VERTEX
8
0
10
116.760000
20
361.820000
0
VERTEX
8
0
10
114.240000
20
365.180000
0
VERTEX
8
0
10
98.300000
20
402.100000
0
VERTEX
8
0
10
92.800000
20
413.900000
0
VERTEX
8
0
10
87.352941
20
428.088235
0
VERTEX
8
0
10
85.560976
20
439.951220
0
VERTEX
8
0
10
83.800000
20
443.900000
0
VERTEX
8
0
10
82.000000
20
448.000000
0
SEQEND
0
POLYLINE
8
0
6
CONTINUOUS
66
1
62
7
10
0.0
20
0.0
30
0.000000
0
VERTEX
8
0
10
575.000000
20
449.000000
0
VERTEX
8
0
10
568.647059
20
429.088235
0
VERTEX
8
0
10
565.200000
20
414.900000
0
VERTEX
8
0
10
557.800000
20
400.100000
0
VERTEX
8
0
10
546.300000
20
374.900000
0
VERTEX
8
0
10
544.300000
20
368.900000
0
VERTEX
8
0
10
541.760000
20
363.180000
0
VERTEX
8
0
10
536.800000
20
356.100000
0
VERTEX
8
0
10
532.700000
20
335.100000
0
VERTEX
8
0
10
530.769231
20
331.153846
0
VERTEX
8
0
10
528.352941
20
326.911765
0
VERTEX
8
0
10
527.647059
20
324.088235
0
VERTEX
8
0
10
525.560976
20
311.048780
0
VERTEX
8
0
10
522.800000
20
304.100000
0
VERTEX
8
0
10
519.800000
20
298.100000
0
VERTEX
8
0
10
507.000000
20
283.000000
0
VERTEX
8
0
10
498.000000
20
277.000000
0
VERTEX
8
0
10
497.000000
20
276.000000
0
VERTEX
8
0
10
497.000000
20
271.000000
0
VERTEX
8
0
10
498.000000
20
270.000000
0
VERTEX
8
0
10
498.000000
20
256.000000
0
VERTEX
8
0
10
495.647059
20
247.088235
0
VERTEX
8
0
10
494.700000
20
244.100000
0
VERTEX
8
0
10
494.000000
20
243.000000
0
VERTEX
8
0
10
494.000000
20
235.000000
0
VERTEX
8
0
10
495.439024
20
226.048780
0
VERTEX
8
0
10
496.000000
20
225.000000
0
VERTEX
8
0
10
496.000000
20
211.000000
0
VERTEX
8
0
10
493.800000
20
204.100000
0
VERTEX
8
0
10
485.963303
20
189.711009
0
VERTEX
8
0
10
483.352941
20
176.911765
0
VERTEX
8
0
10
479.800000
20
167.100000
0
VERTEX
8
0
10
477.760000
20
163.180000
0
VERTEX
8
0
10
469.352941
20
151.911765
0
VERTEX
8
0
10
468.200000
20
147.900000
0
VERTEX
8
0
10
462.000000
20
135.000000
0
VERTEX
8
0
10
453.804878
20
128.243902
0
VERTEX
8
0
10
444.900000
20
124.200000
0
VERTEX
8
0
10
444.000000
20
124.000000
0
VERTEX
8
0
10
442.000000
20
121.000000
0
VERTEX
8
0
10
443.000000
20
120.000000
0
VERTEX
8
0
10
467.100000
20
132.800000
0
VERTEX
8
0
10
471.100000
20
134.800000
0
VERTEX
8
0
10
499.766112
20
157.249480
0
VERTEX
8
0
10
530.000000
20
186.000000
0
VERTEX
8
0
10
535.760000
20
194.180000
0
VERTEX
8
0
10
539.240000
20
198.820000
0
VERTEX
8
0
10
553.800000
20
219.100000
0
VERTEX
8
0
10
559.200000
20
229.900000
0
VERTEX
8
0
10
570.700000
20
252.100000
0
VERTEX
8
0
10
576.200000
20
267.900000
0
VERTEX
8
0
10
583.352941
20
290.911765
0
VERTEX
8
0
10
588.384615
20
313.923077
0
VERTEX
8
0
10
590.529231
20
331.026154
0
VERTEX
8
0
10
591.470769
20
347.973846
0
VERTEX
8
0
10
592.000000
20
364.000000
0
VERTEX
8
0
10
587.405405
20
405.067568
0
VERTEX
8
0
10
585.594595
20
415.932432
0
VERTEX
8
0
10
582.700000
20
426.900000
0
VERTEX
8
0
10
575.000000
20
449.000000
0
SEQEND
0
POLYLINE
8
0
6
CONTINUOUS
66
1
62
7
10
0.0
20
0.0
30
0.000000
0
VERTEX
8
0
10
215.000000
20
119.000000
0
VERTEX
8
0
10
214.000000
20
120.000000
0
SEQEND
0
POLYLINE
8
0
6
CONTINUOUS
66
1
62
7
10
0.0
20
0.0
30
0.000000
0
VERTEX
8
0
10
231.000000
20
237.000000
0
VERTEX
8
0
10
229.230769
20
239.153846
0
VERTEX
8
0
10
223.300000
20
253.100000
0
VERTEX
8
0
10
222.700000
20
254.900000
0
VERTEX
8
0
10
215.647059
20
282.911765
0
VERTEX
8
0
10
215.352941
20
284.088235
0
VERTEX
8
0
10
214.000000
20
289.000000
0
VERTEX
8
0
10
213.000000
20
290.000000
0
VERTEX
8
0
10
207.100000
20
287.700000
0
VERTEX
8
0
10
200.900000
20
285.300000
0
VERTEX
8
0
10
186.000000
20
279.000000
0
VERTEX
8
0
10
183.000000
20
276.000000
0
VERTEX
8
0
10
181.000000
20
271.000000
0
VERTEX
8
0
10
181.000000
20
260.000000
0
VERTEX
8
0
10
185.000000
20
246.000000
0
VERTEX
8
0
10
185.000000
20
236.000000
0
VERTEX
8
0
10
184.000000
20
235.000000
0
VERTEX
8
0
10
184.000000
20
215.000000
0
VERTEX
8
0
10
189.756098
20
207.804878
0
VERTEX
8
0
10
192.700000
20
201.900000
0
VERTEX
8
0
10
193.300000
20
200.100000
0
VERTEX
8
0
10
196.000000
20
181.000000
0
VERTEX
8
0
10
207.000000
20
171.000000
0
VERTEX
8
0
10
210.000000
20
156.000000
0
VERTEX
8
0
10
215.000000
20
151.000000
0
VERTEX
8
0
10
223.100000
20
149.300000
0
VERTEX
8
0
10
225.000000
20
149.000000
0
VERTEX
8
0
10
228.000000
20
146.000000
0
VERTEX
8
0
10
234.800000
20
131.900000
0
VERTEX
8
0
10
235.000000
20
131.000000
0
VERTEX
8
0
10
258.783186
20
123.752212
0
VERTEX
8
0
10
266.900000
20
116.800000
0
VERTEX
8
0
10
270.000000
20
115.000000
0
VERTEX
8
0
10
274.000000
20
115.000000
0
VERTEX
8
0
10
280.000000
20
121.000000
0
VERTEX
8
0
10
283.769231
20
127.153846
0
VERTEX
8
0
10
291.760000
20
138.180000
0
VERTEX
8
0
10
298.000000
20
145.000000
0
VERTEX
8
0
10
315.000000
20
158.000000
0
VERTEX
8
0
10
320.800000
20
167.100000
0
VERTEX
8
0
10
325.000000
20
178.000000
0
VERTEX
8
0
10
324.000000
20
182.000000
0
VERTEX
8
0
10
323.000000
20
183.000000
0
VERTEX
8
0
10
299.932432
20
185.594595
0
VERTEX
8
0
10
295.067568
20
186.405405
0
VERTEX
8
0
10
284.100000
20
190.300000
0
VERTEX
8
0
10
276.000000
20
194.000000
0
SEQEND
0
POLYLINE
8
0
6
CONTINUOUS
66
1
62
7
10
0.0
20
0.0
30
0.000000
0
VERTEX
8
0
10
381.000000
20
194.000000
0
VERTEX
8
0
10
371.100000
20
189.800000
0
VERTEX
8
0
10
359.940000
20
186.420000
0
VERTEX
8
0
10
352.932432
20
185.405405
0
VERTEX
8
0
10
333.000000
20
183.000000
0
VERTEX
8
0
10
332.000000
20
182.000000
0
VERTEX
8
0
10
332.000000
20
177.000000
0
VERTEX
8
0
10
336.200000
20
166.100000
0
VERTEX
8
0
10
337.243902
20
164.195122
0
VERTEX
8
0
10
346.000000
20
154.000000
0
VERTEX
8
0
10
349.846154
20
151.769231
0
VERTEX
8
0
10
365.000000
20
140.000000
0
VERTEX
8
0
10
371.769231
20
128.846154
0
VERTEX
8
0
10
378.000000
20
119.000000
0
VERTEX
8
0
10
384.000000
20
115.000000
0
VERTEX
8
0
10
388.100000
20
115.700000
0
VERTEX
8
0
10
399.195122
20
123.756098
0
VERTEX
8
0
10
403.100000
20
125.800000
0
VERTEX
8
0
10
420.000000
20
130.000000
0
VERTEX
8
0
10
422.000000
20
132.000000
0
VERTEX
8
0
10
424.800000
20
138.100000
0
VERTEX
8
0
10
430.000000
20
148.000000
0
VERTEX
8
0
10
435.088235
20
149.647059
0
VERTEX
8
0
10
442.000000
20
151.000000
0
VERTEX
8
0
10
446.000000
20
155.000000
0
VERTEX
8
0
10
447.230769
20
158.153846
0
VERTEX
8
0
10
449.300000
20
168.900000
0
VERTEX
8
0
10
449.800000
20
170.100000
0
VERTEX
8
0
10
456.000000
20
177.000000
0
VERTEX
8
0
10
460.000000
20
179.000000
0
VERTEX
8
0
10
462.647059
20
198.088235
0
VERTEX
8
0
10
464.230769
20
202.846154
0
VERTEX
8
0
10
473.000000
20
214.000000
0
VERTEX
8
0
10
473.000000
20
231.000000
0
VERTEX
8
0
10
471.000000
20
240.000000
0
VERTEX
8
0
10
471.000000
20
245.000000
0
VERTEX
8
0
10
472.352941
20
248.911765
0
VERTEX
8
0
10
474.352941
20
255.911765
0
VERTEX
8
0
10
476.000000
20
265.000000
0
VERTEX
8
0
10
475.420000
20
266.060000
0
VERTEX
8
0
10
474.000000
20
276.000000
0
VERTEX
8
0
10
471.000000
20
279.000000
0
VERTEX
8
0
10
451.900000
20
286.700000
0
VERTEX
8
0
10
445.100000
20
289.200000
0
VERTEX
8
0
10
444.000000
20
290.000000
0
VERTEX
8
0
10
442.000000
20
288.000000
0
VERTEX
8
0
10
439.405405
20
275.932432
0
VERTEX
8
0
10
435.700000
20
258.100000
0
VERTEX
8
0
10
432.200000
20
247.900000
0
VERTEX
8
0
10
423.769231
20
232.153846
0
VERTEX
8
0
10
422.230769
20
229.846154
0
VERTEX
8
0
10
417.000000
20
222.000000
0
VERTEX
8
0
10
399.000000
20
204.000000
0
VERTEX
8
0
10
388.846154
20
198.230769
0
VERTEX
8
0
10
381.000000
20
194.000000
0
SEQEND
0
POLYLINE
8
0
6
CONTINUOUS
66
1
62
7
10
0.0
20
0.0
30
0.000000
0
VERTEX
8
0
10
335.000000
20
93.000000
0
VERTEX
8
0
10
360.076923
20
95.615385
0
VERTEX
8
0
10
364.000000
20
96.000000
0
VERTEX
8
0
10
365.000000
20
97.000000
0
VERTEX
8
0
10
359.769231
20
103.846154
0
VERTEX
8
0
10
350.200000
20
119.100000
0
VERTEX
8
0
10
350.000000
20
120.000000
0
VERTEX
8
0
10
334.211765
20
131.247059
0
VERTEX
8
0
10
328.000000
20
137.000000
0
VERTEX
8
0
10
322.195122
20
130.756098
0
VERTEX
8
0
10
317.804878
20
127.243902
0
VERTEX
8
0
10
310.000000
20
123.000000
0
VERTEX
8
0
10
305.769231
20
118.153846
0
VERTEX
8
0
10
292.800000
20
98.100000
0
VERTEX
8
0
10
292.000000
20
97.000000
0
VERTEX
8
0
10
293.000000
20
96.000000
0
VERTEX
8
0
10
323.035294
20
93.458824
0
VERTEX
8
0
10
335.000000
20
93.000000
0
SEQEND
0
POLYLINE
8
0
6
CONTINUOUS
66
1
62
7
10
0.0
20
0.0
30
0.000000
0
VERTEX
8
0
10
335.000000
20
65.000000
0
VERTEX
8
0
10
368.951220
20
68.439024
0
VERTEX
8
0
10
387.911765
20
72.352941
0
VERTEX
8
0
10
399.076923
20
74.615385
0
VERTEX
8
0
10
412.900000
20
78.300000
0
VERTEX
8
0
10
440.900000
20
88.300000
0
VERTEX
8
0
10
455.900000
20
95.200000
0
VERTEX
8
0
10
474.100000
20
104.800000
0
VERTEX
8
0
10
485.820000
20
111.240000
0
VERTEX
8
0
10
489.180000
20
113.760000
0
VERTEX
8
0
10
518.000000
20
135.000000
0
VERTEX
8
0
10
551.000000
20
168.000000
0
VERTEX
8
0
10
553.760000
20
172.180000
0
VERTEX
8
0
10
574.760000
20
200.180000
0
VERTEX
8
0
10
584.800000
20
219.100000
0
VERTEX
8
0
10
592.200000
20
232.900000
0
VERTEX
8
0
10
599.700000
20
250.100000
0
VERTEX
8
0
10
608.700000
20
275.100000
0
VERTEX
8
0
10
613.615385
20
297.076923
0
VERTEX
8
0
10
616.384615
20
310.923077
0
VERTEX
8
0
10
620.000000
20
348.000000
0
VERTEX
8
0
10
620.000000
20
366.000000
0
VERTEX
8
0
10
617.541176
20
398.964706
0
VERTEX
8
0
10
611.647059
20
425.911765
0
VERTEX
8
0
10
609.647059
20
434.911765
0
VERTEX
8
0
10
596.700000
20
471.900000
0
VERTEX
8
0
10
594.700000
20
476.900000
0
VERTEX
8
0
10
578.800000
20
505.900000
0
VERTEX
8
0
10
574.200000
20
514.100000
0
VERTEX
8
0
10
547.000000
20
551.000000
0
VERTEX
8
0
10
537.000000
20
561.000000
0
VERTEX
8
0
10
507.846154
20
586.769231
0
VERTEX
8
0
10
507.153846
20
587.230769
0
VERTEX
8
0
10
472.900000
20
609.800000
0
VERTEX
8
0
10
440.100000
20
626.200000
0
VERTEX
8
0
10
398.100000
20
640.300000
0
VERTEX
8
0
10
358.000000
20
647.000000
0
VERTEX
8
0
10
355.300000
20
658.100000
0
VERTEX
8
0
10
353.000000
20
664.000000
0
VERTEX
8
0
10
343.000000
20
674.000000
0
VERTEX
8
0
10
340.900000
20
674.700000
0
VERTEX
8
0
10
339.100000
20
675.300000
0
VERTEX
8
0
10
334.000000
20
677.000000
0
VERTEX
8
0
10
322.000000
20
677.000000
0
VERTEX
8
0
10
315.100000
20
673.800000
0
VERTEX
8
0
10
313.900000
20
673.200000
0
VERTEX
8
0
10
310.000000
20
671.000000
0
VERTEX
8
0
10
306.000000
20
667.000000
0
VERTEX
8
0
10
302.200000
20
659.900000
0
VERTEX
8
0
10
301.800000
20
659.100000
0
VERTEX
8
0
10
300.430769
20
654.946154
0
VERTEX
8
0
10
300.000000
20
648.000000
0
VERTEX
8
0
10
299.000000
20
647.000000
0
VERTEX
8
0
10
257.100000
20
639.700000
0
VERTEX
8
0
10
216.900000
20
626.200000
0
VERTEX
8
0
10
182.900000
20
609.200000
0
VERTEX
8
0
10
146.223757
20
584.751381
0
VERTEX
8
0
10
110.000000
20
551.000000
0
VERTEX
8
0
10
107.240000
20
546.820000
0
VERTEX
8
0
10
100.243902
20
537.804878
0
VERTEX
8
0
10
82.800000
20
514.100000
0
VERTEX
8
0
10
74.800000
20
500.100000
0
VERTEX
8
0
10
62.300000
20
476.900000
0
VERTEX
8
0
10
58.700000
20
467.100000
0
VERTEX
8
0
10
47.352941
20
434.911765
0
VERTEX
8
0
10
43.615385
20
418.076923
0
VERTEX
8
0
10
39.455172
20
398.962069
0
VERTEX
8
0
10
38.544828
20
388.037931
0
VERTEX
8
0
10
37.000000
20
348.000000
0
VERTEX
8
0
10
40.615385
20
310.923077
0
VERTEX
8
0
10
43.615385
20
295.923077
0
VERTEX
8
0
10
48.300000
20
275.100000
0
VERTEX
8
0
10
57.300000
20
250.100000
0
VERTEX
8
0
10
65.200000
20
232.100000
0
VERTEX
8
0
10
73.800000
20
215.900000
0
VERTEX
8
0
10
82.240000
20
200.180000
0
VERTEX
8
0
10
105.760000
20
168.820000
0
VERTEX
8
0
10
139.000000
20
135.000000
0
VERTEX
8
0
10
171.180000
20
111.240000
0
VERTEX
8
0
10
186.100000
20
103.200000
0
VERTEX
8
0
10
203.100000
20
94.200000
0
VERTEX
8
0
10
217.900000
20
87.700000
0
VERTEX
8
0
10
244.100000
20
78.300000
0
VERTEX
8
0
10
259.076923
20
74.384615
0
VERTEX
8
0
10
271.911765
20
71.647059
0
VERTEX
8
0
10
297.035294
20
67.458824
0
VERTEX
8
0
10
335.000000
20
65.000000
0
SEQEND
0
ENDSEC
0
EOF
