0
SECTION
2
HEADER
9
$ACADVER
1
AC1003
9
$INSBASE
10
0.0
20
0.0
30
0.0
9
$EXTMIN
10
0.000
20
0.000
30
0.0
9
$EXTMAX
10
673.000
20
725.000
30
0.0
9
$LIMMIN
10
0.000
20
0.000
9
$LIMMAX
10
673.000
20
725.000
9
$LTSCALE
40
1.0
9
$LUNITS
70
2
9
$LUPREC
70
3
9
$LIMCHECK
70
0
9
$UCSNAME
2

9
$UCSORG
10
0.0
20
0.0
30
0.0
9
$UCSXDIR
10
1.0
20
0.0
30
0.0
9
$UCSYDIR
10
0.0
20
1.0
30
0.0
9
$WORLDVIEW
70
1
9
$UNITMODE
70
0
0
ENDSEC
0
SECTION
2
TABLES
0
TABLE
2
VPORT
70
1
0
VPORT
2
*ACTIVE
70
0
10
0.0
20
0.0
11
1.0
21
1.0
12
336.500
22
362.500
13
0.0
23
0.0
14
1.0
24
1.0
15
0.0
25
0.0
16
0.0
26
0.0
36
1.0
17
0.0
27
0.0
37
0.0
40
500.0
41
1.077
42
50.0
43
0.0
44
0.0
50
0.0
51
0.0
71
0
72
100
73
1
74
1
75
0
76
0
77
0
78
0
0
ENDTAB
0
TABLE
2
LTYPE
70
1
0
LTYPE
2
CONTINUOUS
70
64
3
Solid line
72
65
73
0
40
0.000
0
ENDTAB
0
TABLE
2
LAYER
70
1
0
LAYER
2
0
70
64
62
7
6
CONTINUOUS
0
ENDTAB
0
ENDSEC
0
SECTION
2
BLOCKS
0
ENDSEC
0
SECTION
2
ENTITIES
0
POLYLINE
8
0
6
CONTINUOUS
66
1
62
7
10
0.0
20
0.0
30
0.000000
0
VERTEX
8
0
10
324.000000
20
661.000000
0
VERTEX
8
0
10
329.000000
20
663.000000
0
VERTEX
8
0
10
333.000000
20
669.000000
0
VERTEX
8
0
10
333.000000
20
675.000000
0
VERTEX
8
0
10
329.000000
20
681.000000
0
VERTEX
8
0
10
325.000000
20
683.000000
0
VERTEX
8
0
10
317.000000
20
682.000000
0
VERTEX
8
0
10
314.760000
20
679.180000
0
VERTEX
8
0
10
312.000000
20
676.000000
0
VERTEX
8
0
10
312.000000
20
668.000000
0
VERTEX
8
0
10
314.000000
20
665.000000
0
VERTEX
8
0
10
316.000000
20
663.000000
0
VERTEX
8
0
10
321.088235
20
661.352941
0
VERTEX
8
0
10
324.000000
20
661.000000
0
SEQEND
0
POLYLINE
8
0
6
CONTINUOUS
66
1
62
7
10
0.0
20
0.0
30
0.000000
0
VERTEX
8
0
10
379.000000
20
632.000000
0
VERTEX
8
0
10
375.000000
20
634.000000
0
SEQEND
0
POLYLINE
8
0
6
CONTINUOUS
66
1
62
7
10
0.0
20
0.0
30
0.000000
0
VERTEX
8
0
10
381.000000
20
632.000000
0
VERTEX
8
0
10
380.000000
20
633.000000
0
VERTEX
8
0
10
379.000000
20
632.000000
0
SEQEND
0
POLYLINE
8
0
6
CONTINUOUS
66
1
62
7
10
0.0
20
0.0
30
0.000000
0
VERTEX
8
0
10
381.000000
20
631.000000
0
VERTEX
8
0
10
379.000000
20
632.000000
0
SEQEND
0
POLYLINE
8
0
6
CONTINUOUS
66
1
62
7
10
0.0
20
0.0
30
0.000000
0
VERTEX
8
0
10
381.000000
20
631.000000
0
VERTEX
8
0
10
381.000000
20
632.000000
0
SEQEND
0
POLYLINE
8
0
6
CONTINUOUS
66
1
62
7
10
0.0
20
0.0
30
0.000000
0
VERTEX
8
0
10
384.000000
20
631.000000
0
VERTEX
8
0
10
381.000000
20
632.000000
0
SEQEND
0
POLYLINE
8
0
6
CONTINUOUS
66
1
62
7
10
0.0
20
0.0
30
0.000000
0
VERTEX
8
0
10
383.000000
20
630.000000
0
VERTEX
8
0
10
381.000000
20
631.000000
0
SEQEND
0
POLYLINE
8
0
6
CONTINUOUS
66
1
62
7
10
0.0
20
0.0
30
0.000000
0
VERTEX
8
0
10
383.000000
20
630.000000
0
VERTEX
8
0
10
384.000000
20
631.000000
0
SEQEND
0
POLYLINE
8
0
6
CONTINUOUS
66
1
62
7
10
0.0
20
0.0
30
0.000000
0
VERTEX
8
0
10
152.000000
20
579.000000
0
VERTEX
8
0
10
154.000000
20
582.000000
0
SEQEND
0
POLYLINE
8
0
6
CONTINUOUS
66
1
62
7
10
0.0
20
0.0
30
0.000000
0
VERTEX
8
0
10
150.000000
20
578.000000
0
VERTEX
8
0
10
152.000000
20
579.000000
0
SEQEND
0
POLYLINE
8
0
6
CONTINUOUS
66
1
62
7
10
0.0
20
0.0
30
0.000000
0
VERTEX
8
0
10
149.000000
20
577.000000
0
VERTEX
8
0
10
150.000000
20
578.000000
0
SEQEND
0
POLYLINE
8
0
6
CONTINUOUS
66
1
62
7
10
0.0
20
0.0
30
0.000000
0
VERTEX
8
0
10
151.000000
20
577.000000
0
VERTEX
8
0
10
150.000000
20
578.000000
0
SEQEND
0
POLYLINE
8
0
6
CONTINUOUS
66
1
62
7
10
0.0
20
0.0
30
0.000000
0
VERTEX
8
0
10
151.000000
20
577.000000
0
VERTEX
8
0
10
152.000000
20
579.000000
0
SEQEND
0
POLYLINE
8
0
6
CONTINUOUS
66
1
62
7
10
0.0
20
0.0
30
0.000000
0
VERTEX
8
0
10
150.000000
20
576.000000
0
VERTEX
8
0
10
149.000000
20
577.000000
0
SEQEND
0
POLYLINE
8
0
6
CONTINUOUS
66
1
62
7
10
0.0
20
0.0
30
0.000000
0
VERTEX
8
0
10
150.000000
20
576.000000
0
VERTEX
8
0
10
151.000000
20
577.000000
0
SEQEND
0
POLYLINE
8
0
6
CONTINUOUS
66
1
62
7
10
0.0
20
0.0
30
0.000000
0
VERTEX
8
0
10
454.000000
20
517.000000
0
VERTEX
8
0
10
455.000000
20
518.000000
0
VERTEX
8
0
10
455.000000
20
520.000000
0
VERTEX
8
0
10
449.800000
20
529.900000
0
VERTEX
8
0
10
449.200000
20
531.100000
0
VERTEX
8
0
10
437.243902
20
548.195122
0
VERTEX
8
0
10
427.000000
20
561.000000
0
VERTEX
8
0
10
410.204918
20
576.245902
0
VERTEX
8
0
10
401.153846
20
583.230769
0
VERTEX
8
0
10
378.900000
20
596.800000
0
VERTEX
8
0
10
363.900000
20
603.800000
0
VERTEX
8
0
10
349.900000
20
608.700000
0
VERTEX
8
0
10
344.088235
20
610.352941
0
VERTEX
8
0
10
329.955446
20
613.554455
0
VERTEX
8
0
10
315.000000
20
615.000000
0
VERTEX
8
0
10
309.000000
20
611.000000
0
VERTEX
8
0
10
306.000000
20
608.000000
0
VERTEX
8
0
10
299.300000
20
595.900000
0
VERTEX
8
0
10
289.647059
20
566.088235
0
VERTEX
8
0
10
288.615385
20
561.076923
0
VERTEX
8
0
10
285.000000
20
535.000000
0
VERTEX
8
0
10
286.000000
20
534.000000
0
VERTEX
8
0
10
312.000000
20
537.000000
0
VERTEX
8
0
10
371.000000
20
537.000000
0
VERTEX
8
0
10
391.977376
20
535.524887
0
VERTEX
8
0
10
451.911765
20
517.647059
0
VERTEX
8
0
10
454.000000
20
517.000000
0
SEQEND
0
POLYLINE
8
0
6
CONTINUOUS
66
1
62
7
10
0.0
20
0.0
30
0.000000
0
VERTEX
8
0
10
474.000000
20
394.000000
0
VERTEX
8
0
10
485.000000
20
404.000000
0
VERTEX
8
0
10
485.800000
20
406.100000
0
VERTEX
8
0
10
487.200000
20
408.900000
0
VERTEX
8
0
10
494.700000
20
423.100000
0
VERTEX
8
0
10
495.300000
20
424.900000
0
VERTEX
8
0
10
499.000000
20
440.000000
0
VERTEX
8
0
10
499.000000
20
454.000000
0
VERTEX
8
0
10
489.000000
20
468.000000
0
VERTEX
8
0
10
484.000000
20
473.000000
0
VERTEX
8
0
10
463.820000
20
488.760000
0
VERTEX
8
0
10
446.900000
20
499.800000
0
VERTEX
8
0
10
438.100000
20
504.200000
0
VERTEX
8
0
10
416.100000
20
513.300000
0
VERTEX
8
0
10
400.100000
20
518.300000
0
VERTEX
8
0
10
374.964706
20
523.541176
0
VERTEX
8
0
10
363.035294
20
524.458824
0
VERTEX
8
0
10
325.000000
20
525.000000
0
VERTEX
8
0
10
308.048780
20
522.560976
0
VERTEX
8
0
10
298.946154
20
521.430769
0
VERTEX
8
0
10
281.000000
20
519.000000
0
VERTEX
8
0
10
276.000000
20
514.000000
0
VERTEX
8
0
10
261.200000
20
480.900000
0
VERTEX
8
0
10
249.000000
20
454.000000
0
VERTEX
8
0
10
249.250000
20
453.250000
0
VERTEX
8
0
10
260.962069
20
453.455172
0
VERTEX
8
0
10
288.932432
20
457.405405
0
VERTEX
8
0
10
290.000000
20
458.000000
0
VERTEX
8
0
10
312.000000
20
458.000000
0
VERTEX
8
0
10
313.076923
20
457.384615
0
VERTEX
8
0
10
320.000000
20
455.000000
0
VERTEX
8
0
10
325.000000
20
448.000000
0
VERTEX
8
0
10
317.769231
20
441.153846
0
VERTEX
8
0
10
317.000000
20
439.000000
0
VERTEX
8
0
10
317.769231
20
436.846154
0
VERTEX
8
0
10
320.000000
20
434.000000
0
VERTEX
8
0
10
320.900000
20
433.800000
0
VERTEX
8
0
10
337.000000
20
428.000000
0
VERTEX
8
0
10
337.200000
20
427.100000
0
VERTEX
8
0
10
338.000000
20
426.000000
0
VERTEX
8
0
10
335.100000
20
423.800000
0
VERTEX
8
0
10
329.000000
20
421.000000
0
VERTEX
8
0
10
330.000000
20
418.000000
0
VERTEX
8
0
10
331.000000
20
417.000000
0
VERTEX
8
0
10
340.000000
20
414.000000
0
VERTEX
8
0
10
347.000000
20
414.000000
0
VERTEX
8
0
10
353.940000
20
415.420000
0
VERTEX
8
0
10
361.846154
20
418.230769
0
VERTEX
8
0
10
368.000000
20
423.000000
0
VERTEX
8
0
10
371.615385
20
432.076923
0
VERTEX
8
0
10
372.384615
20
435.923077
0
VERTEX
8
0
10
377.000000
20
448.000000
0
VERTEX
8
0
10
379.000000
20
450.000000
0
VERTEX
8
0
10
384.000000
20
450.000000
0
VERTEX
8
0
10
398.900000
20
444.800000
0
VERTEX
8
0
10
400.100000
20
444.200000
0
VERTEX
8
0
10
423.846154
20
431.769231
0
VERTEX
8
0
10
435.100000
20
425.200000
0
VERTEX
8
0
10
449.195122
20
415.243902
0
VERTEX
8
0
10
474.000000
20
394.000000
0
SEQEND
0
POLYLINE
8
0
6
CONTINUOUS
66
1
62
7
10
0.0
20
0.0
30
0.000000
0
VERTEX
8
0
10
171.000000
20
388.000000
0
VERTEX
8
0
10
175.754098
20
393.204918
0
VERTEX
8
0
10
182.800000
20
403.100000
0
VERTEX
8
0
10
192.248276
20
415.779310
0
VERTEX
8
0
10
224.751381
20
452.223757
0
VERTEX
8
0
10
234.769231
20
466.153846
0
VERTEX
8
0
10
236.230769
20
468.846154
0
VERTEX
8
0
10
245.700000
20
485.100000
0
VERTEX
8
0
10
247.700000
20
490.100000
0
VERTEX
8
0
10
258.352941
20
521.911765
0
VERTEX
8
0
10
265.647059
20
551.088235
0
VERTEX
8
0
10
275.200000
20
586.900000
0
VERTEX
8
0
10
275.800000
20
588.100000
0
VERTEX
8
0
10
282.230769
20
601.846154
0
VERTEX
8
0
10
284.230769
20
604.846154
0
VERTEX
8
0
10
287.800000
20
612.100000
0
VERTEX
8
0
10
287.750000
20
613.750000
0
VERTEX
8
0
10
271.900000
20
610.300000
0
VERTEX
8
0
10
266.088235
20
608.647059
0
VERTEX
8
0
10
232.900000
20
597.200000
0
VERTEX
8
0
10
214.100000
20
589.800000
0
VERTEX
8
0
10
190.000000
20
575.000000
0
VERTEX
8
0
10
183.000000
20
568.000000
0
VERTEX
8
0
10
179.243902
20
562.804878
0
VERTEX
8
0
10
171.200000
20
547.900000
0
VERTEX
8
0
10
169.800000
20
545.100000
0
VERTEX
8
0
10
164.430769
20
523.946154
0
VERTEX
8
0
10
162.000000
20
504.000000
0
VERTEX
8
0
10
167.517203
20
417.983907
0
VERTEX
8
0
10
168.000000
20
389.000000
0
VERTEX
8
0
10
169.000000
20
388.000000
0
VERTEX
8
0
10
171.000000
20
388.000000
0
SEQEND
0
POLYLINE
8
0
6
CONTINUOUS
66
1
62
7
10
0.0
20
0.0
30
0.000000
0
VERTEX
8
0
10
395.000000
20
385.000000
0
VERTEX
8
0
10
396.900000
20
386.200000
0
VERTEX
8
0
10
400.000000
20
388.000000
0
VERTEX
8
0
10
401.200000
20
390.900000
0
VERTEX
8
0
10
402.000000
20
392.000000
0
VERTEX
8
0
10
401.405405
20
397.067568
0
VERTEX
8
0
10
399.000000
20
407.000000
0
VERTEX
8
0
10
394.100000
20
411.200000
0
VERTEX
8
0
10
391.000000
20
413.000000
0
VERTEX
8
0
10
385.000000
20
413.000000
0
VERTEX
8
0
10
379.000000
20
410.000000
0
VERTEX
8
0
10
377.000000
20
408.000000
0
VERTEX
8
0
10
375.352941
20
402.911765
0
VERTEX
8
0
10
374.647059
20
400.088235
0
VERTEX
8
0
10
374.000000
20
399.000000
0
VERTEX
8
0
10
374.000000
20
388.000000
0
VERTEX
8
0
10
376.000000
20
386.000000
0
VERTEX
8
0
10
395.000000
20
385.000000
0
SEQEND
0
POLYLINE
8
0
6
CONTINUOUS
66
1
62
7
10
0.0
20
0.0
30
0.000000
0
VERTEX
8
0
10
292.000000
20
380.000000
0
VERTEX
8
0
10
293.769231
20
382.153846
0
VERTEX
8
0
10
298.000000
20
393.000000
0
VERTEX
8
0
10
298.000000
20
401.000000
0
VERTEX
8
0
10
296.800000
20
402.900000
0
VERTEX
8
0
10
293.000000
20
409.000000
0
VERTEX
8
0
10
290.100000
20
410.200000
0
VERTEX
8
0
10
286.000000
20
412.000000
0
VERTEX
8
0
10
277.000000
20
412.000000
0
VERTEX
8
0
10
274.200000
20
410.600000
0
VERTEX
8
0
10
271.846154
20
409.230769
0
VERTEX
8
0
10
264.000000
20
402.000000
0
VERTEX
8
0
10
262.000000
20
398.000000
0
VERTEX
8
0
10
262.000000
20
387.000000
0
VERTEX
8
0
10
265.900000
20
383.800000
0
VERTEX
8
0
10
272.067568
20
381.405405
0
VERTEX
8
0
10
276.932432
20
380.594595
0
VERTEX
8
0
10
292.000000
20
380.000000
0
SEQEND
0
POLYLINE
8
0
6
CONTINUOUS
66
1
62
7
10
0.0
20
0.0
30
0.000000
0
VERTEX
8
0
10
336.000000
20
363.000000
0
VERTEX
8
0
10
344.100000
20
364.800000
0
VERTEX
8
0
10
350.000000
20
367.000000
0
VERTEX
8
0
10
355.000000
20
373.000000
0
VERTEX
8
0
10
355.000000
20
381.000000
0
VERTEX
8
0
10
353.000000
20
385.000000
0
VERTEX
8
0
10
349.000000
20
389.000000
0
VERTEX
8
0
10
339.000000
20
394.000000
0
VERTEX
8
0
10
332.000000
20
394.000000
0
VERTEX
8
0
10
323.100000
20
391.800000
0
VERTEX
8
0
10
319.900000
20
390.200000
0
VERTEX
8
0
10
315.000000
20
388.000000
0
VERTEX
8
0
10
309.000000
20
381.000000
0
VERTEX
8
0
10
311.800000
20
374.900000
0
VERTEX
8
0
10
315.000000
20
369.000000
0
VERTEX
8
0
10
319.000000
20
365.000000
0
VERTEX
8
0
10
336.000000
20
363.000000
0
SEQEND
0
POLYLINE
8
0
6
CONTINUOUS
66
1
62
7
10
0.0
20
0.0
30
0.000000
0
VERTEX
8
0
10
150.000000
20
324.000000
0
VERTEX
8
0
10
154.200000
20
329.900000
0
VERTEX
8
0
10
165.000000
20
362.000000
0
VERTEX
8
0
10
163.750000
20
366.750000
0
VERTEX
8
0
10
158.067568
20
366.594595
0
VERTEX
8
0
10
150.900000
20
364.200000
0
VERTEX
8
0
10
146.000000
20
360.000000
0
VERTEX
8
0
10
143.647059
20
353.088235
0
VERTEX
8
0
10
142.000000
20
348.000000
0
VERTEX
8
0
10
142.000000
20
339.000000
0
VERTEX
8
0
10
143.420000
20
332.060000
0
VERTEX
8
0
10
147.000000
20
325.000000
0
VERTEX
8
0
10
150.000000
20
324.000000
0
SEQEND
0
POLYLINE
8
0
6
CONTINUOUS
66
1
62
7
10
0.0
20
0.0
30
0.000000
0
VERTEX
8
0
10
275.000000
20
289.000000
0
VERTEX
8
0
10
291.900000
20
292.300000
0
VERTEX
8
0
10
310.900000
20
300.200000
0
VERTEX
8
0
10
313.000000
20
301.000000
0
VERTEX
8
0
10
316.240000
20
304.820000
0
VERTEX
8
0
10
318.760000
20
308.180000
0
VERTEX
8
0
10
322.700000
20
316.100000
0
VERTEX
8
0
10
325.300000
20
322.900000
0
VERTEX
8
0
10
327.000000
20
326.000000
0
VERTEX
8
0
10
327.000000
20
336.000000
0
VERTEX
8
0
10
322.000000
20
343.000000
0
VERTEX
8
0
10
318.180000
20
346.240000
0
VERTEX
8
0
10
312.900000
20
349.700000
0
VERTEX
8
0
10
311.100000
20
350.300000
0
VERTEX
8
0
10
306.000000
20
352.000000
0
VERTEX
8
0
10
302.000000
20
352.000000
0
VERTEX
8
0
10
292.088235
20
349.647059
0
VERTEX
8
0
10
270.100000
20
338.800000
0
VERTEX
8
0
10
268.900000
20
338.200000
0
VERTEX
8
0
10
255.940000
20
333.420000
0
VERTEX
8
0
10
250.060000
20
332.580000
0
VERTEX
8
0
10
240.000000
20
332.000000
0
VERTEX
8
0
10
228.088235
20
334.352941
0
VERTEX
8
0
10
220.250000
20
334.750000
0
VERTEX
8
0
10
221.352941
20
328.088235
0
VERTEX
8
0
10
227.240000
20
316.180000
0
VERTEX
8
0
10
229.760000
20
312.820000
0
VERTEX
8
0
10
233.000000
20
308.000000
0
VERTEX
8
0
10
243.000000
20
298.000000
0
VERTEX
8
0
10
257.088235
20
291.352941
0
VERTEX
8
0
10
259.911765
20
290.647059
0
VERTEX
8
0
10
275.000000
20
289.000000
0
SEQEND
0
POLYLINE
8
0
6
CONTINUOUS
66
1
62
7
10
0.0
20
0.0
30
0.000000
0
VERTEX
8
0
10
399.000000
20
285.000000
0
VERTEX
8
0
10
409.100000
20
287.800000
0
VERTEX
8
0
10
424.820000
20
295.240000
0
VERTEX
8
0
10
429.000000
20
298.000000
0
VERTEX
8
0
10
431.240000
20
300.820000
0
VERTEX
8
0
10
433.760000
20
304.180000
0
VERTEX
8
0
10
436.700000
20
310.100000
0
VERTEX
8
0
10
437.300000
20
311.900000
0
VERTEX
8
0
10
442.000000
20
322.000000
0
VERTEX
8
0
10
442.000000
20
328.000000
0
VERTEX
8
0
10
440.000000
20
331.000000
0
VERTEX
8
0
10
423.100000
20
336.300000
0
VERTEX
8
0
10
381.951220
20
351.560976
0
VERTEX
8
0
10
374.048780
20
352.439024
0
VERTEX
8
0
10
363.000000
20
353.000000
0
VERTEX
8
0
10
353.100000
20
349.800000
0
VERTEX
8
0
10
349.900000
20
348.200000
0
VERTEX
8
0
10
346.000000
20
345.000000
0
VERTEX
8
0
10
345.769231
20
344.153846
0
VERTEX
8
0
10
343.000000
20
339.000000
0
VERTEX
8
0
10
343.000000
20
329.000000
0
VERTEX
8
0
10
344.300000
20
326.100000
0
VERTEX
8
0
10
346.700000
20
319.900000
0
VERTEX
8
0
10
349.240000
20
314.180000
0
VERTEX
8
0
10
360.000000
20
300.000000
0
VERTEX
8
0
10
376.900000
20
288.800000
0
VERTEX
8
0
10
378.100000
20
288.200000
0
VERTEX
8
0
10
387.035294
20
285.458824
0
VERTEX
8
0
10
399.000000
20
285.000000
0
SEQEND
0
POLYLINE
8
0
6
CONTINUOUS
66
1
62
7
10
0.0
20
0.0
30
0.000000
0
VERTEX
8
0
10
345.000000
20
105.000000
0
VERTEX
8
0
10
370.153846
20
121.769231
0
VERTEX
8
0
10
398.100000
20
136.800000
0
VERTEX
8
0
10
414.846154
20
145.230769
0
VERTEX
8
0
10
461.000000
20
169.000000
0
VERTEX
8
0
10
480.769231
20
198.153846
0
VERTEX
8
0
10
494.200000
20
223.900000
0
VERTEX
8
0
10
496.352941
20
231.911765
0
VERTEX
8
0
10
500.569231
20
249.053846
0
VERTEX
8
0
10
501.430769
20
255.946154
0
VERTEX
8
0
10
503.000000
20
270.000000
0
VERTEX
8
0
10
503.000000
20
285.000000
0
VERTEX
8
0
10
499.352941
20
313.088235
0
VERTEX
8
0
10
495.200000
20
328.100000
0
VERTEX
8
0
10
484.230769
20
350.153846
0
VERTEX
8
0
10
479.200000
20
359.100000
0
VERTEX
8
0
10
467.752212
20
375.783186
0
VERTEX
8
0
10
461.247788
20
383.216814
0
VERTEX
8
0
10
454.180000
20
390.240000
0
VERTEX
8
0
10
450.100000
20
393.200000
0
VERTEX
8
0
10
447.000000
20
393.000000
0
VERTEX
8
0
10
445.000000
20
391.000000
0
VERTEX
8
0
10
441.352941
20
383.911765
0
VERTEX
8
0
10
440.000000
20
377.000000
0
VERTEX
8
0
10
442.800000
20
371.900000
0
VERTEX
8
0
10
446.352941
20
363.088235
0
VERTEX
8
0
10
448.700000
20
350.900000
0
VERTEX
8
0
10
449.000000
20
349.000000
0
VERTEX
8
0
10
451.000000
20
347.000000
0
VERTEX
8
0
10
457.100000
20
345.200000
0
VERTEX
8
0
10
458.000000
20
345.000000
0
VERTEX
8
0
10
460.000000
20
343.000000
0
VERTEX
8
0
10
460.000000
20
329.000000
0
VERTEX
8
0
10
456.647059
20
317.088235
0
VERTEX
8
0
10
450.800000
20
304.100000
0
VERTEX
8
0
10
450.200000
20
302.900000
0
VERTEX
8
0
10
439.000000
20
286.000000
0
VERTEX
8
0
10
431.204918
20
278.754098
0
VERTEX
8
0
10
423.900000
20
273.300000
0
VERTEX
8
0
10
416.100000
20
270.700000
0
VERTEX
8
0
10
406.000000
20
269.000000
0
VERTEX
8
0
10
397.000000
20
269.000000
0
VERTEX
8
0
10
384.076923
20
271.384615
0
VERTEX
8
0
10
362.900000
20
277.800000
0
VERTEX
8
0
10
355.000000
20
281.000000
0
VERTEX
8
0
10
352.000000
20
281.000000
0
VERTEX
8
0
10
341.846154
20
274.230769
0
VERTEX
8
0
10
335.000000
20
272.000000
0
VERTEX
8
0
10
329.000000
20
272.000000
0
VERTEX
8
0
10
325.088235
20
273.352941
0
VERTEX
8
0
10
319.195122
20
276.243902
0
VERTEX
8
0
10
313.000000
20
281.000000
0
VERTEX
8
0
10
292.946154
20
277.430769
0
VERTEX
8
0
10
286.053846
20
276.569231
0
VERTEX
8
0
10
285.000000
20
276.000000
0
VERTEX
8
0
10
263.000000
20
276.000000
0
VERTEX
8
0
10
249.100000
20
279.300000
0
VERTEX
8
0
10
245.900000
20
280.800000
0
VERTEX
8
0
10
233.180000
20
287.240000
0
VERTEX
8
0
10
226.000000
20
292.000000
0
VERTEX
8
0
10
216.800000
20
302.900000
0
VERTEX
8
0
10
214.800000
20
306.900000
0
VERTEX
8
0
10
211.352941
20
317.088235
0
VERTEX
8
0
10
210.647059
20
319.911765
0
VERTEX
8
0
10
209.000000
20
336.000000
0
VERTEX
8
0
10
211.200000
20
339.900000
0
VERTEX
8
0
10
213.200000
20
343.900000
0
VERTEX
8
0
10
218.000000
20
354.000000
0
VERTEX
8
0
10
217.000000
20
360.000000
0
VERTEX
8
0
10
217.700000
20
361.100000
0
VERTEX
8
0
10
221.245902
20
369.795082
0
VERTEX
8
0
10
227.000000
20
378.000000
0
VERTEX
8
0
10
227.000000
20
380.000000
0
VERTEX
8
0
10
223.000000
20
396.000000
0
VERTEX
8
0
10
225.615385
20
414.076923
0
VERTEX
8
0
10
227.000000
20
425.000000
0
VERTEX
8
0
10
226.750000
20
425.750000
0
VERTEX
8
0
10
223.000000
20
425.000000
0
VERTEX
8
0
10
216.000000
20
418.000000
0
VERTEX
8
0
10
208.243902
20
407.804878
0
VERTEX
8
0
10
200.800000
20
398.100000
0
VERTEX
8
0
10
181.200000
20
364.900000
0
VERTEX
8
0
10
178.800000
20
360.100000
0
VERTEX
8
0
10
173.352941
20
347.911765
0
VERTEX
8
0
10
167.594595
20
322.067568
0
VERTEX
8
0
10
164.000000
20
293.000000
0
VERTEX
8
0
10
164.000000
20
271.000000
0
VERTEX
8
0
10
165.458824
20
258.035294
0
VERTEX
8
0
10
168.352941
20
246.088235
0
VERTEX
8
0
10
169.647059
20
240.911765
0
VERTEX
8
0
10
177.800000
20
219.900000
0
VERTEX
8
0
10
183.800000
20
208.900000
0
VERTEX
8
0
10
191.245902
20
197.204918
0
VERTEX
8
0
10
195.754098
20
191.795082
0
VERTEX
8
0
10
201.000000
20
185.000000
0
VERTEX
8
0
10
222.000000
20
164.000000
0
VERTEX
8
0
10
227.195122
20
160.243902
0
VERTEX
8
0
10
236.195122
20
153.243902
0
VERTEX
8
0
10
254.153846
20
142.230769
0
VERTEX
8
0
10
264.900000
20
136.800000
0
VERTEX
8
0
10
331.900000
20
109.800000
0
VERTEX
8
0
10
345.000000
20
105.000000
0
SEQEND
0
POLYLINE
8
0
6
CONTINUOUS
66
1
62
7
10
0.0
20
0.0
30
0.000000
0
VERTEX
8
0
10
376.000000
20
87.000000
0
VERTEX
8
0
10
376.000000
20
88.000000
0
VERTEX
8
0
10
378.000000
20
90.000000
0
VERTEX
8
0
10
394.100000
20
99.800000
0
VERTEX
8
0
10
397.153846
20
101.769231
0
VERTEX
8
0
10
441.100000
20
124.800000
0
VERTEX
8
0
10
457.100000
20
132.800000
0
VERTEX
8
0
10
478.000000
20
143.000000
0
VERTEX
8
0
10
486.000000
20
151.000000
0
VERTEX
8
0
10
491.760000
20
159.180000
0
VERTEX
8
0
10
511.200000
20
186.900000
0
VERTEX
8
0
10
514.200000
20
192.900000
0
VERTEX
8
0
10
522.647059
20
211.088235
0
VERTEX
8
0
10
527.300000
20
223.900000
0
VERTEX
8
0
10
532.527624
20
249.024862
0
VERTEX
8
0
10
533.472376
20
266.975138
0
VERTEX
8
0
10
534.000000
20
302.000000
0
VERTEX
8
0
10
531.615385
20
314.923077
0
VERTEX
8
0
10
530.647059
20
318.911765
0
VERTEX
8
0
10
522.700000
20
342.900000
0
VERTEX
8
0
10
522.200000
20
344.100000
0
VERTEX
8
0
10
504.000000
20
378.000000
0
VERTEX
8
0
10
519.800000
20
402.100000
0
VERTEX
8
0
10
520.200000
20
402.900000
0
VERTEX
8
0
10
525.647059
20
417.088235
0
VERTEX
8
0
10
526.352941
20
419.911765
0
VERTEX
8
0
10
530.000000
20
434.000000
0
VERTEX
8
0
10
530.000000
20
454.000000
0
VERTEX
8
0
10
528.580000
20
460.940000
0
VERTEX
8
0
10
525.200000
20
472.100000
0
VERTEX
8
0
10
523.769231
20
474.846154
0
VERTEX
8
0
10
510.000000
20
491.000000
0
VERTEX
8
0
10
496.180000
20
503.240000
0
VERTEX
8
0
10
486.000000
20
511.000000
0
VERTEX
8
0
10
485.533074
20
525.970817
0
VERTEX
8
0
10
484.647059
20
529.911765
0
VERTEX
8
0
10
476.769231
20
546.846154
0
VERTEX
8
0
10
475.230769
20
549.153846
0
VERTEX
8
0
10
465.752941
20
562.788235
0
VERTEX
8
0
10
460.247059
20
569.211765
0
VERTEX
8
0
10
450.000000
20
582.000000
0
VERTEX
8
0
10
434.000000
20
598.000000
0
VERTEX
8
0
10
416.846154
20
610.769231
0
VERTEX
8
0
10
390.900000
20
625.800000
0
VERTEX
8
0
10
383.000000
20
630.000000
0
SEQEND
0
POLYLINE
8
0
6
CONTINUOUS
66
1
62
7
10
0.0
20
0.0
30
0.000000
0
VERTEX
8
0
10
376.000000
20
87.000000
0
VERTEX
8
0
10
395.088235
20
91.647059
0
VERTEX
8
0
10
414.900000
20
97.200000
0
VERTEX
8
0
10
427.100000
20
102.700000
0
VERTEX
8
0
10
454.846154
20
115.230769
0
VERTEX
8
0
10
465.153846
20
121.769231
0
VERTEX
8
0
10
491.788235
20
139.247059
0
VERTEX
8
0
10
518.211765
20
161.752941
0
VERTEX
8
0
10
524.243902
20
167.804878
0
VERTEX
8
0
10
547.756098
20
197.195122
0
VERTEX
8
0
10
562.769231
20
221.153846
0
VERTEX
8
0
10
570.769231
20
234.153846
0
VERTEX
8
0
10
577.800000
20
250.100000
0
VERTEX
8
0
10
585.300000
20
268.900000
0
VERTEX
8
0
10
589.615385
20
281.076923
0
VERTEX
8
0
10
597.352941
20
316.911765
0
VERTEX
8
0
10
601.000000
20
354.000000
0
VERTEX
8
0
10
601.000000
20
366.000000
0
VERTEX
8
0
10
597.560976
20
401.951220
0
VERTEX
8
0
10
591.647059
20
428.911765
0
VERTEX
8
0
10
588.200000
20
443.100000
0
VERTEX
8
0
10
570.800000
20
485.900000
0
VERTEX
8
0
10
552.200000
20
518.100000
0
VERTEX
8
0
10
525.000000
20
551.000000
0
VERTEX
8
0
10
487.795082
20
583.754098
0
VERTEX
8
0
10
466.846154
20
596.769231
0
VERTEX
8
0
10
455.846154
20
603.769231
0
VERTEX
8
0
10
432.900000
20
614.700000
0
VERTEX
8
0
10
418.900000
20
620.800000
0
VERTEX
8
0
10
404.911765
20
625.647059
0
VERTEX
8
0
10
384.000000
20
631.000000
0
SEQEND
0
POLYLINE
8
0
6
CONTINUOUS
66
1
62
7
10
0.0
20
0.0
30
0.000000
0
VERTEX
8
0
10
373.000000
20
86.000000
0
VERTEX
8
0
10
376.000000
20
87.000000
0
SEQEND
0
POLYLINE
8
0
6
CONTINUOUS
66
1
62
7
10
0.0
20
0.0
30
0.000000
0
VERTEX
8
0
10
311.000000
20
84.000000
0
VERTEX
8
0
10
256.900000
20
105.800000
0
VERTEX
8
0
10
230.900000
20
119.800000
0
VERTEX
8
0
10
225.900000
20
122.800000
0
VERTEX
8
0
10
208.204918
20
135.245902
0
VERTEX
8
0
10
202.795082
20
139.754098
0
VERTEX
8
0
10
194.000000
20
147.000000
0
VERTEX
8
0
10
178.000000
20
163.000000
0
VERTEX
8
0
10
174.243902
20
168.195122
0
VERTEX
8
0
10
171.240000
20
172.180000
0
VERTEX
8
0
10
153.800000
20
196.900000
0
VERTEX
8
0
10
152.200000
20
200.100000
0
VERTEX
8
0
10
139.300000
20
232.100000
0
VERTEX
8
0
10
138.700000
20
233.900000
0
VERTEX
8
0
10
135.420000
20
246.060000
0
VERTEX
8
0
10
134.580000
20
251.940000
0
VERTEX
8
0
10
132.000000
20
275.000000
0
VERTEX
8
0
10
133.000000
20
297.000000
0
VERTEX
8
0
10
129.000000
20
299.000000
0
VERTEX
8
0
10
120.000000
20
308.000000
0
VERTEX
8
0
10
118.230769
20
311.153846
0
VERTEX
8
0
10
115.300000
20
318.100000
0
VERTEX
8
0
10
114.700000
20
319.900000
0
VERTEX
8
0
10
111.000000
20
334.000000
0
VERTEX
8
0
10
111.000000
20
351.000000
0
VERTEX
8
0
10
114.384615
20
366.923077
0
VERTEX
8
0
10
118.240000
20
375.820000
0
VERTEX
8
0
10
125.000000
20
384.000000
0
VERTEX
8
0
10
125.820000
20
384.240000
0
VERTEX
8
0
10
136.000000
20
392.000000
0
VERTEX
8
0
10
136.000000
20
428.000000
0
VERTEX
8
0
10
132.544828
20
468.962069
0
VERTEX
8
0
10
131.560976
20
477.951220
0
VERTEX
8
0
10
131.000000
20
479.000000
0
VERTEX
8
0
10
131.000000
20
517.000000
0
VERTEX
8
0
10
132.420000
20
523.940000
0
VERTEX
8
0
10
140.352941
20
554.911765
0
VERTEX
8
0
10
150.000000
20
576.000000
0
SEQEND
0
POLYLINE
8
0
6
CONTINUOUS
66
1
62
7
10
0.0
20
0.0
30
0.000000
0
VERTEX
8
0
10
311.000000
20
83.000000
0
VERTEX
8
0
10
276.048780
20
85.439024
0
VERTEX
8
0
10
252.088235
20
91.352941
0
VERTEX
8
0
10
242.911765
20
93.647059
0
VERTEX
8
0
10
229.100000
20
98.300000
0
VERTEX
8
0
10
201.900000
20
109.800000
0
VERTEX
8
0
10
166.900000
20
129.800000
0
VERTEX
8
0
10
159.204918
20
134.245902
0
VERTEX
8
0
10
122.000000
20
167.000000
0
VERTEX
8
0
10
102.245902
20
191.204918
0
VERTEX
8
0
10
93.200000
20
203.100000
0
VERTEX
8
0
10
74.230769
20
234.153846
0
VERTEX
8
0
10
61.300000
20
265.100000
0
VERTEX
8
0
10
57.700000
20
274.900000
0
VERTEX
8
0
10
52.384615
20
295.076923
0
VERTEX
8
0
10
48.615385
20
312.923077
0
VERTEX
8
0
10
44.000000
20
354.000000
0
VERTEX
8
0
10
44.000000
20
367.000000
0
VERTEX
8
0
10
47.439024
20
403.951220
0
VERTEX
8
0
10
53.352941
20
428.911765
0
VERTEX
8
0
10
56.352941
20
440.911765
0
VERTEX
8
0
10
67.300000
20
469.900000
0
VERTEX
8
0
10
74.800000
20
487.100000
0
VERTEX
8
0
10
94.243902
20
519.804878
0
VERTEX
8
0
10
103.247059
20
530.788235
0
VERTEX
8
0
10
128.000000
20
559.000000
0
VERTEX
8
0
10
149.000000
20
577.000000
0
SEQEND
0
POLYLINE
8
0
6
CONTINUOUS
66
1
62
7
10
0.0
20
0.0
30
0.000000
0
VERTEX
8
0
10
311.000000
20
83.000000
0
VERTEX
8
0
10
311.000000
20
84.000000
0
SEQEND
0
POLYLINE
8
0
6
CONTINUOUS
66
1
62
7
10
0.0
20
0.0
30
0.000000
0
VERTEX
8
0
10
313.000000
20
82.000000
0
VERTEX
8
0
10
311.000000
20
83.000000
0
SEQEND
0
POLYLINE
8
0
6
CONTINUOUS
66
1
62
7
10
0.0
20
0.0
30
0.000000
0
VERTEX
8
0
10
313.000000
20
82.000000
0
VERTEX
8
0
10
313.000000
20
83.000000
0
VERTEX
8
0
10
311.000000
20
84.000000
0
SEQEND
0
POLYLINE
8
0
6
CONTINUOUS
66
1
62
7
10
0.0
20
0.0
30
0.000000
0
VERTEX
8
0
10
318.000000
20
82.000000
0
VERTEX
8
0
10
313.000000
20
82.000000
0
SEQEND
0
POLYLINE
8
0
6
CONTINUOUS
66
1
62
7
10
0.0
20
0.0
30
0.000000
0
VERTEX
8
0
10
326.000000
20
50.000000
0
VERTEX
8
0
10
358.964706
20
52.458824
0
VERTEX
8
0
10
382.932432
20
56.405405
0
VERTEX
8
0
10
394.932432
20
58.405405
0
VERTEX
8
0
10
411.900000
20
63.300000
0
VERTEX
8
0
10
435.900000
20
71.300000
0
VERTEX
8
0
10
464.900000
20
85.200000
0
VERTEX
8
0
10
478.100000
20
91.800000
0
VERTEX
8
0
10
502.820000
20
109.240000
0
VERTEX
8
0
10
509.153846
20
113.769231
0
VERTEX
8
0
10
527.765138
20
129.249541
0
VERTEX
8
0
10
555.000000
20
155.000000
0
VERTEX
8
0
10
563.760000
20
167.180000
0
VERTEX
8
0
10
578.760000
20
187.180000
0
VERTEX
8
0
10
594.800000
20
214.100000
0
VERTEX
8
0
10
601.800000
20
226.100000
0
VERTEX
8
0
10
614.700000
20
259.100000
0
VERTEX
8
0
10
615.300000
20
260.900000
0
VERTEX
8
0
10
620.647059
20
278.088235
0
VERTEX
8
0
10
621.352941
20
280.911765
0
VERTEX
8
0
10
628.560976
20
311.048780
0
VERTEX
8
0
10
632.000000
20
348.000000
0
VERTEX
8
0
10
631.476289
20
365.021649
0
VERTEX
8
0
10
630.523711
20
385.978351
0
VERTEX
8
0
10
628.594595
20
404.932432
0
VERTEX
8
0
10
628.384615
20
406.076923
0
VERTEX
8
0
10
620.700000
20
444.900000
0
VERTEX
8
0
10
617.700000
20
452.900000
0
VERTEX
8
0
10
604.200000
20
488.100000
0
VERTEX
8
0
10
601.200000
20
494.100000
0
VERTEX
8
0
10
579.240000
20
532.180000
0
VERTEX
8
0
10
555.000000
20
565.000000
0
VERTEX
8
0
10
527.223757
20
591.248619
0
VERTEX
8
0
10
517.776243
20
599.751381
0
VERTEX
8
0
10
488.820000
20
620.760000
0
VERTEX
8
0
10
475.900000
20
628.800000
0
VERTEX
8
0
10
473.100000
20
630.200000
0
VERTEX
8
0
10
435.900000
20
647.700000
0
VERTEX
8
0
10
429.900000
20
649.700000
0
VERTEX
8
0
10
393.076923
20
661.384615
0
VERTEX
8
0
10
387.067568
20
662.405405
0
VERTEX
8
0
10
353.250000
20
668.250000
0
VERTEX
8
0
10
352.352941
20
678.088235
0
VERTEX
8
0
10
348.200000
20
688.100000
0
VERTEX
8
0
10
347.769231
20
688.846154
0
VERTEX
8
0
10
343.000000
20
695.000000
0
VERTEX
8
0
10
338.820000
20
697.760000
0
VERTEX
8
0
10
332.900000
20
700.700000
0
VERTEX
8
0
10
331.100000
20
701.300000
0
VERTEX
8
0
10
321.000000
20
703.000000
0
VERTEX
8
0
10
312.100000
20
700.800000
0
VERTEX
8
0
10
304.900000
20
697.200000
0
VERTEX
8
0
10
301.000000
20
694.000000
0
VERTEX
8
0
10
293.800000
20
683.100000
0
VERTEX
8
0
10
292.445545
20
678.955446
0
VERTEX
8
0
10
291.750000
20
669.250000
0
VERTEX
8
0
10
254.067568
20
662.594595
0
VERTEX
8
0
10
252.911765
20
662.352941
0
VERTEX
8
0
10
206.100000
20
647.800000
0
VERTEX
8
0
10
168.900000
20
629.200000
0
VERTEX
8
0
10
130.223757
20
603.751381
0
VERTEX
8
0
10
93.000000
20
569.000000
0
VERTEX
8
0
10
76.243902
20
547.804878
0
VERTEX
8
0
10
67.243902
20
536.804878
0
VERTEX
8
0
10
56.230769
20
518.846154
0
VERTEX
8
0
10
45.230769
20
499.846154
0
VERTEX
8
0
10
40.200000
20
488.900000
0
VERTEX
8
0
10
32.700000
20
469.100000
0
VERTEX
8
0
10
25.352941
20
447.911765
0
VERTEX
8
0
10
17.352941
20
413.911765
0
VERTEX
8
0
10
14.450820
20
391.959016
0
VERTEX
8
0
10
12.000000
20
371.000000
0
VERTEX
8
0
10
12.526185
20
354.976309
0
VERTEX
8
0
10
14.455172
20
324.037931
0
VERTEX
8
0
10
16.384615
20
313.076923
0
VERTEX
8
0
10
20.384615
20
292.076923
0
VERTEX
8
0
10
23.700000
20
277.900000
0
VERTEX
8
0
10
34.700000
20
244.900000
0
VERTEX
8
0
10
41.200000
20
230.100000
0
VERTEX
8
0
10
50.800000
20
210.900000
0
VERTEX
8
0
10
57.240000
20
199.180000
0
VERTEX
8
0
10
82.248619
20
164.223757
0
VERTEX
8
0
10
117.000000
20
127.000000
0
VERTEX
8
0
10
149.820000
20
102.760000
0
VERTEX
8
0
10
168.900000
20
91.800000
0
VERTEX
8
0
10
186.900000
20
81.800000
0
VERTEX
8
0
10
204.100000
20
74.300000
0
VERTEX
8
0
10
227.100000
20
65.300000
0
VERTEX
8
0
10
250.911765
20
58.647059
0
VERTEX
8
0
10
263.911765
20
55.647059
0
VERTEX
8
0
10
273.048780
20
53.439024
0
VERTEX
8
0
10
280.951220
20
52.560976
0
VERTEX
8
0
10
326.000000
20
50.000000
0
SEQEND
0
ENDSEC
0
EOF
