0
SECTION
2
HEADER
9
$ACADVER
1
AC1003
9
$INSBASE
10
0.0
20
0.0
30
0.0
9
$EXTMIN
10
0.000
20
0.000
30
0.0
9
$EXTMAX
10
571.000
20
729.000
30
0.0
9
$LIMMIN
10
0.000
20
0.000
9
$LIMMAX
10
571.000
20
729.000
9
$LTSCALE
40
1.0
9
$LUNITS
70
2
9
$LUPREC
70
3
9
$LIMCHECK
70
0
9
$UCSNAME
2

9
$UCSORG
10
0.0
20
0.0
30
0.0
9
$UCSXDIR
10
1.0
20
0.0
30
0.0
9
$UCSYDIR
10
0.0
20
1.0
30
0.0
9
$WORLDVIEW
70
1
9
$UNITMODE
70
0
0
ENDSEC
0
SECTION
2
TABLES
0
TABLE
2
VPORT
70
1
0
VPORT
2
*ACTIVE
70
0
10
0.0
20
0.0
11
1.0
21
1.0
12
285.500
22
364.500
13
0.0
23
0.0
14
1.0
24
1.0
15
0.0
25
0.0
16
0.0
26
0.0
36
1.0
17
0.0
27
0.0
37
0.0
40
500.0
41
1.277
42
50.0
43
0.0
44
0.0
50
0.0
51
0.0
71
0
72
100
73
1
74
1
75
0
76
0
77
0
78
0
0
ENDTAB
0
TABLE
2
LTYPE
70
1
0
LTYPE
2
CONTINUOUS
70
64
3
Solid line
72
65
73
0
40
0.000
0
ENDTAB
0
TABLE
2
LAYER
70
1
0
LAYER
2
0
70
64
62
7
6
CONTINUOUS
0
ENDTAB
0
ENDSEC
0
SECTION
2
BLOCKS
0
ENDSEC
0
SECTION
2
ENTITIES
0
POLYLINE
8
0
6
CONTINUOUS
66
1
62
7
10
0.0
20
0.0
30
0.000000
0
VERTEX
8
0
10
272.000000
20
666.000000
0
VERTEX
8
0
10
274.000000
20
667.000000
0
VERTEX
8
0
10
279.200000
20
672.900000
0
VERTEX
8
0
10
280.000000
20
674.000000
0
VERTEX
8
0
10
280.000000
20
681.000000
0
VERTEX
8
0
10
278.000000
20
684.000000
0
VERTEX
8
0
10
274.000000
20
688.000000
0
VERTEX
8
0
10
271.000000
20
689.000000
0
VERTEX
8
0
10
263.000000
20
688.000000
0
VERTEX
8
0
10
257.000000
20
681.000000
0
VERTEX
8
0
10
257.000000
20
673.000000
0
VERTEX
8
0
10
260.000000
20
669.000000
0
VERTEX
8
0
10
260.846154
20
668.769231
0
VERTEX
8
0
10
265.053846
20
666.430769
0
VERTEX
8
0
10
272.000000
20
666.000000
0
SEQEND
0
POLYLINE
8
0
6
CONTINUOUS
66
1
62
7
10
0.0
20
0.0
30
0.000000
0
VERTEX
8
0
10
269.000000
20
641.000000
0
VERTEX
8
0
10
269.000000
20
642.000000
0
SEQEND
0
POLYLINE
8
0
6
CONTINUOUS
66
1
62
7
10
0.0
20
0.0
30
0.000000
0
VERTEX
8
0
10
257.000000
20
623.000000
0
VERTEX
8
0
10
259.000000
20
625.000000
0
VERTEX
8
0
10
259.000000
20
627.000000
0
VERTEX
8
0
10
253.000000
20
634.000000
0
VERTEX
8
0
10
251.000000
20
635.000000
0
VERTEX
8
0
10
249.000000
20
634.000000
0
VERTEX
8
0
10
249.615385
20
631.923077
0
VERTEX
8
0
10
251.000000
20
626.000000
0
VERTEX
8
0
10
254.000000
20
623.000000
0
VERTEX
8
0
10
257.000000
20
623.000000
0
SEQEND
0
POLYLINE
8
0
6
CONTINUOUS
66
1
62
7
10
0.0
20
0.0
30
0.000000
0
VERTEX
8
0
10
283.000000
20
623.000000
0
VERTEX
8
0
10
285.000000
20
624.000000
0
VERTEX
8
0
10
289.000000
20
634.000000
0
VERTEX
8
0
10
288.000000
20
636.000000
0
VERTEX
8
0
10
285.900000
20
635.200000
0
VERTEX
8
0
10
278.000000
20
630.000000
0
VERTEX
8
0
10
277.000000
20
629.000000
0
VERTEX
8
0
10
277.000000
20
627.000000
0
VERTEX
8
0
10
280.000000
20
624.000000
0
VERTEX
8
0
10
282.100000
20
623.200000
0
VERTEX
8
0
10
283.000000
20
623.000000
0
SEQEND
0
POLYLINE
8
0
6
CONTINUOUS
66
1
62
7
10
0.0
20
0.0
30
0.000000
0
VERTEX
8
0
10
245.000000
20
597.000000
0
VERTEX
8
0
10
249.750000
20
598.250000
0
VERTEX
8
0
10
249.700000
20
600.900000
0
VERTEX
8
0
10
249.200000
20
602.100000
0
VERTEX
8
0
10
247.000000
20
605.000000
0
VERTEX
8
0
10
243.100000
20
603.800000
0
VERTEX
8
0
10
241.153846
20
602.769231
0
VERTEX
8
0
10
236.000000
20
599.000000
0
VERTEX
8
0
10
236.000000
20
598.000000
0
VERTEX
8
0
10
237.000000
20
597.000000
0
VERTEX
8
0
10
245.000000
20
597.000000
0
SEQEND
0
POLYLINE
8
0
6
CONTINUOUS
66
1
62
7
10
0.0
20
0.0
30
0.000000
0
VERTEX
8
0
10
298.000000
20
597.000000
0
VERTEX
8
0
10
301.000000
20
599.000000
0
VERTEX
8
0
10
295.100000
20
603.200000
0
VERTEX
8
0
10
292.000000
20
605.000000
0
VERTEX
8
0
10
289.900000
20
604.200000
0
VERTEX
8
0
10
289.000000
20
604.000000
0
VERTEX
8
0
10
286.000000
20
601.000000
0
VERTEX
8
0
10
286.000000
20
600.000000
0
VERTEX
8
0
10
290.088235
20
598.352941
0
VERTEX
8
0
10
298.000000
20
597.000000
0
SEQEND
0
POLYLINE
8
0
6
CONTINUOUS
66
1
62
7
10
0.0
20
0.0
30
0.000000
0
VERTEX
8
0
10
248.000000
20
580.000000
0
VERTEX
8
0
10
250.700000
20
589.100000
0
VERTEX
8
0
10
255.000000
20
602.000000
0
VERTEX
8
0
10
237.000000
20
617.000000
0
VERTEX
8
0
10
238.000000
20
618.000000
0
VERTEX
8
0
10
258.000000
20
620.000000
0
VERTEX
8
0
10
260.000000
20
622.000000
0
VERTEX
8
0
10
265.800000
20
635.100000
0
VERTEX
8
0
10
269.000000
20
641.000000
0
SEQEND
0
POLYLINE
8
0
6
CONTINUOUS
66
1
62
7
10
0.0
20
0.0
30
0.000000
0
VERTEX
8
0
10
288.000000
20
580.000000
0
VERTEX
8
0
10
270.900000
20
590.700000
0
VERTEX
8
0
10
266.000000
20
592.000000
0
VERTEX
8
0
10
258.804878
20
586.243902
0
VERTEX
8
0
10
250.900000
20
581.200000
0
VERTEX
8
0
10
248.000000
20
580.000000
0
SEQEND
0
POLYLINE
8
0
6
CONTINUOUS
66
1
62
7
10
0.0
20
0.0
30
0.000000
0
VERTEX
8
0
10
288.000000
20
580.000000
0
VERTEX
8
0
10
286.300000
20
589.100000
0
VERTEX
8
0
10
282.000000
20
602.000000
0
VERTEX
8
0
10
299.000000
20
617.000000
0
VERTEX
8
0
10
298.000000
20
618.000000
0
VERTEX
8
0
10
285.932432
20
619.594595
0
VERTEX
8
0
10
278.000000
20
621.000000
0
VERTEX
8
0
10
277.000000
20
622.000000
0
VERTEX
8
0
10
271.200000
20
636.100000
0
VERTEX
8
0
10
269.000000
20
641.000000
0
SEQEND
0
POLYLINE
8
0
6
CONTINUOUS
66
1
62
7
10
0.0
20
0.0
30
0.000000
0
VERTEX
8
0
10
247.000000
20
579.000000
0
VERTEX
8
0
10
248.000000
20
580.000000
0
SEQEND
0
POLYLINE
8
0
6
CONTINUOUS
66
1
62
7
10
0.0
20
0.0
30
0.000000
0
VERTEX
8
0
10
289.000000
20
579.000000
0
VERTEX
8
0
10
288.000000
20
580.000000
0
SEQEND
0
POLYLINE
8
0
6
CONTINUOUS
66
1
62
7
10
0.0
20
0.0
30
0.000000
0
VERTEX
8
0
10
268.000000
20
575.000000
0
VERTEX
8
0
10
270.300000
20
578.900000
0
VERTEX
8
0
10
272.000000
20
583.000000
0
VERTEX
8
0
10
272.000000
20
587.000000
0
VERTEX
8
0
10
271.000000
20
588.000000
0
VERTEX
8
0
10
267.000000
20
589.000000
0
VERTEX
8
0
10
265.000000
20
587.000000
0
VERTEX
8
0
10
265.000000
20
583.000000
0
VERTEX
8
0
10
267.200000
20
576.100000
0
VERTEX
8
0
10
268.000000
20
575.000000
0
SEQEND
0
POLYLINE
8
0
6
CONTINUOUS
66
1
62
7
10
0.0
20
0.0
30
0.000000
0
VERTEX
8
0
10
270.000000
20
547.000000
0
VERTEX
8
0
10
271.100000
20
547.800000
0
VERTEX
8
0
10
274.000000
20
549.000000
0
VERTEX
8
0
10
278.000000
20
553.000000
0
VERTEX
8
0
10
278.000000
20
558.000000
0
VERTEX
8
0
10
276.000000
20
561.000000
0
VERTEX
8
0
10
273.100000
20
563.200000
0
VERTEX
8
0
10
271.100000
20
564.200000
0
VERTEX
8
0
10
270.000000
20
565.000000
0
VERTEX
8
0
10
265.000000
20
565.000000
0
VERTEX
8
0
10
262.000000
20
562.000000
0
VERTEX
8
0
10
261.300000
20
559.900000
0
VERTEX
8
0
10
260.000000
20
557.000000
0
VERTEX
8
0
10
260.647059
20
553.911765
0
VERTEX
8
0
10
261.000000
20
551.000000
0
VERTEX
8
0
10
264.000000
20
548.000000
0
VERTEX
8
0
10
268.100000
20
547.300000
0
VERTEX
8
0
10
270.000000
20
547.000000
0
SEQEND
0
POLYLINE
8
0
6
CONTINUOUS
66
1
62
7
10
0.0
20
0.0
30
0.000000
0
VERTEX
8
0
10
232.000000
20
530.000000
0
VERTEX
8
0
10
238.000000
20
533.000000
0
VERTEX
8
0
10
240.000000
20
542.000000
0
VERTEX
8
0
10
239.300000
20
543.100000
0
VERTEX
8
0
10
238.000000
20
547.000000
0
VERTEX
8
0
10
236.000000
20
549.000000
0
VERTEX
8
0
10
228.000000
20
551.000000
0
VERTEX
8
0
10
222.000000
20
546.000000
0
VERTEX
8
0
10
221.200000
20
543.900000
0
VERTEX
8
0
10
220.000000
20
542.000000
0
VERTEX
8
0
10
220.700000
20
537.900000
0
VERTEX
8
0
10
221.000000
20
536.000000
0
VERTEX
8
0
10
225.000000
20
532.000000
0
VERTEX
8
0
10
230.100000
20
530.300000
0
VERTEX
8
0
10
232.000000
20
530.000000
0
SEQEND
0
POLYLINE
8
0
6
CONTINUOUS
66
1
62
7
10
0.0
20
0.0
30
0.000000
0
VERTEX
8
0
10
266.000000
20
519.000000
0
VERTEX
8
0
10
268.760000
20
522.180000
0
VERTEX
8
0
10
269.200000
20
525.100000
0
VERTEX
8
0
10
268.800000
20
525.900000
0
VERTEX
8
0
10
256.300000
20
552.100000
0
VERTEX
8
0
10
253.430769
20
565.053846
0
VERTEX
8
0
10
252.000000
20
576.000000
0
VERTEX
8
0
10
251.000000
20
577.000000
0
VERTEX
8
0
10
247.000000
20
575.000000
0
VERTEX
8
0
10
243.769231
20
571.153846
0
VERTEX
8
0
10
242.000000
20
569.000000
0
VERTEX
8
0
10
242.000000
20
558.000000
0
VERTEX
8
0
10
243.352941
20
554.088235
0
VERTEX
8
0
10
243.700000
20
552.900000
0
VERTEX
8
0
10
250.200000
20
534.100000
0
VERTEX
8
0
10
251.200000
20
532.100000
0
VERTEX
8
0
10
259.000000
20
521.000000
0
VERTEX
8
0
10
266.000000
20
519.000000
0
SEQEND
0
POLYLINE
8
0
6
CONTINUOUS
66
1
62
7
10
0.0
20
0.0
30
0.000000
0
VERTEX
8
0
10
304.000000
20
503.000000
0
VERTEX
8
0
10
309.100000
20
504.800000
0
VERTEX
8
0
10
314.000000
20
509.000000
0
VERTEX
8
0
10
315.000000
20
517.000000
0
VERTEX
8
0
10
313.647059
20
520.911765
0
VERTEX
8
0
10
313.200000
20
522.100000
0
VERTEX
8
0
10
311.000000
20
525.000000
0
VERTEX
8
0
10
308.900000
20
525.700000
0
VERTEX
8
0
10
306.000000
20
527.000000
0
VERTEX
8
0
10
302.000000
20
527.000000
0
VERTEX
8
0
10
297.900000
20
525.200000
0
VERTEX
8
0
10
294.000000
20
522.000000
0
VERTEX
8
0
10
292.800000
20
519.100000
0
VERTEX
8
0
10
292.000000
20
518.000000
0
VERTEX
8
0
10
292.000000
20
510.000000
0
VERTEX
8
0
10
294.000000
20
507.000000
0
VERTEX
8
0
10
296.000000
20
505.000000
0
VERTEX
8
0
10
298.088235
20
504.352941
0
VERTEX
8
0
10
304.000000
20
503.000000
0
SEQEND
0
POLYLINE
8
0
6
CONTINUOUS
66
1
62
7
10
0.0
20
0.0
30
0.000000
0
VERTEX
8
0
10
273.000000
20
499.000000
0
VERTEX
8
0
10
278.756098
20
506.195122
0
VERTEX
8
0
10
284.800000
20
517.100000
0
VERTEX
8
0
10
286.200000
20
519.900000
0
VERTEX
8
0
10
290.647059
20
530.088235
0
VERTEX
8
0
10
295.000000
20
550.000000
0
VERTEX
8
0
10
294.439024
20
561.048780
0
VERTEX
8
0
10
294.000000
20
569.000000
0
VERTEX
8
0
10
285.000000
20
578.000000
0
VERTEX
8
0
10
279.000000
20
582.000000
0
VERTEX
8
0
10
278.000000
20
581.000000
0
VERTEX
8
0
10
278.647059
20
576.911765
0
VERTEX
8
0
10
282.000000
20
565.000000
0
VERTEX
8
0
10
280.384615
20
543.923077
0
VERTEX
8
0
10
277.647059
20
530.088235
0
VERTEX
8
0
10
271.800000
20
518.100000
0
VERTEX
8
0
10
268.800000
20
512.100000
0
VERTEX
8
0
10
267.000000
20
509.000000
0
VERTEX
8
0
10
267.000000
20
507.000000
0
VERTEX
8
0
10
269.243902
20
503.195122
0
VERTEX
8
0
10
273.000000
20
499.000000
0
SEQEND
0
POLYLINE
8
0
6
CONTINUOUS
66
1
62
7
10
0.0
20
0.0
30
0.000000
0
VERTEX
8
0
10
217.000000
20
485.000000
0
VERTEX
8
0
10
220.100000
20
486.800000
0
VERTEX
8
0
10
224.000000
20
490.000000
0
VERTEX
8
0
10
224.800000
20
492.100000
0
VERTEX
8
0
10
227.000000
20
500.000000
0
VERTEX
8
0
10
225.769231
20
501.846154
0
VERTEX
8
0
10
222.000000
20
507.000000
0
VERTEX
8
0
10
218.100000
20
509.200000
0
VERTEX
8
0
10
217.000000
20
510.000000
0
VERTEX
8
0
10
210.000000
20
509.000000
0
VERTEX
8
0
10
205.000000
20
504.000000
0
VERTEX
8
0
10
204.352941
20
501.911765
0
VERTEX
8
0
10
203.000000
20
495.000000
0
VERTEX
8
0
10
205.000000
20
491.000000
0
VERTEX
8
0
10
208.000000
20
488.000000
0
VERTEX
8
0
10
215.100000
20
485.300000
0
VERTEX
8
0
10
217.000000
20
485.000000
0
SEQEND
0
POLYLINE
8
0
6
CONTINUOUS
66
1
62
7
10
0.0
20
0.0
30
0.000000
0
VERTEX
8
0
10
244.000000
20
479.000000
0
VERTEX
8
0
10
245.060000
20
479.580000
0
VERTEX
8
0
10
253.000000
20
481.000000
0
VERTEX
8
0
10
255.000000
20
483.000000
0
VERTEX
8
0
10
250.000000
20
490.000000
0
VERTEX
8
0
10
242.900000
20
492.700000
0
VERTEX
8
0
10
232.000000
20
496.000000
0
VERTEX
8
0
10
228.200000
20
489.900000
0
VERTEX
8
0
10
225.000000
20
484.000000
0
VERTEX
8
0
10
228.000000
20
481.000000
0
VERTEX
8
0
10
237.053846
20
479.430769
0
VERTEX
8
0
10
244.000000
20
479.000000
0
SEQEND
0
POLYLINE
8
0
6
CONTINUOUS
66
1
62
7
10
0.0
20
0.0
30
0.000000
0
VERTEX
8
0
10
267.000000
20
475.000000
0
VERTEX
8
0
10
274.000000
20
481.000000
0
VERTEX
8
0
10
276.500000
20
487.000000
0
VERTEX
8
0
10
273.240000
20
492.180000
0
VERTEX
8
0
10
255.000000
20
515.000000
0
VERTEX
8
0
10
249.100000
20
520.200000
0
VERTEX
8
0
10
237.000000
20
525.000000
0
VERTEX
8
0
10
231.911765
20
524.352941
0
VERTEX
8
0
10
220.000000
20
520.000000
0
VERTEX
8
0
10
216.000000
20
516.000000
0
VERTEX
8
0
10
216.000000
20
515.000000
0
VERTEX
8
0
10
223.100000
20
511.300000
0
VERTEX
8
0
10
226.100000
20
510.300000
0
VERTEX
8
0
10
241.000000
20
505.000000
0
VERTEX
8
0
10
246.000000
20
500.000000
0
VERTEX
8
0
10
266.000000
20
475.000000
0
VERTEX
8
0
10
267.000000
20
475.000000
0
SEQEND
0
POLYLINE
8
0
6
CONTINUOUS
66
1
62
7
10
0.0
20
0.0
30
0.000000
0
VERTEX
8
0
10
254.000000
20
460.000000
0
VERTEX
8
0
10
259.000000
20
463.000000
0
VERTEX
8
0
10
259.230769
20
463.846154
0
VERTEX
8
0
10
262.000000
20
469.000000
0
VERTEX
8
0
10
261.000000
20
473.000000
0
VERTEX
8
0
10
257.100000
20
476.200000
0
VERTEX
8
0
10
256.000000
20
477.000000
0
VERTEX
8
0
10
253.000000
20
477.000000
0
VERTEX
8
0
10
251.100000
20
475.800000
0
VERTEX
8
0
10
249.000000
20
475.000000
0
VERTEX
8
0
10
245.800000
20
471.100000
0
VERTEX
8
0
10
245.000000
20
470.000000
0
VERTEX
8
0
10
247.000000
20
464.000000
0
VERTEX
8
0
10
253.100000
20
460.200000
0
VERTEX
8
0
10
254.000000
20
460.000000
0
SEQEND
0
POLYLINE
8
0
6
CONTINUOUS
66
1
62
7
10
0.0
20
0.0
30
0.000000
0
VERTEX
8
0
10
321.000000
20
460.000000
0
VERTEX
8
0
10
329.000000
20
465.000000
0
VERTEX
8
0
10
329.230769
20
465.846154
0
VERTEX
8
0
10
332.000000
20
471.000000
0
VERTEX
8
0
10
332.000000
20
474.000000
0
VERTEX
8
0
10
328.000000
20
482.000000
0
VERTEX
8
0
10
327.153846
20
482.230769
0
VERTEX
8
0
10
323.000000
20
485.000000
0
VERTEX
8
0
10
317.000000
20
485.000000
0
VERTEX
8
0
10
315.000000
20
484.000000
0
VERTEX
8
0
10
311.760000
20
480.180000
0
VERTEX
8
0
10
308.000000
20
475.000000
0
VERTEX
8
0
10
309.000000
20
468.000000
0
VERTEX
8
0
10
312.000000
20
465.000000
0
VERTEX
8
0
10
321.000000
20
460.000000
0
SEQEND
0
POLYLINE
8
0
6
CONTINUOUS
66
1
62
7
10
0.0
20
0.0
30
0.000000
0
VERTEX
8
0
10
302.000000
20
457.000000
0
VERTEX
8
0
10
309.000000
20
460.000000
0
VERTEX
8
0
10
308.300000
20
461.100000
0
VERTEX
8
0
10
307.000000
20
465.000000
0
VERTEX
8
0
10
301.000000
20
471.000000
0
VERTEX
8
0
10
294.000000
20
474.000000
0
VERTEX
8
0
10
291.000000
20
474.000000
0
VERTEX
8
0
10
288.000000
20
472.000000
0
VERTEX
8
0
10
282.769231
20
466.153846
0
VERTEX
8
0
10
281.000000
20
464.000000
0
VERTEX
8
0
10
282.846154
20
462.769231
0
VERTEX
8
0
10
289.088235
20
459.352941
0
VERTEX
8
0
10
302.000000
20
457.000000
0
SEQEND
0
POLYLINE
8
0
6
CONTINUOUS
66
1
62
7
10
0.0
20
0.0
30
0.000000
0
VERTEX
8
0
10
266.000000
20
450.000000
0
VERTEX
8
0
10
290.000000
20
481.000000
0
VERTEX
8
0
10
296.067568
20
482.594595
0
VERTEX
8
0
10
302.076923
20
483.615385
0
VERTEX
8
0
10
321.000000
20
488.000000
0
VERTEX
8
0
10
323.000000
20
490.000000
0
VERTEX
8
0
10
322.000000
20
492.000000
0
VERTEX
8
0
10
318.153846
20
495.230769
0
VERTEX
8
0
10
313.000000
20
498.000000
0
VERTEX
8
0
10
300.000000
20
498.000000
0
VERTEX
8
0
10
291.846154
20
494.230769
0
VERTEX
8
0
10
287.000000
20
491.000000
0
VERTEX
8
0
10
281.000000
20
485.000000
0
VERTEX
8
0
10
264.240000
20
463.820000
0
VERTEX
8
0
10
260.000000
20
458.000000
0
VERTEX
8
0
10
261.000000
20
453.000000
0
VERTEX
8
0
10
266.000000
20
450.000000
0
SEQEND
0
POLYLINE
8
0
6
CONTINUOUS
66
1
62
7
10
0.0
20
0.0
30
0.000000
0
VERTEX
8
0
10
241.000000
20
441.000000
0
VERTEX
8
0
10
242.000000
20
442.000000
0
SEQEND
0
POLYLINE
8
0
6
CONTINUOUS
66
1
62
7
10
0.0
20
0.0
30
0.000000
0
VERTEX
8
0
10
244.000000
20
441.000000
0
VERTEX
8
0
10
242.000000
20
442.000000
0
SEQEND
0
POLYLINE
8
0
6
CONTINUOUS
66
1
62
7
10
0.0
20
0.0
30
0.000000
0
VERTEX
8
0
10
243.000000
20
440.000000
0
VERTEX
8
0
10
241.000000
20
441.000000
0
SEQEND
0
POLYLINE
8
0
6
CONTINUOUS
66
1
62
7
10
0.0
20
0.0
30
0.000000
0
VERTEX
8
0
10
243.000000
20
440.000000
0
VERTEX
8
0
10
244.000000
20
441.000000
0
SEQEND
0
POLYLINE
8
0
6
CONTINUOUS
66
1
62
7
10
0.0
20
0.0
30
0.000000
0
VERTEX
8
0
10
245.000000
20
440.000000
0
VERTEX
8
0
10
244.000000
20
441.000000
0
SEQEND
0
POLYLINE
8
0
6
CONTINUOUS
66
1
62
7
10
0.0
20
0.0
30
0.000000
0
VERTEX
8
0
10
244.000000
20
439.000000
0
VERTEX
8
0
10
243.000000
20
440.000000
0
SEQEND
0
POLYLINE
8
0
6
CONTINUOUS
66
1
62
7
10
0.0
20
0.0
30
0.000000
0
VERTEX
8
0
10
244.000000
20
439.000000
0
VERTEX
8
0
10
245.000000
20
440.000000
0
SEQEND
0
POLYLINE
8
0
6
CONTINUOUS
66
1
62
7
10
0.0
20
0.0
30
0.000000
0
VERTEX
8
0
10
198.000000
20
436.000000
0
VERTEX
8
0
10
204.000000
20
439.000000
0
VERTEX
8
0
10
207.200000
20
444.900000
0
VERTEX
8
0
10
208.000000
20
446.000000
0
VERTEX
8
0
10
207.000000
20
452.000000
0
VERTEX
8
0
10
202.100000
20
456.200000
0
VERTEX
8
0
10
197.000000
20
459.000000
0
VERTEX
8
0
10
194.000000
20
459.000000
0
VERTEX
8
0
10
192.100000
20
457.800000
0
VERTEX
8
0
10
190.900000
20
457.200000
0
VERTEX
8
0
10
187.000000
20
454.000000
0
VERTEX
8
0
10
185.700000
20
450.100000
0
VERTEX
8
0
10
185.000000
20
449.000000
0
VERTEX
8
0
10
186.000000
20
442.000000
0
VERTEX
8
0
10
190.000000
20
438.000000
0
VERTEX
8
0
10
192.100000
20
437.200000
0
VERTEX
8
0
10
198.000000
20
436.000000
0
SEQEND
0
POLYLINE
8
0
6
CONTINUOUS
66
1
62
7
10
0.0
20
0.0
30
0.000000
0
VERTEX
8
0
10
287.000000
20
436.000000
0
VERTEX
8
0
10
293.000000
20
440.000000
0
VERTEX
8
0
10
295.000000
20
446.000000
0
VERTEX
8
0
10
294.000000
20
450.000000
0
VERTEX
8
0
10
290.000000
20
454.000000
0
VERTEX
8
0
10
283.000000
20
455.000000
0
VERTEX
8
0
10
280.000000
20
453.000000
0
VERTEX
8
0
10
278.000000
20
451.000000
0
VERTEX
8
0
10
277.000000
20
445.000000
0
VERTEX
8
0
10
278.230769
20
443.153846
0
VERTEX
8
0
10
281.000000
20
439.000000
0
VERTEX
8
0
10
287.000000
20
436.000000
0
SEQEND
0
POLYLINE
8
0
6
CONTINUOUS
66
1
62
7
10
0.0
20
0.0
30
0.000000
0
VERTEX
8
0
10
241.000000
20
441.000000
0
VERTEX
8
0
10
211.000000
20
445.000000
0
VERTEX
8
0
10
209.800000
20
443.100000
0
VERTEX
8
0
10
204.000000
20
433.000000
0
VERTEX
8
0
10
208.900000
20
430.700000
0
VERTEX
8
0
10
212.000000
20
429.000000
0
VERTEX
8
0
10
226.000000
20
429.000000
0
VERTEX
8
0
10
243.000000
20
435.000000
0
VERTEX
8
0
10
245.000000
20
437.000000
0
VERTEX
8
0
10
244.000000
20
439.000000
0
SEQEND
0
POLYLINE
8
0
6
CONTINUOUS
66
1
62
7
10
0.0
20
0.0
30
0.000000
0
VERTEX
8
0
10
245.000000
20
440.000000
0
VERTEX
8
0
10
248.153846
20
438.230769
0
VERTEX
8
0
10
275.000000
20
418.000000
0
VERTEX
8
0
10
286.000000
20
430.000000
0
VERTEX
8
0
10
283.195122
20
432.243902
0
VERTEX
8
0
10
278.804878
20
435.756098
0
VERTEX
8
0
10
247.900000
20
458.800000
0
VERTEX
8
0
10
247.100000
20
459.200000
0
VERTEX
8
0
10
228.911765
20
467.647059
0
VERTEX
8
0
10
226.088235
20
468.352941
0
VERTEX
8
0
10
225.000000
20
469.000000
0
VERTEX
8
0
10
214.000000
20
469.000000
0
VERTEX
8
0
10
202.000000
20
464.000000
0
VERTEX
8
0
10
201.000000
20
463.000000
0
VERTEX
8
0
10
206.000000
20
458.000000
0
VERTEX
8
0
10
224.100000
20
453.200000
0
VERTEX
8
0
10
226.100000
20
452.200000
0
VERTEX
8
0
10
235.820000
20
446.760000
0
VERTEX
8
0
10
242.000000
20
442.000000
0
SEQEND
0
POLYLINE
8
0
6
CONTINUOUS
66
1
62
7
10
0.0
20
0.0
30
0.000000
0
VERTEX
8
0
10
340.000000
20
411.000000
0
VERTEX
8
0
10
345.100000
20
412.800000
0
VERTEX
8
0
10
348.000000
20
415.000000
0
VERTEX
8
0
10
348.230769
20
415.846154
0
VERTEX
8
0
10
350.000000
20
418.000000
0
VERTEX
8
0
10
350.000000
20
424.000000
0
VERTEX
8
0
10
348.800000
20
425.900000
0
VERTEX
8
0
10
347.800000
20
427.900000
0
VERTEX
8
0
10
346.000000
20
431.000000
0
VERTEX
8
0
10
341.088235
20
432.352941
0
VERTEX
8
0
10
336.000000
20
433.000000
0
VERTEX
8
0
10
331.900000
20
431.200000
0
VERTEX
8
0
10
329.000000
20
429.000000
0
VERTEX
8
0
10
328.800000
20
428.100000
0
VERTEX
8
0
10
328.000000
20
427.000000
0
VERTEX
8
0
10
328.000000
20
419.000000
0
VERTEX
8
0
10
329.300000
20
416.100000
0
VERTEX
8
0
10
330.000000
20
414.000000
0
VERTEX
8
0
10
334.088235
20
412.352941
0
VERTEX
8
0
10
340.000000
20
411.000000
0
SEQEND
0
POLYLINE
8
0
6
CONTINUOUS
66
1
62
7
10
0.0
20
0.0
30
0.000000
0
VERTEX
8
0
10
251.000000
20
407.000000
0
VERTEX
8
0
10
258.000000
20
411.000000
0
VERTEX
8
0
10
258.200000
20
411.900000
0
VERTEX
8
0
10
261.000000
20
417.000000
0
VERTEX
8
0
10
260.000000
20
424.000000
0
VERTEX
8
0
10
257.153846
20
426.230769
0
VERTEX
8
0
10
252.911765
20
428.647059
0
VERTEX
8
0
10
248.000000
20
430.000000
0
VERTEX
8
0
10
244.000000
20
428.000000
0
VERTEX
8
0
10
240.800000
20
424.100000
0
VERTEX
8
0
10
239.000000
20
421.000000
0
VERTEX
8
0
10
239.000000
20
417.000000
0
VERTEX
8
0
10
240.200000
20
415.100000
0
VERTEX
8
0
10
241.000000
20
413.000000
0
VERTEX
8
0
10
248.900000
20
407.800000
0
VERTEX
8
0
10
251.000000
20
407.000000
0
SEQEND
0
POLYLINE
8
0
6
CONTINUOUS
66
1
62
7
10
0.0
20
0.0
30
0.000000
0
VERTEX
8
0
10
317.000000
20
403.000000
0
VERTEX
8
0
10
318.067568
20
403.594595
0
VERTEX
8
0
10
329.000000
20
406.000000
0
VERTEX
8
0
10
330.000000
20
407.000000
0
VERTEX
8
0
10
329.000000
20
411.000000
0
VERTEX
8
0
10
325.000000
20
415.000000
0
VERTEX
8
0
10
313.911765
20
417.647059
0
VERTEX
8
0
10
302.000000
20
421.000000
0
VERTEX
8
0
10
299.000000
20
419.000000
0
VERTEX
8
0
10
292.769231
20
412.153846
0
VERTEX
8
0
10
291.000000
20
410.000000
0
VERTEX
8
0
10
292.000000
20
409.000000
0
VERTEX
8
0
10
300.067568
20
405.405405
0
VERTEX
8
0
10
317.000000
20
403.000000
0
SEQEND
0
POLYLINE
8
0
6
CONTINUOUS
66
1
62
7
10
0.0
20
0.0
30
0.000000
0
VERTEX
8
0
10
269.000000
20
392.000000
0
VERTEX
8
0
10
311.000000
20
435.000000
0
VERTEX
8
0
10
327.973846
20
435.470769
0
VERTEX
8
0
10
337.955446
20
436.445545
0
VERTEX
8
0
10
342.000000
20
438.000000
0
VERTEX
8
0
10
342.000000
20
439.000000
0
VERTEX
8
0
10
338.000000
20
444.000000
0
VERTEX
8
0
10
328.000000
20
449.000000
0
VERTEX
8
0
10
320.000000
20
449.000000
0
VERTEX
8
0
10
307.100000
20
443.800000
0
VERTEX
8
0
10
293.238894
20
431.750247
0
VERTEX
8
0
10
259.000000
20
399.000000
0
VERTEX
8
0
10
264.000000
20
394.000000
0
VERTEX
8
0
10
266.100000
20
393.200000
0
VERTEX
8
0
10
269.000000
20
392.000000
0
SEQEND
0
POLYLINE
8
0
6
CONTINUOUS
66
1
62
7
10
0.0
20
0.0
30
0.000000
0
VERTEX
8
0
10
292.000000
20
379.000000
0
VERTEX
8
0
10
299.000000
20
382.000000
0
VERTEX
8
0
10
303.000000
20
389.000000
0
VERTEX
8
0
10
302.384615
20
393.076923
0
VERTEX
8
0
10
301.000000
20
399.000000
0
VERTEX
8
0
10
297.100000
20
402.200000
0
VERTEX
8
0
10
293.000000
20
404.000000
0
VERTEX
8
0
10
289.000000
20
404.000000
0
VERTEX
8
0
10
286.100000
20
402.700000
0
VERTEX
8
0
10
284.900000
20
402.200000
0
VERTEX
8
0
10
281.000000
20
399.000000
0
VERTEX
8
0
10
279.000000
20
393.000000
0
VERTEX
8
0
10
279.000000
20
390.000000
0
VERTEX
8
0
10
282.000000
20
385.000000
0
VERTEX
8
0
10
284.820000
20
382.760000
0
VERTEX
8
0
10
290.100000
20
379.300000
0
VERTEX
8
0
10
292.000000
20
379.000000
0
SEQEND
0
POLYLINE
8
0
6
CONTINUOUS
66
1
62
7
10
0.0
20
0.0
30
0.000000
0
VERTEX
8
0
10
178.000000
20
376.000000
0
VERTEX
8
0
10
179.088235
20
376.647059
0
VERTEX
8
0
10
185.000000
20
379.000000
0
VERTEX
8
0
10
187.000000
20
381.000000
0
VERTEX
8
0
10
190.000000
20
388.000000
0
VERTEX
8
0
10
189.300000
20
391.100000
0
VERTEX
8
0
10
189.000000
20
393.000000
0
VERTEX
8
0
10
182.153846
20
399.230769
0
VERTEX
8
0
10
180.000000
20
401.000000
0
VERTEX
8
0
10
174.000000
20
401.000000
0
VERTEX
8
0
10
172.900000
20
400.200000
0
VERTEX
8
0
10
170.000000
20
399.000000
0
VERTEX
8
0
10
165.800000
20
394.100000
0
VERTEX
8
0
10
164.000000
20
390.000000
0
VERTEX
8
0
10
164.000000
20
386.000000
0
VERTEX
8
0
10
164.700000
20
384.900000
0
VERTEX
8
0
10
166.000000
20
381.000000
0
VERTEX
8
0
10
171.000000
20
376.000000
0
VERTEX
8
0
10
178.000000
20
376.000000
0
SEQEND
0
POLYLINE
8
0
6
CONTINUOUS
66
1
62
7
10
0.0
20
0.0
30
0.000000
0
VERTEX
8
0
10
212.000000
20
368.000000
0
VERTEX
8
0
10
230.100000
20
371.700000
0
VERTEX
8
0
10
231.900000
20
372.300000
0
VERTEX
8
0
10
245.000000
20
378.000000
0
VERTEX
8
0
10
246.000000
20
379.000000
0
VERTEX
8
0
10
242.000000
20
383.000000
0
VERTEX
8
0
10
237.900000
20
384.800000
0
VERTEX
8
0
10
236.000000
20
386.000000
0
VERTEX
8
0
10
219.037931
20
384.544828
0
VERTEX
8
0
10
218.000000
20
384.000000
0
VERTEX
8
0
10
193.000000
20
386.000000
0
VERTEX
8
0
10
191.800000
20
384.100000
0
VERTEX
8
0
10
186.000000
20
373.000000
0
VERTEX
8
0
10
188.000000
20
371.000000
0
VERTEX
8
0
10
204.048780
20
368.439024
0
VERTEX
8
0
10
212.000000
20
368.000000
0
SEQEND
0
POLYLINE
8
0
6
CONTINUOUS
66
1
62
7
10
0.0
20
0.0
30
0.000000
0
VERTEX
8
0
10
275.000000
20
363.000000
0
VERTEX
8
0
10
276.100000
20
363.800000
0
VERTEX
8
0
10
282.000000
20
367.000000
0
VERTEX
8
0
10
289.000000
20
374.000000
0
VERTEX
8
0
10
288.000000
20
375.000000
0
VERTEX
8
0
10
224.911765
20
416.647059
0
VERTEX
8
0
10
222.088235
20
417.352941
0
VERTEX
8
0
10
206.000000
20
420.000000
0
VERTEX
8
0
10
197.940000
20
419.420000
0
VERTEX
8
0
10
188.206897
20
417.482759
0
VERTEX
8
0
10
181.820000
20
413.240000
0
VERTEX
8
0
10
176.000000
20
408.000000
0
VERTEX
8
0
10
175.000000
20
405.000000
0
VERTEX
8
0
10
178.000000
20
403.000000
0
VERTEX
8
0
10
210.000000
20
404.000000
0
VERTEX
8
0
10
214.900000
20
401.800000
0
VERTEX
8
0
10
217.900000
20
400.700000
0
VERTEX
8
0
10
240.846154
20
386.769231
0
VERTEX
8
0
10
275.000000
20
363.000000
0
SEQEND
0
POLYLINE
8
0
6
CONTINUOUS
66
1
62
7
10
0.0
20
0.0
30
0.000000
0
VERTEX
8
0
10
358.000000
20
355.000000
0
VERTEX
8
0
10
364.000000
20
357.000000
0
VERTEX
8
0
10
369.000000
20
362.000000
0
VERTEX
8
0
10
371.000000
20
369.000000
0
VERTEX
8
0
10
369.200000
20
373.100000
0
VERTEX
8
0
10
368.000000
20
376.000000
0
VERTEX
8
0
10
365.000000
20
379.000000
0
VERTEX
8
0
10
362.900000
20
379.700000
0
VERTEX
8
0
10
361.100000
20
380.300000
0
VERTEX
8
0
10
360.000000
20
381.000000
0
VERTEX
8
0
10
355.000000
20
381.000000
0
VERTEX
8
0
10
350.000000
20
379.000000
0
VERTEX
8
0
10
345.000000
20
368.000000
0
VERTEX
8
0
10
348.000000
20
361.000000
0
VERTEX
8
0
10
357.100000
20
355.200000
0
VERTEX
8
0
10
358.000000
20
355.000000
0
SEQEND
0
POLYLINE
8
0
6
CONTINUOUS
66
1
62
7
10
0.0
20
0.0
30
0.000000
0
VERTEX
8
0
10
250.000000
20
344.000000
0
VERTEX
8
0
10
257.000000
20
350.000000
0
VERTEX
8
0
10
258.800000
20
355.100000
0
VERTEX
8
0
10
259.200000
20
355.900000
0
VERTEX
8
0
10
260.000000
20
357.000000
0
VERTEX
8
0
10
260.000000
20
360.000000
0
VERTEX
8
0
10
258.600000
20
362.800000
0
VERTEX
8
0
10
257.000000
20
366.000000
0
VERTEX
8
0
10
249.100000
20
371.200000
0
VERTEX
8
0
10
248.000000
20
372.000000
0
VERTEX
8
0
10
242.911765
20
371.352941
0
VERTEX
8
0
10
237.000000
20
369.000000
0
VERTEX
8
0
10
234.000000
20
366.000000
0
VERTEX
8
0
10
233.352941
20
363.911765
0
VERTEX
8
0
10
232.647059
20
361.088235
0
VERTEX
8
0
10
232.000000
20
355.000000
0
VERTEX
8
0
10
234.230769
20
350.153846
0
VERTEX
8
0
10
236.000000
20
347.000000
0
VERTEX
8
0
10
240.900000
20
344.700000
0
VERTEX
8
0
10
250.000000
20
344.000000
0
SEQEND
0
POLYLINE
8
0
6
CONTINUOUS
66
1
62
7
10
0.0
20
0.0
30
0.000000
0
VERTEX
8
0
10
331.000000
20
344.000000
0
VERTEX
8
0
10
337.940000
20
345.420000
0
VERTEX
8
0
10
346.846154
20
349.230769
0
VERTEX
8
0
10
350.000000
20
351.000000
0
VERTEX
8
0
10
351.000000
20
352.000000
0
VERTEX
8
0
10
347.000000
20
358.000000
0
VERTEX
8
0
10
342.973846
20
359.529231
0
VERTEX
8
0
10
326.026154
20
360.470769
0
VERTEX
8
0
10
322.088235
20
361.352941
0
VERTEX
8
0
10
320.923077
20
361.615385
0
VERTEX
8
0
10
308.000000
20
364.000000
0
VERTEX
8
0
10
304.900000
20
362.200000
0
VERTEX
8
0
10
301.000000
20
360.000000
0
VERTEX
8
0
10
295.000000
20
353.000000
0
VERTEX
8
0
10
295.000000
20
352.000000
0
VERTEX
8
0
10
302.900000
20
348.800000
0
VERTEX
8
0
10
304.100000
20
348.300000
0
VERTEX
8
0
10
324.053846
20
344.430769
0
VERTEX
8
0
10
331.000000
20
344.000000
0
SEQEND
0
POLYLINE
8
0
6
CONTINUOUS
66
1
62
7
10
0.0
20
0.0
30
0.000000
0
VERTEX
8
0
10
259.000000
20
330.000000
0
VERTEX
8
0
10
316.846154
20
375.230769
0
VERTEX
8
0
10
325.100000
20
379.700000
0
VERTEX
8
0
10
328.100000
20
380.700000
0
VERTEX
8
0
10
358.900000
20
385.200000
0
VERTEX
8
0
10
361.000000
20
386.000000
0
VERTEX
8
0
10
362.000000
20
388.000000
0
VERTEX
8
0
10
359.000000
20
392.000000
0
VERTEX
8
0
10
352.900000
20
394.800000
0
VERTEX
8
0
10
350.100000
20
396.200000
0
VERTEX
8
0
10
344.000000
20
398.000000
0
VERTEX
8
0
10
339.000000
20
398.000000
0
VERTEX
8
0
10
322.100000
20
392.700000
0
VERTEX
8
0
10
248.000000
20
338.000000
0
VERTEX
8
0
10
247.000000
20
337.000000
0
VERTEX
8
0
10
259.000000
20
330.000000
0
SEQEND
0
POLYLINE
8
0
6
CONTINUOUS
66
1
62
7
10
0.0
20
0.0
30
0.000000
0
VERTEX
8
0
10
294.000000
20
317.000000
0
VERTEX
8
0
10
295.100000
20
317.700000
0
VERTEX
8
0
10
301.000000
20
320.000000
0
VERTEX
8
0
10
303.200000
20
322.900000
0
VERTEX
8
0
10
306.000000
20
329.000000
0
VERTEX
8
0
10
306.000000
20
333.000000
0
VERTEX
8
0
10
305.300000
20
334.100000
0
VERTEX
8
0
10
303.000000
20
340.000000
0
VERTEX
8
0
10
300.100000
20
342.200000
0
VERTEX
8
0
10
294.000000
20
345.000000
0
VERTEX
8
0
10
290.000000
20
345.000000
0
VERTEX
8
0
10
287.100000
20
343.700000
0
VERTEX
8
0
10
285.900000
20
343.200000
0
VERTEX
8
0
10
283.000000
20
342.000000
0
VERTEX
8
0
10
280.000000
20
339.000000
0
VERTEX
8
0
10
279.352941
20
336.911765
0
VERTEX
8
0
10
278.647059
20
334.088235
0
VERTEX
8
0
10
278.000000
20
328.000000
0
VERTEX
8
0
10
280.000000
20
323.000000
0
VERTEX
8
0
10
283.846154
20
319.769231
0
VERTEX
8
0
10
290.076923
20
317.384615
0
VERTEX
8
0
10
294.000000
20
317.000000
0
SEQEND
0
POLYLINE
8
0
6
CONTINUOUS
66
1
62
7
10
0.0
20
0.0
30
0.000000
0
VERTEX
8
0
10
155.000000
20
313.000000
0
VERTEX
8
0
10
162.000000
20
315.000000
0
VERTEX
8
0
10
164.240000
20
317.820000
0
VERTEX
8
0
10
167.647059
20
323.088235
0
VERTEX
8
0
10
169.000000
20
329.000000
0
VERTEX
8
0
10
167.000000
20
334.000000
0
VERTEX
8
0
10
161.100000
20
339.200000
0
VERTEX
8
0
10
156.000000
20
341.000000
0
VERTEX
8
0
10
153.000000
20
341.000000
0
VERTEX
8
0
10
150.100000
20
339.700000
0
VERTEX
8
0
10
146.000000
20
338.000000
0
VERTEX
8
0
10
144.800000
20
336.100000
0
VERTEX
8
0
10
142.800000
20
332.100000
0
VERTEX
8
0
10
142.000000
20
331.000000
0
VERTEX
8
0
10
142.000000
20
323.000000
0
VERTEX
8
0
10
146.000000
20
317.000000
0
VERTEX
8
0
10
148.900000
20
314.800000
0
VERTEX
8
0
10
155.000000
20
313.000000
0
SEQEND
0
POLYLINE
8
0
6
CONTINUOUS
66
1
62
7
10
0.0
20
0.0
30
0.000000
0
VERTEX
8
0
10
197.000000
20
306.000000
0
VERTEX
8
0
10
223.100000
20
311.700000
0
VERTEX
8
0
10
232.000000
20
314.000000
0
VERTEX
8
0
10
234.000000
20
316.000000
0
VERTEX
8
0
10
234.000000
20
317.000000
0
VERTEX
8
0
10
231.000000
20
320.000000
0
VERTEX
8
0
10
223.900000
20
323.800000
0
VERTEX
8
0
10
222.000000
20
325.000000
0
VERTEX
8
0
10
216.946154
20
324.430769
0
VERTEX
8
0
10
199.000000
20
322.000000
0
VERTEX
8
0
10
187.000000
20
322.000000
0
VERTEX
8
0
10
186.000000
20
323.000000
0
VERTEX
8
0
10
173.000000
20
323.000000
0
VERTEX
8
0
10
170.769231
20
320.153846
0
VERTEX
8
0
10
169.230769
20
317.846154
0
VERTEX
8
0
10
166.000000
20
311.000000
0
VERTEX
8
0
10
167.900000
20
309.800000
0
VERTEX
8
0
10
180.044554
20
307.445545
0
VERTEX
8
0
10
197.000000
20
306.000000
0
SEQEND
0
POLYLINE
8
0
6
CONTINUOUS
66
1
62
7
10
0.0
20
0.0
30
0.000000
0
VERTEX
8
0
10
350.000000
20
299.000000
0
VERTEX
8
0
10
351.088235
20
299.647059
0
VERTEX
8
0
10
354.000000
20
300.000000
0
VERTEX
8
0
10
358.000000
20
304.000000
0
VERTEX
8
0
10
358.800000
20
306.100000
0
VERTEX
8
0
10
360.000000
20
308.000000
0
VERTEX
8
0
10
358.800000
20
311.900000
0
VERTEX
8
0
10
358.200000
20
313.100000
0
VERTEX
8
0
10
355.000000
20
317.000000
0
VERTEX
8
0
10
351.793103
20
318.482759
0
VERTEX
8
0
10
348.000000
20
320.000000
0
VERTEX
8
0
10
344.000000
20
320.000000
0
VERTEX
8
0
10
342.100000
20
318.800000
0
VERTEX
8
0
10
339.000000
20
317.000000
0
VERTEX
8
0
10
337.647059
20
312.088235
0
VERTEX
8
0
10
337.000000
20
307.000000
0
VERTEX
8
0
10
338.800000
20
302.900000
0
VERTEX
8
0
10
341.000000
20
300.000000
0
VERTEX
8
0
10
350.000000
20
299.000000
0
SEQEND
0
POLYLINE
8
0
6
CONTINUOUS
66
1
62
7
10
0.0
20
0.0
30
0.000000
0
VERTEX
8
0
10
276.000000
20
298.000000
0
VERTEX
8
0
10
287.000000
20
305.000000
0
VERTEX
8
0
10
287.200000
20
305.900000
0
VERTEX
8
0
10
287.000000
20
309.000000
0
VERTEX
8
0
10
273.846154
20
316.769231
0
VERTEX
8
0
10
210.900000
20
355.700000
0
VERTEX
8
0
10
200.900000
20
359.800000
0
VERTEX
8
0
10
188.000000
20
364.000000
0
VERTEX
8
0
10
173.000000
20
364.000000
0
VERTEX
8
0
10
164.153846
20
359.769231
0
VERTEX
8
0
10
161.846154
20
358.230769
0
VERTEX
8
0
10
158.000000
20
356.000000
0
VERTEX
8
0
10
150.000000
20
347.000000
0
VERTEX
8
0
10
151.000000
20
345.000000
0
VERTEX
8
0
10
154.000000
20
344.000000
0
VERTEX
8
0
10
162.088235
20
345.647059
0
VERTEX
8
0
10
176.000000
20
349.000000
0
VERTEX
8
0
10
181.088235
20
348.352941
0
VERTEX
8
0
10
187.911765
20
346.647059
0
VERTEX
8
0
10
198.900000
20
341.800000
0
VERTEX
8
0
10
202.100000
20
340.200000
0
VERTEX
8
0
10
230.846154
20
323.769231
0
VERTEX
8
0
10
238.153846
20
319.230769
0
VERTEX
8
0
10
270.100000
20
300.200000
0
VERTEX
8
0
10
276.000000
20
298.000000
0
SEQEND
0
POLYLINE
8
0
6
CONTINUOUS
66
1
62
7
10
0.0
20
0.0
30
0.000000
0
VERTEX
8
0
10
390.000000
20
295.000000
0
VERTEX
8
0
10
397.000000
20
297.000000
0
VERTEX
8
0
10
398.240000
20
298.820000
0
VERTEX
8
0
10
401.700000
20
304.100000
0
VERTEX
8
0
10
402.300000
20
305.900000
0
VERTEX
8
0
10
403.000000
20
307.000000
0
VERTEX
8
0
10
403.000000
20
314.000000
0
VERTEX
8
0
10
398.000000
20
321.000000
0
VERTEX
8
0
10
396.100000
20
322.200000
0
VERTEX
8
0
10
393.000000
20
324.000000
0
VERTEX
8
0
10
385.000000
20
324.000000
0
VERTEX
8
0
10
383.153846
20
322.769231
0
VERTEX
8
0
10
377.000000
20
318.000000
0
VERTEX
8
0
10
375.200000
20
313.900000
0
VERTEX
8
0
10
374.800000
20
313.100000
0
VERTEX
8
0
10
374.000000
20
312.000000
0
VERTEX
8
0
10
374.000000
20
308.000000
0
VERTEX
8
0
10
375.352941
20
304.088235
0
VERTEX
8
0
10
379.000000
20
298.000000
0
VERTEX
8
0
10
381.900000
20
296.700000
0
VERTEX
8
0
10
390.000000
20
295.000000
0
SEQEND
0
POLYLINE
8
0
6
CONTINUOUS
66
1
62
7
10
0.0
20
0.0
30
0.000000
0
VERTEX
8
0
10
240.000000
20
282.000000
0
VERTEX
8
0
10
248.000000
20
286.000000
0
VERTEX
8
0
10
252.000000
20
292.000000
0
VERTEX
8
0
10
252.000000
20
300.000000
0
VERTEX
8
0
10
247.000000
20
308.000000
0
VERTEX
8
0
10
246.153846
20
308.230769
0
VERTEX
8
0
10
241.000000
20
311.000000
0
VERTEX
8
0
10
236.000000
20
311.000000
0
VERTEX
8
0
10
233.100000
20
309.700000
0
VERTEX
8
0
10
231.900000
20
309.200000
0
VERTEX
8
0
10
229.000000
20
308.000000
0
VERTEX
8
0
10
226.000000
20
305.000000
0
VERTEX
8
0
10
224.400000
20
301.800000
0
VERTEX
8
0
10
223.700000
20
300.100000
0
VERTEX
8
0
10
223.000000
20
296.000000
0
VERTEX
8
0
10
224.800000
20
292.900000
0
VERTEX
8
0
10
227.000000
20
289.000000
0
VERTEX
8
0
10
231.000000
20
285.000000
0
VERTEX
8
0
10
235.308219
20
282.821918
0
VERTEX
8
0
10
240.000000
20
282.000000
0
SEQEND
0
POLYLINE
8
0
6
CONTINUOUS
66
1
62
7
10
0.0
20
0.0
30
0.000000
0
VERTEX
8
0
10
334.000000
20
278.000000
0
VERTEX
8
0
10
350.932432
20
281.405405
0
VERTEX
8
0
10
363.900000
20
285.200000
0
VERTEX
8
0
10
365.100000
20
285.800000
0
VERTEX
8
0
10
370.000000
20
289.000000
0
VERTEX
8
0
10
375.000000
20
294.000000
0
VERTEX
8
0
10
373.200000
20
300.100000
0
VERTEX
8
0
10
371.000000
20
303.000000
0
VERTEX
8
0
10
354.100000
20
294.700000
0
VERTEX
8
0
10
348.067568
20
293.594595
0
VERTEX
8
0
10
347.000000
20
293.000000
0
VERTEX
8
0
10
331.000000
20
293.000000
0
VERTEX
8
0
10
323.088235
20
295.352941
0
VERTEX
8
0
10
321.911765
20
295.647059
0
VERTEX
8
0
10
310.000000
20
299.000000
0
VERTEX
8
0
10
308.900000
20
298.200000
0
VERTEX
8
0
10
303.000000
20
295.000000
0
VERTEX
8
0
10
297.000000
20
289.000000
0
VERTEX
8
0
10
298.000000
20
287.000000
0
VERTEX
8
0
10
303.900000
20
284.800000
0
VERTEX
8
0
10
318.067568
20
280.405405
0
VERTEX
8
0
10
334.000000
20
278.000000
0
SEQEND
0
POLYLINE
8
0
6
CONTINUOUS
66
1
62
7
10
0.0
20
0.0
30
0.000000
0
VERTEX
8
0
10
263.000000
20
267.000000
0
VERTEX
8
0
10
265.153846
20
268.769231
0
VERTEX
8
0
10
319.846154
20
311.230769
0
VERTEX
8
0
10
322.846154
20
313.230769
0
VERTEX
8
0
10
338.100000
20
321.800000
0
VERTEX
8
0
10
338.900000
20
322.200000
0
VERTEX
8
0
10
350.000000
20
326.000000
0
VERTEX
8
0
10
362.000000
20
326.000000
0
VERTEX
8
0
10
363.100000
20
325.300000
0
VERTEX
8
0
10
374.000000
20
322.000000
0
VERTEX
8
0
10
378.846154
20
324.230769
0
VERTEX
8
0
10
384.000000
20
328.000000
0
VERTEX
8
0
10
384.000000
20
332.000000
0
VERTEX
8
0
10
378.100000
20
337.200000
0
VERTEX
8
0
10
376.900000
20
337.800000
0
VERTEX
8
0
10
362.000000
20
341.000000
0
VERTEX
8
0
10
353.000000
20
341.000000
0
VERTEX
8
0
10
346.060000
20
339.580000
0
VERTEX
8
0
10
328.100000
20
331.800000
0
VERTEX
8
0
10
324.900000
20
330.200000
0
VERTEX
8
0
10
275.820000
20
293.240000
0
VERTEX
8
0
10
257.180000
20
278.760000
0
VERTEX
8
0
10
251.000000
20
274.000000
0
VERTEX
8
0
10
253.000000
20
272.000000
0
VERTEX
8
0
10
262.100000
20
267.200000
0
VERTEX
8
0
10
263.000000
20
267.000000
0
SEQEND
0
POLYLINE
8
0
6
CONTINUOUS
66
1
62
7
10
0.0
20
0.0
30
0.000000
0
VERTEX
8
0
10
297.000000
20
254.000000
0
VERTEX
8
0
10
307.000000
20
259.000000
0
VERTEX
8
0
10
308.647059
20
262.088235
0
VERTEX
8
0
10
310.000000
20
266.000000
0
VERTEX
8
0
10
308.200000
20
272.100000
0
VERTEX
8
0
10
305.000000
20
276.000000
0
VERTEX
8
0
10
299.000000
20
279.000000
0
VERTEX
8
0
10
296.000000
20
279.000000
0
VERTEX
8
0
10
290.000000
20
275.000000
0
VERTEX
8
0
10
289.769231
20
274.153846
0
VERTEX
8
0
10
286.000000
20
268.000000
0
VERTEX
8
0
10
287.000000
20
262.000000
0
VERTEX
8
0
10
293.846154
20
255.769231
0
VERTEX
8
0
10
297.000000
20
254.000000
0
SEQEND
0
POLYLINE
8
0
6
CONTINUOUS
66
1
62
7
10
0.0
20
0.0
30
0.000000
0
VERTEX
8
0
10
167.000000
20
253.000000
0
VERTEX
8
0
10
168.846154
20
254.230769
0
VERTEX
8
0
10
174.000000
20
258.000000
0
VERTEX
8
0
10
175.200000
20
260.900000
0
VERTEX
8
0
10
177.000000
20
266.000000
0
VERTEX
8
0
10
177.000000
20
269.000000
0
VERTEX
8
0
10
175.800000
20
270.900000
0
VERTEX
8
0
10
173.000000
20
275.000000
0
VERTEX
8
0
10
170.100000
20
276.200000
0
VERTEX
8
0
10
167.000000
20
278.000000
0
VERTEX
8
0
10
159.000000
20
278.000000
0
VERTEX
8
0
10
154.000000
20
273.000000
0
VERTEX
8
0
10
152.200000
20
268.900000
0
VERTEX
8
0
10
151.000000
20
267.000000
0
VERTEX
8
0
10
153.200000
20
260.100000
0
VERTEX
8
0
10
153.800000
20
258.900000
0
VERTEX
8
0
10
157.000000
20
255.000000
0
VERTEX
8
0
10
159.100000
20
254.200000
0
VERTEX
8
0
10
167.000000
20
253.000000
0
SEQEND
0
POLYLINE
8
0
6
CONTINUOUS
66
1
62
7
10
0.0
20
0.0
30
0.000000
0
VERTEX
8
0
10
128.000000
20
247.000000
0
VERTEX
8
0
10
130.900000
20
248.300000
0
VERTEX
8
0
10
136.000000
20
251.000000
0
VERTEX
8
0
10
138.200000
20
254.900000
0
VERTEX
8
0
10
140.000000
20
258.000000
0
VERTEX
8
0
10
138.000000
20
267.000000
0
VERTEX
8
0
10
131.100000
20
273.200000
0
VERTEX
8
0
10
126.000000
20
275.000000
0
VERTEX
8
0
10
122.000000
20
275.000000
0
VERTEX
8
0
10
118.000000
20
273.000000
0
VERTEX
8
0
10
114.800000
20
269.100000
0
VERTEX
8
0
10
112.000000
20
263.000000
0
VERTEX
8
0
10
112.700000
20
258.900000
0
VERTEX
8
0
10
115.000000
20
253.000000
0
VERTEX
8
0
10
117.000000
20
251.000000
0
VERTEX
8
0
10
125.088235
20
247.352941
0
VERTEX
8
0
10
128.000000
20
247.000000
0
SEQEND
0
POLYLINE
8
0
6
CONTINUOUS
66
1
62
7
10
0.0
20
0.0
30
0.000000
0
VERTEX
8
0
10
371.000000
20
237.000000
0
VERTEX
8
0
10
372.900000
20
238.200000
0
VERTEX
8
0
10
380.000000
20
243.000000
0
VERTEX
8
0
10
382.200000
20
246.900000
0
VERTEX
8
0
10
383.500000
20
250.000000
0
VERTEX
8
0
10
379.000000
20
259.000000
0
VERTEX
8
0
10
378.180000
20
259.240000
0
VERTEX
8
0
10
373.000000
20
263.000000
0
VERTEX
8
0
10
366.088235
20
261.647059
0
VERTEX
8
0
10
360.000000
20
258.000000
0
VERTEX
8
0
10
358.647059
20
253.088235
0
VERTEX
8
0
10
358.000000
20
248.000000
0
VERTEX
8
0
10
360.000000
20
243.000000
0
VERTEX
8
0
10
363.846154
20
239.769231
0
VERTEX
8
0
10
369.100000
20
237.300000
0
VERTEX
8
0
10
371.000000
20
237.000000
0
SEQEND
0
POLYLINE
8
0
6
CONTINUOUS
66
1
62
7
10
0.0
20
0.0
30
0.000000
0
VERTEX
8
0
10
285.000000
20
234.000000
0
VERTEX
8
0
10
299.000000
20
245.000000
0
VERTEX
8
0
10
297.000000
20
247.000000
0
VERTEX
8
0
10
265.900000
20
261.800000
0
VERTEX
8
0
10
259.100000
20
265.200000
0
VERTEX
8
0
10
216.900000
20
284.700000
0
VERTEX
8
0
10
198.100000
20
291.300000
0
VERTEX
8
0
10
163.000000
20
301.000000
0
VERTEX
8
0
10
153.000000
20
301.000000
0
VERTEX
8
0
10
144.048780
20
299.560976
0
VERTEX
8
0
10
136.100000
20
295.800000
0
VERTEX
8
0
10
134.000000
20
295.000000
0
VERTEX
8
0
10
131.756098
20
292.195122
0
VERTEX
8
0
10
123.000000
20
280.000000
0
VERTEX
8
0
10
125.000000
20
278.000000
0
VERTEX
8
0
10
136.100000
20
281.800000
0
VERTEX
8
0
10
147.000000
20
286.000000
0
VERTEX
8
0
10
157.053846
20
285.430769
0
VERTEX
8
0
10
172.911765
20
282.647059
0
VERTEX
8
0
10
192.900000
20
275.800000
0
VERTEX
8
0
10
198.900000
20
273.700000
0
VERTEX
8
0
10
233.900000
20
258.800000
0
VERTEX
8
0
10
235.100000
20
258.200000
0
VERTEX
8
0
10
283.900000
20
234.800000
0
VERTEX
8
0
10
285.000000
20
234.000000
0
SEQEND
0
POLYLINE
8
0
6
CONTINUOUS
66
1
62
7
10
0.0
20
0.0
30
0.000000
0
VERTEX
8
0
10
414.000000
20
234.000000
0
VERTEX
8
0
10
419.000000
20
236.000000
0
VERTEX
8
0
10
421.230769
20
238.846154
0
VERTEX
8
0
10
424.000000
20
244.000000
0
VERTEX
8
0
10
423.200000
20
247.100000
0
VERTEX
8
0
10
422.200000
20
249.100000
0
VERTEX
8
0
10
421.000000
20
252.000000
0
VERTEX
8
0
10
414.846154
20
256.769231
0
VERTEX
8
0
10
412.000000
20
258.000000
0
VERTEX
8
0
10
410.180000
20
256.760000
0
VERTEX
8
0
10
403.000000
20
251.000000
0
VERTEX
8
0
10
402.769231
20
250.153846
0
VERTEX
8
0
10
401.000000
20
248.000000
0
VERTEX
8
0
10
401.000000
20
243.000000
0
VERTEX
8
0
10
403.200000
20
239.100000
0
VERTEX
8
0
10
404.000000
20
237.000000
0
VERTEX
8
0
10
408.088235
20
235.352941
0
VERTEX
8
0
10
414.000000
20
234.000000
0
SEQEND
0
POLYLINE
8
0
6
CONTINUOUS
66
1
62
7
10
0.0
20
0.0
30
0.000000
0
VERTEX
8
0
10
180.000000
20
231.000000
0
VERTEX
8
0
10
208.911765
20
237.352941
0
VERTEX
8
0
10
235.000000
20
249.000000
0
VERTEX
8
0
10
239.000000
20
253.000000
0
VERTEX
8
0
10
238.000000
20
254.000000
0
VERTEX
8
0
10
228.000000
20
258.000000
0
VERTEX
8
0
10
225.000000
20
258.000000
0
VERTEX
8
0
10
203.100000
20
249.800000
0
VERTEX
8
0
10
182.000000
20
246.000000
0
VERTEX
8
0
10
176.000000
20
246.000000
0
VERTEX
8
0
10
156.067568
20
249.405405
0
VERTEX
8
0
10
144.000000
20
254.000000
0
VERTEX
8
0
10
135.000000
20
246.000000
0
VERTEX
8
0
10
133.600000
20
242.800000
0
VERTEX
8
0
10
134.000000
20
241.000000
0
VERTEX
8
0
10
136.000000
20
239.000000
0
VERTEX
8
0
10
149.911765
20
233.647059
0
VERTEX
8
0
10
180.000000
20
231.000000
0
SEQEND
0
POLYLINE
8
0
6
CONTINUOUS
66
1
62
7
10
0.0
20
0.0
30
0.000000
0
VERTEX
8
0
10
363.000000
20
218.000000
0
VERTEX
8
0
10
381.923077
20
221.384615
0
VERTEX
8
0
10
388.820000
20
224.240000
0
VERTEX
8
0
10
401.000000
20
234.000000
0
VERTEX
8
0
10
400.300000
20
236.100000
0
VERTEX
8
0
10
397.000000
20
243.000000
0
VERTEX
8
0
10
392.900000
20
241.200000
0
VERTEX
8
0
10
386.900000
20
238.200000
0
VERTEX
8
0
10
374.932432
20
234.405405
0
VERTEX
8
0
10
370.067568
20
233.594595
0
VERTEX
8
0
10
363.000000
20
233.000000
0
VERTEX
8
0
10
361.955446
20
233.554455
0
VERTEX
8
0
10
322.000000
20
237.000000
0
VERTEX
8
0
10
315.846154
20
233.230769
0
VERTEX
8
0
10
309.000000
20
227.000000
0
VERTEX
8
0
10
311.000000
20
225.000000
0
VERTEX
8
0
10
339.019169
20
218.479233
0
VERTEX
8
0
10
363.000000
20
218.000000
0
SEQEND
0
POLYLINE
8
0
6
CONTINUOUS
66
1
62
7
10
0.0
20
0.0
30
0.000000
0
VERTEX
8
0
10
243.000000
20
211.000000
0
VERTEX
8
0
10
244.100000
20
211.700000
0
VERTEX
8
0
10
251.000000
20
214.000000
0
VERTEX
8
0
10
256.200000
20
219.900000
0
VERTEX
8
0
10
258.000000
20
224.000000
0
VERTEX
8
0
10
258.000000
20
231.000000
0
VERTEX
8
0
10
252.000000
20
240.000000
0
VERTEX
8
0
10
251.153846
20
240.230769
0
VERTEX
8
0
10
242.000000
20
245.000000
0
VERTEX
8
0
10
238.000000
20
245.000000
0
VERTEX
8
0
10
235.200000
20
243.600000
0
VERTEX
8
0
10
232.846154
20
242.230769
0
VERTEX
8
0
10
226.000000
20
236.000000
0
VERTEX
8
0
10
225.700000
20
234.100000
0
VERTEX
8
0
10
225.000000
20
233.000000
0
VERTEX
8
0
10
225.000000
20
226.000000
0
VERTEX
8
0
10
227.200000
20
219.100000
0
VERTEX
8
0
10
227.800000
20
217.900000
0
VERTEX
8
0
10
232.000000
20
213.000000
0
VERTEX
8
0
10
234.100000
20
212.200000
0
VERTEX
8
0
10
243.000000
20
211.000000
0
SEQEND
0
POLYLINE
8
0
6
CONTINUOUS
66
1
62
7
10
0.0
20
0.0
30
0.000000
0
VERTEX
8
0
10
246.000000
20
202.000000
0
VERTEX
8
0
10
245.000000
20
202.000000
0
SEQEND
0
POLYLINE
8
0
6
CONTINUOUS
66
1
62
7
10
0.0
20
0.0
30
0.000000
0
VERTEX
8
0
10
246.000000
20
202.000000
0
VERTEX
8
0
10
259.000000
20
197.000000
0
VERTEX
8
0
10
299.820000
20
226.240000
0
VERTEX
8
0
10
317.846154
20
239.230769
0
VERTEX
8
0
10
336.100000
20
250.800000
0
VERTEX
8
0
10
350.900000
20
258.200000
0
VERTEX
8
0
10
366.088235
20
265.647059
0
VERTEX
8
0
10
368.911765
20
266.352941
0
VERTEX
8
0
10
374.000000
20
268.000000
0
VERTEX
8
0
10
389.000000
20
268.000000
0
VERTEX
8
0
10
390.076923
20
267.384615
0
VERTEX
8
0
10
395.846154
20
265.769231
0
VERTEX
8
0
10
398.795082
20
263.754098
0
VERTEX
8
0
10
404.000000
20
259.000000
0
VERTEX
8
0
10
408.000000
20
259.000000
0
VERTEX
8
0
10
413.000000
20
264.000000
0
VERTEX
8
0
10
413.000000
20
267.000000
0
VERTEX
8
0
10
411.400000
20
270.700000
0
VERTEX
8
0
10
409.240000
20
274.180000
0
VERTEX
8
0
10
406.000000
20
278.000000
0
VERTEX
8
0
10
391.000000
20
284.000000
0
VERTEX
8
0
10
377.000000
20
284.000000
0
VERTEX
8
0
10
372.076923
20
282.615385
0
VERTEX
8
0
10
360.100000
20
278.800000
0
VERTEX
8
0
10
340.900000
20
268.200000
0
VERTEX
8
0
10
317.846154
20
253.230769
0
VERTEX
8
0
10
250.195122
20
205.756098
0
VERTEX
8
0
10
246.000000
20
202.000000
0
SEQEND
0
POLYLINE
8
0
6
CONTINUOUS
66
1
62
7
10
0.0
20
0.0
30
0.000000
0
VERTEX
8
0
10
305.000000
20
191.000000
0
VERTEX
8
0
10
306.100000
20
191.800000
0
VERTEX
8
0
10
313.000000
20
195.000000
0
VERTEX
8
0
10
316.000000
20
198.000000
0
VERTEX
8
0
10
319.000000
20
205.000000
0
VERTEX
8
0
10
318.000000
20
211.000000
0
VERTEX
8
0
10
311.100000
20
217.200000
0
VERTEX
8
0
10
307.000000
20
219.000000
0
VERTEX
8
0
10
301.911765
20
218.352941
0
VERTEX
8
0
10
297.000000
20
217.000000
0
VERTEX
8
0
10
294.000000
20
214.000000
0
VERTEX
8
0
10
292.517241
20
210.793103
0
VERTEX
8
0
10
291.647059
20
208.088235
0
VERTEX
8
0
10
291.000000
20
203.000000
0
VERTEX
8
0
10
295.000000
20
197.000000
0
VERTEX
8
0
10
304.100000
20
191.200000
0
VERTEX
8
0
10
305.000000
20
191.000000
0
SEQEND
0
POLYLINE
8
0
6
CONTINUOUS
66
1
62
7
10
0.0
20
0.0
30
0.000000
0
VERTEX
8
0
10
150.000000
20
173.000000
0
VERTEX
8
0
10
152.900000
20
174.300000
0
VERTEX
8
0
10
161.000000
20
179.000000
0
VERTEX
8
0
10
162.000000
20
180.000000
0
VERTEX
8
0
10
166.000000
20
190.000000
0
VERTEX
8
0
10
164.300000
20
195.100000
0
VERTEX
8
0
10
161.000000
20
201.000000
0
VERTEX
8
0
10
157.000000
20
205.000000
0
VERTEX
8
0
10
154.900000
20
205.800000
0
VERTEX
8
0
10
154.100000
20
206.200000
0
VERTEX
8
0
10
153.000000
20
207.000000
0
VERTEX
8
0
10
146.000000
20
207.000000
0
VERTEX
8
0
10
144.100000
20
205.800000
0
VERTEX
8
0
10
142.900000
20
205.200000
0
VERTEX
8
0
10
136.000000
20
201.000000
0
VERTEX
8
0
10
134.800000
20
198.100000
0
VERTEX
8
0
10
133.000000
20
195.000000
0
VERTEX
8
0
10
133.000000
20
186.000000
0
VERTEX
8
0
10
137.000000
20
180.000000
0
VERTEX
8
0
10
143.900000
20
174.800000
0
VERTEX
8
0
10
150.000000
20
173.000000
0
SEQEND
0
POLYLINE
8
0
6
CONTINUOUS
66
1
62
7
10
0.0
20
0.0
30
0.000000
0
VERTEX
8
0
10
274.000000
20
171.000000
0
VERTEX
8
0
10
277.900000
20
173.200000
0
VERTEX
8
0
10
290.000000
20
180.000000
0
VERTEX
8
0
10
287.000000
20
183.000000
0
VERTEX
8
0
10
283.900000
20
183.800000
0
VERTEX
8
0
10
283.100000
20
184.200000
0
VERTEX
8
0
10
184.911765
20
220.647059
0
VERTEX
8
0
10
172.067568
20
223.405405
0
VERTEX
8
0
10
146.000000
20
228.000000
0
VERTEX
8
0
10
123.000000
20
228.000000
0
VERTEX
8
0
10
114.100000
20
225.800000
0
VERTEX
8
0
10
112.900000
20
225.200000
0
VERTEX
8
0
10
98.000000
20
216.000000
0
VERTEX
8
0
10
92.240000
20
208.820000
0
VERTEX
8
0
10
90.352941
20
204.911765
0
VERTEX
8
0
10
89.000000
20
201.000000
0
VERTEX
8
0
10
89.000000
20
198.000000
0
VERTEX
8
0
10
91.000000
20
196.000000
0
VERTEX
8
0
10
93.000000
20
196.000000
0
VERTEX
8
0
10
106.846154
20
207.230769
0
VERTEX
8
0
10
109.153846
20
208.769231
0
VERTEX
8
0
10
118.088235
20
211.647059
0
VERTEX
8
0
10
122.000000
20
213.000000
0
VERTEX
8
0
10
133.035294
20
212.458824
0
VERTEX
8
0
10
144.964706
20
211.541176
0
VERTEX
8
0
10
167.923077
20
207.615385
0
VERTEX
8
0
10
177.088235
20
205.352941
0
VERTEX
8
0
10
211.900000
20
192.800000
0
VERTEX
8
0
10
269.067568
20
171.405405
0
VERTEX
8
0
10
274.000000
20
171.000000
0
SEQEND
0
POLYLINE
8
0
6
CONTINUOUS
66
1
62
7
10
0.0
20
0.0
30
0.000000
0
VERTEX
8
0
10
110.000000
20
167.000000
0
VERTEX
8
0
10
109.000000
20
168.000000
0
SEQEND
0
POLYLINE
8
0
6
CONTINUOUS
66
1
62
7
10
0.0
20
0.0
30
0.000000
0
VERTEX
8
0
10
109.000000
20
168.000000
0
VERTEX
8
0
10
109.230769
20
168.846154
0
VERTEX
8
0
10
112.000000
20
175.000000
0
VERTEX
8
0
10
112.000000
20
178.000000
0
VERTEX
8
0
10
110.700000
20
180.900000
0
VERTEX
8
0
10
109.000000
20
186.000000
0
VERTEX
8
0
10
105.180000
20
189.240000
0
VERTEX
8
0
10
98.000000
20
193.000000
0
VERTEX
8
0
10
93.000000
20
193.000000
0
VERTEX
8
0
10
91.100000
20
191.800000
0
VERTEX
8
0
10
87.000000
20
190.000000
0
VERTEX
8
0
10
82.000000
20
181.000000
0
VERTEX
8
0
10
82.000000
20
176.000000
0
VERTEX
8
0
10
83.352941
20
172.088235
0
VERTEX
8
0
10
87.000000
20
166.000000
0
VERTEX
8
0
10
88.900000
20
164.800000
0
VERTEX
8
0
10
95.000000
20
162.000000
0
VERTEX
8
0
10
98.000000
20
162.000000
0
VERTEX
8
0
10
106.846154
20
166.230769
0
VERTEX
8
0
10
109.000000
20
168.000000
0
SEQEND
0
POLYLINE
8
0
6
CONTINUOUS
66
1
62
7
10
0.0
20
0.0
30
0.000000
0
VERTEX
8
0
10
394.000000
20
162.000000
0
VERTEX
8
0
10
403.000000
20
166.000000
0
VERTEX
8
0
10
405.230769
20
168.846154
0
VERTEX
8
0
10
409.000000
20
177.000000
0
VERTEX
8
0
10
409.000000
20
182.000000
0
VERTEX
8
0
10
407.647059
20
185.911765
0
VERTEX
8
0
10
405.000000
20
191.000000
0
VERTEX
8
0
10
398.100000
20
195.200000
0
VERTEX
8
0
10
393.000000
20
197.000000
0
VERTEX
8
0
10
388.911765
20
196.352941
0
VERTEX
8
0
10
380.000000
20
193.000000
0
VERTEX
8
0
10
377.000000
20
190.000000
0
VERTEX
8
0
10
376.200000
20
187.900000
0
VERTEX
8
0
10
375.800000
20
187.100000
0
VERTEX
8
0
10
374.000000
20
183.000000
0
VERTEX
8
0
10
374.000000
20
178.000000
0
VERTEX
8
0
10
376.200000
20
170.100000
0
VERTEX
8
0
10
377.000000
20
168.000000
0
VERTEX
8
0
10
385.088235
20
163.352941
0
VERTEX
8
0
10
394.000000
20
162.000000
0
SEQEND
0
POLYLINE
8
0
6
CONTINUOUS
66
1
62
7
10
0.0
20
0.0
30
0.000000
0
VERTEX
8
0
10
110.000000
20
167.000000
0
VERTEX
8
0
10
108.000000
20
161.000000
0
VERTEX
8
0
10
126.900000
20
154.700000
0
VERTEX
8
0
10
128.000000
20
154.000000
0
VERTEX
8
0
10
158.000000
20
154.000000
0
VERTEX
8
0
10
166.951220
20
155.439024
0
VERTEX
8
0
10
192.911765
20
162.352941
0
VERTEX
8
0
10
194.100000
20
162.700000
0
VERTEX
8
0
10
216.100000
20
171.800000
0
VERTEX
8
0
10
216.900000
20
172.200000
0
VERTEX
8
0
10
232.000000
20
180.000000
0
VERTEX
8
0
10
231.000000
20
181.000000
0
VERTEX
8
0
10
221.000000
20
186.000000
0
VERTEX
8
0
10
216.000000
20
186.000000
0
VERTEX
8
0
10
208.100000
20
182.700000
0
VERTEX
8
0
10
197.100000
20
178.700000
0
VERTEX
8
0
10
179.923077
20
173.384615
0
VERTEX
8
0
10
176.076923
20
172.615385
0
VERTEX
8
0
10
151.000000
20
169.000000
0
VERTEX
8
0
10
140.000000
20
169.000000
0
VERTEX
8
0
10
128.067568
20
171.405405
0
VERTEX
8
0
10
121.911765
20
172.647059
0
VERTEX
8
0
10
116.000000
20
174.000000
0
VERTEX
8
0
10
110.000000
20
167.000000
0
SEQEND
0
POLYLINE
8
0
6
CONTINUOUS
66
1
62
7
10
0.0
20
0.0
30
0.000000
0
VERTEX
8
0
10
443.000000
20
147.000000
0
VERTEX
8
0
10
444.088235
20
147.647059
0
VERTEX
8
0
10
447.000000
20
148.000000
0
VERTEX
8
0
10
452.000000
20
153.000000
0
VERTEX
8
0
10
454.700000
20
158.100000
0
VERTEX
8
0
10
456.000000
20
163.000000
0
VERTEX
8
0
10
453.800000
20
166.900000
0
VERTEX
8
0
10
452.000000
20
171.000000
0
VERTEX
8
0
10
448.100000
20
174.200000
0
VERTEX
8
0
10
444.900000
20
175.700000
0
VERTEX
8
0
10
440.000000
20
177.000000
0
VERTEX
8
0
10
434.000000
20
175.000000
0
VERTEX
8
0
10
428.800000
20
169.100000
0
VERTEX
8
0
10
427.000000
20
164.000000
0
VERTEX
8
0
10
427.000000
20
161.000000
0
VERTEX
8
0
10
429.200000
20
155.100000
0
VERTEX
8
0
10
432.000000
20
150.000000
0
VERTEX
8
0
10
434.900000
20
148.700000
0
VERTEX
8
0
10
443.000000
20
147.000000
0
SEQEND
0
POLYLINE
8
0
6
CONTINUOUS
66
1
62
7
10
0.0
20
0.0
30
0.000000
0
VERTEX
8
0
10
247.000000
20
145.000000
0
VERTEX
8
0
10
261.911765
20
148.352941
0
VERTEX
8
0
10
271.900000
20
152.200000
0
VERTEX
8
0
10
278.100000
20
154.800000
0
VERTEX
8
0
10
305.153846
20
169.769231
0
VERTEX
8
0
10
326.153846
20
181.769231
0
VERTEX
8
0
10
350.100000
20
192.700000
0
VERTEX
8
0
10
358.900000
20
196.300000
0
VERTEX
8
0
10
386.044554
20
202.554455
0
VERTEX
8
0
10
403.000000
20
204.000000
0
VERTEX
8
0
10
408.932432
20
202.594595
0
VERTEX
8
0
10
412.911765
20
201.647059
0
VERTEX
8
0
10
420.900000
20
197.800000
0
VERTEX
8
0
10
427.000000
20
194.000000
0
VERTEX
8
0
10
431.240000
20
189.180000
0
VERTEX
8
0
10
437.000000
20
182.000000
0
VERTEX
8
0
10
446.000000
20
179.000000
0
VERTEX
8
0
10
448.000000
20
183.000000
0
VERTEX
8
0
10
447.384615
20
188.076923
0
VERTEX
8
0
10
445.200000
20
196.100000
0
VERTEX
8
0
10
438.000000
20
206.000000
0
VERTEX
8
0
10
428.900000
20
211.800000
0
VERTEX
8
0
10
417.088235
20
216.352941
0
VERTEX
8
0
10
402.000000
20
219.000000
0
VERTEX
8
0
10
393.000000
20
219.000000
0
VERTEX
8
0
10
374.067568
20
215.594595
0
VERTEX
8
0
10
372.923077
20
215.384615
0
VERTEX
8
0
10
346.900000
20
206.300000
0
VERTEX
8
0
10
345.100000
20
205.700000
0
VERTEX
8
0
10
292.100000
20
177.800000
0
VERTEX
8
0
10
273.900000
20
168.300000
0
VERTEX
8
0
10
272.100000
20
167.700000
0
VERTEX
8
0
10
261.932432
20
163.405405
0
VERTEX
8
0
10
233.000000
20
160.000000
0
VERTEX
8
0
10
231.000000
20
158.000000
0
VERTEX
8
0
10
229.000000
20
153.000000
0
VERTEX
8
0
10
229.000000
20
149.000000
0
VERTEX
8
0
10
231.000000
20
147.000000
0
VERTEX
8
0
10
239.048780
20
145.439024
0
VERTEX
8
0
10
247.000000
20
145.000000
0
SEQEND
0
POLYLINE
8
0
6
CONTINUOUS
66
1
62
7
10
0.0
20
0.0
30
0.000000
0
VERTEX
8
0
10
403.000000
20
139.000000
0
VERTEX
8
0
10
410.946154
20
140.430769
0
VERTEX
8
0
10
419.900000
20
143.200000
0
VERTEX
8
0
10
421.846154
20
144.230769
0
VERTEX
8
0
10
428.000000
20
148.000000
0
VERTEX
8
0
10
426.800000
20
150.900000
0
VERTEX
8
0
10
423.000000
20
157.000000
0
VERTEX
8
0
10
391.000000
20
156.000000
0
VERTEX
8
0
10
377.032995
20
157.461929
0
VERTEX
8
0
10
368.048780
20
158.439024
0
VERTEX
8
0
10
329.088235
20
169.352941
0
VERTEX
8
0
10
327.911765
20
169.647059
0
VERTEX
8
0
10
316.000000
20
172.000000
0
VERTEX
8
0
10
312.900000
20
170.300000
0
VERTEX
8
0
10
307.000000
20
168.000000
0
VERTEX
8
0
10
301.000000
20
162.000000
0
VERTEX
8
0
10
302.000000
20
160.000000
0
VERTEX
8
0
10
353.088235
20
144.352941
0
VERTEX
8
0
10
355.911765
20
143.647059
0
VERTEX
8
0
10
380.019931
20
139.478336
0
VERTEX
8
0
10
403.000000
20
139.000000
0
SEQEND
0
POLYLINE
8
0
6
CONTINUOUS
66
1
62
7
10
0.0
20
0.0
30
0.000000
0
VERTEX
8
0
10
210.000000
20
137.000000
0
VERTEX
8
0
10
217.000000
20
141.000000
0
VERTEX
8
0
10
220.000000
20
150.000000
0
VERTEX
8
0
10
216.000000
20
157.000000
0
VERTEX
8
0
10
215.180000
20
157.240000
0
VERTEX
8
0
10
210.000000
20
161.000000
0
VERTEX
8
0
10
206.000000
20
161.000000
0
VERTEX
8
0
10
202.000000
20
159.000000
0
VERTEX
8
0
10
198.800000
20
155.100000
0
VERTEX
8
0
10
196.800000
20
151.100000
0
VERTEX
8
0
10
196.000000
20
150.000000
0
VERTEX
8
0
10
198.000000
20
142.000000
0
VERTEX
8
0
10
201.900000
20
138.800000
0
VERTEX
8
0
10
205.067568
20
137.405405
0
VERTEX
8
0
10
210.000000
20
137.000000
0
SEQEND
0
POLYLINE
8
0
6
CONTINUOUS
66
1
62
7
10
0.0
20
0.0
30
0.000000
0
VERTEX
8
0
10
325.000000
20
123.000000
0
VERTEX
8
0
10
331.000000
20
125.000000
0
VERTEX
8
0
10
332.230769
20
126.846154
0
VERTEX
8
0
10
334.615385
20
131.076923
0
VERTEX
8
0
10
336.000000
20
140.000000
0
VERTEX
8
0
10
334.800000
20
141.900000
0
VERTEX
8
0
10
332.000000
20
147.000000
0
VERTEX
8
0
10
327.088235
20
148.352941
0
VERTEX
8
0
10
322.000000
20
149.000000
0
VERTEX
8
0
10
317.000000
20
147.000000
0
VERTEX
8
0
10
313.800000
20
143.100000
0
VERTEX
8
0
10
311.800000
20
139.100000
0
VERTEX
8
0
10
311.000000
20
138.000000
0
VERTEX
8
0
10
311.000000
20
135.000000
0
VERTEX
8
0
10
314.000000
20
128.000000
0
VERTEX
8
0
10
317.900000
20
124.800000
0
VERTEX
8
0
10
325.000000
20
123.000000
0
SEQEND
0
POLYLINE
8
0
6
CONTINUOUS
66
1
62
7
10
0.0
20
0.0
30
0.000000
0
VERTEX
8
0
10
274.000000
20
84.000000
0
VERTEX
8
0
10
291.000000
20
88.000000
0
VERTEX
8
0
10
293.200000
20
90.900000
0
VERTEX
8
0
10
296.594595
20
105.067568
0
VERTEX
8
0
10
299.517241
20
121.793103
0
VERTEX
8
0
10
303.000000
20
131.000000
0
VERTEX
8
0
10
303.000000
20
133.000000
0
VERTEX
8
0
10
300.000000
20
138.000000
0
VERTEX
8
0
10
299.100000
20
138.200000
0
VERTEX
8
0
10
292.932432
20
140.594595
0
VERTEX
8
0
10
288.067568
20
141.405405
0
VERTEX
8
0
10
287.000000
20
142.000000
0
VERTEX
8
0
10
244.000000
20
142.000000
0
VERTEX
8
0
10
240.088235
20
140.647059
0
VERTEX
8
0
10
238.900000
20
140.300000
0
VERTEX
8
0
10
232.000000
20
137.000000
0
VERTEX
8
0
10
231.000000
20
128.000000
0
VERTEX
8
0
10
239.300000
20
94.100000
0
VERTEX
8
0
10
239.647059
20
92.911765
0
VERTEX
8
0
10
240.000000
20
90.000000
0
VERTEX
8
0
10
242.000000
20
88.000000
0
VERTEX
8
0
10
252.040984
20
85.450820
0
VERTEX
8
0
10
274.000000
20
84.000000
0
SEQEND
0
POLYLINE
8
0
6
CONTINUOUS
66
1
62
7
10
0.0
20
0.0
30
0.000000
0
VERTEX
8
0
10
278.000000
20
49.000000
0
VERTEX
8
0
10
294.940000
20
51.420000
0
VERTEX
8
0
10
305.900000
20
56.200000
0
VERTEX
8
0
10
309.100000
20
57.800000
0
VERTEX
8
0
10
317.000000
20
63.000000
0
VERTEX
8
0
10
321.760000
20
70.180000
0
VERTEX
8
0
10
327.647059
20
81.088235
0
VERTEX
8
0
10
329.000000
20
87.000000
0
VERTEX
8
0
10
352.000000
20
97.000000
0
VERTEX
8
0
10
360.000000
20
105.000000
0
VERTEX
8
0
10
360.000000
20
106.000000
0
VERTEX
8
0
10
361.000000
20
107.000000
0
VERTEX
8
0
10
366.911765
20
105.647059
0
VERTEX
8
0
10
376.000000
20
104.000000
0
VERTEX
8
0
10
403.000000
20
104.000000
0
VERTEX
8
0
10
421.911765
20
107.352941
0
VERTEX
8
0
10
435.037931
20
111.544828
0
VERTEX
8
0
10
454.100000
20
113.700000
0
VERTEX
8
0
10
462.846154
20
117.230769
0
VERTEX
8
0
10
472.195122
20
123.756098
0
VERTEX
8
0
10
479.000000
20
130.000000
0
VERTEX
8
0
10
482.200000
20
134.900000
0
VERTEX
8
0
10
489.580000
20
150.060000
0
VERTEX
8
0
10
490.420000
20
155.940000
0
VERTEX
8
0
10
491.000000
20
166.000000
0
VERTEX
8
0
10
489.580000
20
172.940000
0
VERTEX
8
0
10
485.800000
20
181.900000
0
VERTEX
8
0
10
483.430769
20
187.053846
0
VERTEX
8
0
10
482.569231
20
193.946154
0
VERTEX
8
0
10
479.800000
20
203.900000
0
VERTEX
8
0
10
479.300000
20
205.100000
0
VERTEX
8
0
10
472.769231
20
218.846154
0
VERTEX
8
0
10
468.240000
20
225.180000
0
VERTEX
8
0
10
463.000000
20
231.000000
0
VERTEX
8
0
10
462.000000
20
231.000000
0
VERTEX
8
0
10
458.000000
20
235.000000
0
VERTEX
8
0
10
460.000000
20
243.000000
0
VERTEX
8
0
10
460.000000
20
248.000000
0
VERTEX
8
0
10
457.647059
20
257.911765
0
VERTEX
8
0
10
457.200000
20
259.100000
0
VERTEX
8
0
10
449.760000
20
271.820000
0
VERTEX
8
0
10
447.240000
20
275.180000
0
VERTEX
8
0
10
445.200000
20
281.100000
0
VERTEX
8
0
10
440.230769
20
291.153846
0
VERTEX
8
0
10
437.000000
20
296.000000
0
VERTEX
8
0
10
437.000000
20
299.000000
0
VERTEX
8
0
10
438.000000
20
300.000000
0
VERTEX
8
0
10
438.000000
20
319.000000
0
VERTEX
8
0
10
436.647059
20
322.911765
0
VERTEX
8
0
10
436.300000
20
324.100000
0
VERTEX
8
0
10
430.200000
20
336.100000
0
VERTEX
8
0
10
429.000000
20
339.000000
0
VERTEX
8
0
10
419.000000
20
349.000000
0
VERTEX
8
0
10
414.820000
20
351.760000
0
VERTEX
8
0
10
412.000000
20
353.000000
0
VERTEX
8
0
10
405.000000
20
360.000000
0
VERTEX
8
0
10
406.000000
20
370.000000
0
VERTEX
8
0
10
402.647059
20
385.911765
0
VERTEX
8
0
10
399.800000
20
391.900000
0
VERTEX
8
0
10
385.870307
20
416.102389
0
VERTEX
8
0
10
384.533074
20
430.970817
0
VERTEX
8
0
10
382.647059
20
437.911765
0
VERTEX
8
0
10
382.300000
20
439.100000
0
VERTEX
8
0
10
378.760000
20
446.820000
0
VERTEX
8
0
10
376.240000
20
450.180000
0
VERTEX
8
0
10
374.200000
20
456.100000
0
VERTEX
8
0
10
373.760000
20
456.820000
0
VERTEX
8
0
10
368.411765
20
465.352941
0
VERTEX
8
0
10
366.541176
20
476.964706
0
VERTEX
8
0
10
363.647059
20
490.911765
0
VERTEX
8
0
10
360.754098
20
496.795082
0
VERTEX
8
0
10
356.245902
20
502.204918
0
VERTEX
8
0
10
354.200000
20
506.100000
0
VERTEX
8
0
10
353.800000
20
506.900000
0
VERTEX
8
0
10
350.769231
20
513.153846
0
VERTEX
8
0
10
347.200000
20
532.100000
0
VERTEX
8
0
10
341.756098
20
541.804878
0
VERTEX
8
0
10
338.000000
20
547.000000
0
VERTEX
8
0
10
330.000000
20
554.000000
0
VERTEX
8
0
10
329.000000
20
574.000000
0
VERTEX
8
0
10
330.230769
20
577.846154
0
VERTEX
8
0
10
331.769231
20
580.153846
0
VERTEX
8
0
10
337.000000
20
593.000000
0
VERTEX
8
0
10
337.000000
20
602.000000
0
VERTEX
8
0
10
334.000000
20
610.000000
0
VERTEX
8
0
10
334.000000
20
613.000000
0
VERTEX
8
0
10
335.000000
20
614.000000
0
VERTEX
8
0
10
335.000000
20
623.000000
0
VERTEX
8
0
10
333.615385
20
627.923077
0
VERTEX
8
0
10
333.300000
20
629.100000
0
VERTEX
8
0
10
330.760000
20
634.820000
0
VERTEX
8
0
10
314.240000
20
661.180000
0
VERTEX
8
0
10
314.000000
20
662.000000
0
VERTEX
8
0
10
299.000000
20
671.000000
0
VERTEX
8
0
10
300.000000
20
676.000000
0
VERTEX
8
0
10
299.352941
20
680.088235
0
VERTEX
8
0
10
298.647059
20
682.911765
0
VERTEX
8
0
10
295.200000
20
692.100000
0
VERTEX
8
0
10
292.000000
20
698.000000
0
VERTEX
8
0
10
287.000000
20
703.000000
0
VERTEX
8
0
10
280.900000
20
705.800000
0
VERTEX
8
0
10
280.100000
20
706.200000
0
VERTEX
8
0
10
275.000000
20
708.000000
0
VERTEX
8
0
10
262.000000
20
708.000000
0
VERTEX
8
0
10
252.100000
20
703.800000
0
VERTEX
8
0
10
250.000000
20
703.000000
0
VERTEX
8
0
10
247.752941
20
700.211765
0
VERTEX
8
0
10
242.247059
20
693.788235
0
VERTEX
8
0
10
237.000000
20
679.000000
0
VERTEX
8
0
10
238.000000
20
670.000000
0
VERTEX
8
0
10
224.000000
20
661.000000
0
VERTEX
8
0
10
220.000000
20
657.000000
0
VERTEX
8
0
10
218.230769
20
653.846154
0
VERTEX
8
0
10
214.751724
20
646.220690
0
VERTEX
8
0
10
207.248276
20
637.779310
0
VERTEX
8
0
10
205.200000
20
632.900000
0
VERTEX
8
0
10
204.800000
20
632.100000
0
VERTEX
8
0
10
201.000000
20
622.000000
0
VERTEX
8
0
10
202.000000
20
608.000000
0
VERTEX
8
0
10
200.615385
20
603.076923
0
VERTEX
8
0
10
200.000000
20
602.000000
0
VERTEX
8
0
10
200.000000
20
592.000000
0
VERTEX
8
0
10
203.300000
20
583.100000
0
VERTEX
8
0
10
204.200000
20
581.100000
0
VERTEX
8
0
10
206.000000
20
578.000000
0
VERTEX
8
0
10
204.153846
20
576.769231
0
VERTEX
8
0
10
195.000000
20
570.000000
0
VERTEX
8
0
10
189.800000
20
561.100000
0
VERTEX
8
0
10
185.464602
20
547.969027
0
VERTEX
8
0
10
184.138462
20
534.107692
0
VERTEX
8
0
10
182.751724
20
531.220690
0
VERTEX
8
0
10
175.248276
20
522.779310
0
VERTEX
8
0
10
168.000000
20
507.000000
0
VERTEX
8
0
10
168.000000
20
493.000000
0
VERTEX
8
0
10
169.384615
20
488.076923
0
VERTEX
8
0
10
170.000000
20
487.000000
0
VERTEX
8
0
10
170.000000
20
485.000000
0
VERTEX
8
0
10
161.000000
20
477.000000
0
VERTEX
8
0
10
157.243902
20
471.804878
0
VERTEX
8
0
10
156.200000
20
469.900000
0
VERTEX
8
0
10
151.352941
20
457.911765
0
VERTEX
8
0
10
150.647059
20
455.088235
0
VERTEX
8
0
10
149.000000
20
443.000000
0
VERTEX
8
0
10
149.615385
20
441.923077
0
VERTEX
8
0
10
152.000000
20
434.000000
0
VERTEX
8
0
10
139.245902
20
417.795082
0
VERTEX
8
0
10
132.200000
20
405.900000
0
VERTEX
8
0
10
129.000000
20
391.000000
0
VERTEX
8
0
10
129.000000
20
385.000000
0
VERTEX
8
0
10
130.000000
20
384.000000
0
VERTEX
8
0
10
130.000000
20
378.000000
0
VERTEX
8
0
10
122.760000
20
369.180000
0
VERTEX
8
0
10
120.240000
20
365.820000
0
VERTEX
8
0
10
115.200000
20
355.900000
0
VERTEX
8
0
10
111.230769
20
348.846154
0
VERTEX
8
0
10
108.384615
20
340.923077
0
VERTEX
8
0
10
107.420000
20
335.940000
0
VERTEX
8
0
10
106.000000
20
324.000000
0
VERTEX
8
0
10
107.000000
20
323.000000
0
VERTEX
8
0
10
107.000000
20
318.000000
0
VERTEX
8
0
10
97.800000
20
306.100000
0
VERTEX
8
0
10
90.240000
20
294.820000
0
VERTEX
8
0
10
82.200000
20
282.900000
0
VERTEX
8
0
10
81.200000
20
280.900000
0
VERTEX
8
0
10
78.420000
20
270.940000
0
VERTEX
8
0
10
77.580000
20
265.060000
0
VERTEX
8
0
10
77.000000
20
257.000000
0
VERTEX
8
0
10
78.615385
20
251.923077
0
VERTEX
8
0
10
80.000000
20
246.000000
0
VERTEX
8
0
10
65.000000
20
232.000000
0
VERTEX
8
0
10
60.200000
20
223.900000
0
VERTEX
8
0
10
50.200000
20
196.900000
0
VERTEX
8
0
10
46.000000
20
182.000000
0
VERTEX
8
0
10
46.000000
20
175.000000
0
VERTEX
8
0
10
48.384615
20
163.076923
0
VERTEX
8
0
10
53.240000
20
152.180000
0
VERTEX
8
0
10
60.000000
20
143.000000
0
VERTEX
8
0
10
65.820000
20
137.760000
0
VERTEX
8
0
10
69.900000
20
134.800000
0
VERTEX
8
0
10
84.088235
20
128.352941
0
VERTEX
8
0
10
98.962069
20
126.544828
0
VERTEX
8
0
10
111.900000
20
121.700000
0
VERTEX
8
0
10
115.911765
20
120.647059
0
VERTEX
8
0
10
123.000000
20
119.000000
0
VERTEX
8
0
10
164.000000
20
119.000000
0
VERTEX
8
0
10
165.088235
20
119.647059
0
VERTEX
8
0
10
171.000000
20
121.000000
0
VERTEX
8
0
10
172.240000
20
119.180000
0
VERTEX
8
0
10
178.000000
20
112.000000
0
VERTEX
8
0
10
182.846154
20
108.769231
0
VERTEX
8
0
10
192.900000
20
103.800000
0
VERTEX
8
0
10
199.100000
20
102.200000
0
VERTEX
8
0
10
202.000000
20
100.000000
0
VERTEX
8
0
10
203.430769
20
89.053846
0
VERTEX
8
0
10
206.200000
20
79.100000
0
VERTEX
8
0
10
209.800000
20
71.900000
0
VERTEX
8
0
10
211.000000
20
69.000000
0
VERTEX
8
0
10
219.000000
20
61.000000
0
VERTEX
8
0
10
225.100000
20
57.200000
0
VERTEX
8
0
10
240.076923
20
51.384615
0
VERTEX
8
0
10
243.923077
20
50.615385
0
VERTEX
8
0
10
255.019931
20
49.478336
0
VERTEX
8
0
10
278.000000
20
49.000000
0
SEQEND
0
ENDSEC
0
EOF
