0
SECTION
2
HEADER
9
$ACADVER
1
AC1003
9
$INSBASE
10
0.0
20
0.0
30
0.0
9
$EXTMIN
10
0.000
20
0.000
30
0.0
9
$EXTMAX
10
684.000
20
716.000
30
0.0
9
$LIMMIN
10
0.000
20
0.000
9
$LIMMAX
10
684.000
20
716.000
9
$LTSCALE
40
1.0
9
$LUNITS
70
2
9
$LUPREC
70
3
9
$LIMCHECK
70
0
9
$UCSNAME
2

9
$UCSORG
10
0.0
20
0.0
30
0.0
9
$UCSXDIR
10
1.0
20
0.0
30
0.0
9
$UCSYDIR
10
0.0
20
1.0
30
0.0
9
$WORLDVIEW
70
1
9
$UNITMODE
70
0
0
ENDSEC
0
SECTION
2
TABLES
0
TABLE
2
VPORT
70
1
0
VPORT
2
*ACTIVE
70
0
10
0.0
20
0.0
11
1.0
21
1.0
12
342.000
22
358.000
13
0.0
23
0.0
14
1.0
24
1.0
15
0.0
25
0.0
16
0.0
26
0.0
36
1.0
17
0.0
27
0.0
37
0.0
40
500.0
41
1.047
42
50.0
43
0.0
44
0.0
50
0.0
51
0.0
71
0
72
100
73
1
74
1
75
0
76
0
77
0
78
0
0
ENDTAB
0
TABLE
2
LTYPE
70
1
0
LTYPE
2
CONTINUOUS
70
64
3
Solid line
72
65
73
0
40
0.000
0
ENDTAB
0
TABLE
2
LAYER
70
1
0
LAYER
2
0
70
64
62
7
6
CONTINUOUS
0
ENDTAB
0
ENDSEC
0
SECTION
2
BLOCKS
0
ENDSEC
0
SECTION
2
ENTITIES
0
POLYLINE
8
0
6
CONTINUOUS
66
1
62
7
10
0.0
20
0.0
30
0.000000
0
VERTEX
8
0
10
325.000000
20
647.000000
0
VERTEX
8
0
10
326.100000
20
647.700000
0
VERTEX
8
0
10
330.000000
20
649.000000
0
VERTEX
8
0
10
332.230769
20
651.846154
0
VERTEX
8
0
10
335.000000
20
656.000000
0
VERTEX
8
0
10
335.000000
20
663.000000
0
VERTEX
8
0
10
329.000000
20
670.000000
0
VERTEX
8
0
10
326.000000
20
671.000000
0
VERTEX
8
0
10
321.000000
20
671.000000
0
VERTEX
8
0
10
318.000000
20
670.000000
0
VERTEX
8
0
10
313.769231
20
665.153846
0
VERTEX
8
0
10
312.000000
20
663.000000
0
VERTEX
8
0
10
312.000000
20
655.000000
0
VERTEX
8
0
10
315.000000
20
651.000000
0
VERTEX
8
0
10
315.846154
20
650.769231
0
VERTEX
8
0
10
322.088235
20
647.352941
0
VERTEX
8
0
10
325.000000
20
647.000000
0
SEQEND
0
POLYLINE
8
0
6
CONTINUOUS
66
1
62
7
10
0.0
20
0.0
30
0.000000
0
VERTEX
8
0
10
251.000000
20
618.000000
0
VERTEX
8
0
10
249.000000
20
618.000000
0
SEQEND
0
POLYLINE
8
0
6
CONTINUOUS
66
1
62
7
10
0.0
20
0.0
30
0.000000
0
VERTEX
8
0
10
432.000000
20
604.000000
0
VERTEX
8
0
10
432.000000
20
605.000000
0
VERTEX
8
0
10
402.100000
20
616.300000
0
VERTEX
8
0
10
363.962069
20
625.544828
0
VERTEX
8
0
10
333.000000
20
628.000000
0
VERTEX
8
0
10
313.975138
20
627.472376
0
VERTEX
8
0
10
284.037931
20
625.544828
0
VERTEX
8
0
10
270.076923
20
622.615385
0
VERTEX
8
0
10
251.000000
20
618.000000
0
SEQEND
0
POLYLINE
8
0
6
CONTINUOUS
66
1
62
7
10
0.0
20
0.0
30
0.000000
0
VERTEX
8
0
10
436.000000
20
604.000000
0
VERTEX
8
0
10
432.000000
20
604.000000
0
SEQEND
0
POLYLINE
8
0
6
CONTINUOUS
66
1
62
7
10
0.0
20
0.0
30
0.000000
0
VERTEX
8
0
10
251.000000
20
618.000000
0
VERTEX
8
0
10
280.900000
20
608.700000
0
VERTEX
8
0
10
298.900000
20
600.800000
0
VERTEX
8
0
10
305.795082
20
596.754098
0
VERTEX
8
0
10
323.000000
20
582.000000
0
VERTEX
8
0
10
323.245902
20
581.204918
0
VERTEX
8
0
10
332.000000
20
571.000000
0
VERTEX
8
0
10
346.067568
20
570.405405
0
VERTEX
8
0
10
356.900000
20
567.800000
0
VERTEX
8
0
10
363.000000
20
564.000000
0
VERTEX
8
0
10
380.180000
20
577.760000
0
VERTEX
8
0
10
388.180000
20
583.760000
0
VERTEX
8
0
10
412.100000
20
596.800000
0
VERTEX
8
0
10
432.000000
20
604.000000
0
SEQEND
0
POLYLINE
8
0
6
CONTINUOUS
66
1
62
7
10
0.0
20
0.0
30
0.000000
0
VERTEX
8
0
10
511.000000
20
553.000000
0
VERTEX
8
0
10
510.000000
20
554.000000
0
SEQEND
0
POLYLINE
8
0
6
CONTINUOUS
66
1
62
7
10
0.0
20
0.0
30
0.000000
0
VERTEX
8
0
10
307.000000
20
541.000000
0
VERTEX
8
0
10
308.088235
20
541.647059
0
VERTEX
8
0
10
311.000000
20
542.000000
0
VERTEX
8
0
10
313.000000
20
544.000000
0
VERTEX
8
0
10
305.000000
20
557.000000
0
VERTEX
8
0
10
294.000000
20
568.000000
0
VERTEX
8
0
10
289.820000
20
570.760000
0
VERTEX
8
0
10
266.900000
20
580.800000
0
VERTEX
8
0
10
264.900000
20
581.800000
0
VERTEX
8
0
10
244.932432
20
587.594595
0
VERTEX
8
0
10
240.067568
20
588.405405
0
VERTEX
8
0
10
233.000000
20
589.000000
0
VERTEX
8
0
10
229.000000
20
588.000000
0
VERTEX
8
0
10
226.000000
20
585.000000
0
VERTEX
8
0
10
226.800000
20
582.900000
0
VERTEX
8
0
10
229.000000
20
578.000000
0
VERTEX
8
0
10
240.000000
20
567.000000
0
VERTEX
8
0
10
251.195122
20
558.243902
0
VERTEX
8
0
10
272.100000
20
548.300000
0
VERTEX
8
0
10
275.900000
20
546.800000
0
VERTEX
8
0
10
293.053846
20
542.430769
0
VERTEX
8
0
10
307.000000
20
541.000000
0
SEQEND
0
POLYLINE
8
0
6
CONTINUOUS
66
1
62
7
10
0.0
20
0.0
30
0.000000
0
VERTEX
8
0
10
390.000000
20
526.000000
0
VERTEX
8
0
10
401.060000
20
527.580000
0
VERTEX
8
0
10
424.088235
20
532.647059
0
VERTEX
8
0
10
428.100000
20
533.800000
0
VERTEX
8
0
10
442.779310
20
540.248276
0
VERTEX
8
0
10
452.000000
20
548.000000
0
VERTEX
8
0
10
467.000000
20
564.000000
0
VERTEX
8
0
10
467.000000
20
567.000000
0
VERTEX
8
0
10
464.000000
20
570.000000
0
VERTEX
8
0
10
461.900000
20
570.800000
0
VERTEX
8
0
10
461.100000
20
571.200000
0
VERTEX
8
0
10
451.000000
20
574.000000
0
VERTEX
8
0
10
442.000000
20
574.000000
0
VERTEX
8
0
10
434.053846
20
572.569231
0
VERTEX
8
0
10
432.900000
20
572.300000
0
VERTEX
8
0
10
415.900000
20
565.200000
0
VERTEX
8
0
10
415.100000
20
564.800000
0
VERTEX
8
0
10
400.180000
20
555.760000
0
VERTEX
8
0
10
396.820000
20
553.240000
0
VERTEX
8
0
10
384.000000
20
542.000000
0
VERTEX
8
0
10
383.752212
20
541.216814
0
VERTEX
8
0
10
376.000000
20
532.000000
0
VERTEX
8
0
10
376.000000
20
530.000000
0
VERTEX
8
0
10
378.000000
20
528.000000
0
VERTEX
8
0
10
384.060000
20
526.420000
0
VERTEX
8
0
10
390.000000
20
526.000000
0
SEQEND
0
POLYLINE
8
0
6
CONTINUOUS
66
1
62
7
10
0.0
20
0.0
30
0.000000
0
VERTEX
8
0
10
334.000000
20
501.000000
0
VERTEX
8
0
10
342.900000
20
504.200000
0
VERTEX
8
0
10
344.000000
20
505.000000
0
VERTEX
8
0
10
352.000000
20
505.000000
0
VERTEX
8
0
10
353.000000
20
504.000000
0
VERTEX
8
0
10
357.100000
20
505.800000
0
VERTEX
8
0
10
358.000000
20
506.000000
0
VERTEX
8
0
10
361.200000
20
511.900000
0
VERTEX
8
0
10
362.000000
20
513.000000
0
VERTEX
8
0
10
361.405405
20
518.067568
0
VERTEX
8
0
10
360.594595
20
522.932432
0
VERTEX
8
0
10
356.800000
20
529.900000
0
VERTEX
8
0
10
356.200000
20
531.100000
0
VERTEX
8
0
10
352.000000
20
536.000000
0
VERTEX
8
0
10
346.900000
20
538.700000
0
VERTEX
8
0
10
345.100000
20
539.300000
0
VERTEX
8
0
10
340.000000
20
541.000000
0
VERTEX
8
0
10
334.000000
20
541.000000
0
VERTEX
8
0
10
327.000000
20
538.000000
0
VERTEX
8
0
10
322.000000
20
533.000000
0
VERTEX
8
0
10
320.000000
20
528.000000
0
VERTEX
8
0
10
320.000000
20
518.000000
0
VERTEX
8
0
10
322.300000
20
510.100000
0
VERTEX
8
0
10
326.000000
20
503.000000
0
VERTEX
8
0
10
334.000000
20
501.000000
0
SEQEND
0
POLYLINE
8
0
6
CONTINUOUS
66
1
62
7
10
0.0
20
0.0
30
0.000000
0
VERTEX
8
0
10
232.000000
20
476.000000
0
VERTEX
8
0
10
249.911765
20
479.352941
0
VERTEX
8
0
10
259.900000
20
484.200000
0
VERTEX
8
0
10
265.100000
20
486.800000
0
VERTEX
8
0
10
283.776243
20
500.248619
0
VERTEX
8
0
10
304.000000
20
519.000000
0
VERTEX
8
0
10
307.800000
20
525.100000
0
VERTEX
8
0
10
309.000000
20
528.000000
0
VERTEX
8
0
10
307.100000
20
529.200000
0
VERTEX
8
0
10
305.900000
20
529.800000
0
VERTEX
8
0
10
278.932432
20
533.594595
0
VERTEX
8
0
10
274.067568
20
534.405405
0
VERTEX
8
0
10
257.100000
20
539.200000
0
VERTEX
8
0
10
248.900000
20
543.800000
0
VERTEX
8
0
10
219.000000
20
569.000000
0
VERTEX
8
0
10
218.000000
20
569.000000
0
VERTEX
8
0
10
215.000000
20
566.000000
0
VERTEX
8
0
10
213.300000
20
560.900000
0
VERTEX
8
0
10
212.700000
20
559.100000
0
VERTEX
8
0
10
210.458824
20
545.964706
0
VERTEX
8
0
10
209.541176
20
534.035294
0
VERTEX
8
0
10
209.000000
20
510.000000
0
VERTEX
8
0
10
210.461929
20
496.032995
0
VERTEX
8
0
10
211.700000
20
491.900000
0
VERTEX
8
0
10
216.000000
20
481.000000
0
VERTEX
8
0
10
217.000000
20
480.000000
0
VERTEX
8
0
10
224.911765
20
476.647059
0
VERTEX
8
0
10
232.000000
20
476.000000
0
SEQEND
0
POLYLINE
8
0
6
CONTINUOUS
66
1
62
7
10
0.0
20
0.0
30
0.000000
0
VERTEX
8
0
10
318.000000
20
472.000000
0
VERTEX
8
0
10
326.000000
20
476.000000
0
VERTEX
8
0
10
329.200000
20
479.900000
0
VERTEX
8
0
10
330.200000
20
481.900000
0
VERTEX
8
0
10
329.800000
20
484.900000
0
VERTEX
8
0
10
329.000000
20
487.000000
0
VERTEX
8
0
10
322.000000
20
491.000000
0
VERTEX
8
0
10
314.000000
20
490.000000
0
VERTEX
8
0
10
311.769231
20
487.153846
0
VERTEX
8
0
10
309.000000
20
483.000000
0
VERTEX
8
0
10
309.800000
20
479.900000
0
VERTEX
8
0
10
312.000000
20
476.000000
0
VERTEX
8
0
10
314.900000
20
473.800000
0
VERTEX
8
0
10
318.000000
20
472.000000
0
SEQEND
0
POLYLINE
8
0
6
CONTINUOUS
66
1
62
7
10
0.0
20
0.0
30
0.000000
0
VERTEX
8
0
10
458.000000
20
437.000000
0
VERTEX
8
0
10
464.100000
20
439.800000
0
VERTEX
8
0
10
468.000000
20
442.000000
0
VERTEX
8
0
10
475.000000
20
449.000000
0
VERTEX
8
0
10
476.800000
20
453.100000
0
VERTEX
8
0
10
480.352941
20
462.911765
0
VERTEX
8
0
10
481.352941
20
466.911765
0
VERTEX
8
0
10
485.544828
20
490.037931
0
VERTEX
8
0
10
486.455172
20
500.962069
0
VERTEX
8
0
10
487.000000
20
519.000000
0
VERTEX
8
0
10
485.549180
20
529.959016
0
VERTEX
8
0
10
483.594595
20
540.932432
0
VERTEX
8
0
10
480.000000
20
550.000000
0
VERTEX
8
0
10
477.000000
20
552.000000
0
VERTEX
8
0
10
475.000000
20
552.000000
0
VERTEX
8
0
10
473.195122
20
550.756098
0
VERTEX
8
0
10
461.788235
20
541.247059
0
VERTEX
8
0
10
446.100000
20
529.800000
0
VERTEX
8
0
10
442.100000
20
527.800000
0
VERTEX
8
0
10
431.911765
20
523.352941
0
VERTEX
8
0
10
423.100000
20
520.700000
0
VERTEX
8
0
10
406.044554
20
518.554455
0
VERTEX
8
0
10
386.940000
20
516.420000
0
VERTEX
8
0
10
378.000000
20
515.000000
0
VERTEX
8
0
10
376.000000
20
513.000000
0
VERTEX
8
0
10
376.000000
20
508.000000
0
VERTEX
8
0
10
386.230769
20
492.153846
0
VERTEX
8
0
10
387.769231
20
489.846154
0
VERTEX
8
0
10
402.000000
20
472.000000
0
VERTEX
8
0
10
408.000000
20
466.000000
0
VERTEX
8
0
10
425.195122
20
452.243902
0
VERTEX
8
0
10
425.900000
20
451.800000
0
VERTEX
8
0
10
444.100000
20
441.300000
0
VERTEX
8
0
10
445.900000
20
440.700000
0
VERTEX
8
0
10
456.100000
20
437.300000
0
VERTEX
8
0
10
458.000000
20
437.000000
0
SEQEND
0
POLYLINE
8
0
6
CONTINUOUS
66
1
62
7
10
0.0
20
0.0
30
0.000000
0
VERTEX
8
0
10
383.000000
20
421.000000
0
VERTEX
8
0
10
385.000000
20
422.000000
0
VERTEX
8
0
10
388.594595
20
441.067568
0
VERTEX
8
0
10
390.000000
20
447.000000
0
VERTEX
8
0
10
390.000000
20
450.000000
0
VERTEX
8
0
10
381.200000
20
464.100000
0
VERTEX
8
0
10
377.300000
20
476.100000
0
VERTEX
8
0
10
376.750000
20
478.750000
0
VERTEX
8
0
10
371.088235
20
480.352941
0
VERTEX
8
0
10
369.100000
20
481.200000
0
VERTEX
8
0
10
358.216814
20
488.247788
0
VERTEX
8
0
10
349.000000
20
496.000000
0
VERTEX
8
0
10
347.000000
20
494.000000
0
VERTEX
8
0
10
345.615385
20
487.076923
0
VERTEX
8
0
10
338.769231
20
474.153846
0
VERTEX
8
0
10
336.769231
20
471.153846
0
VERTEX
8
0
10
333.576923
20
465.384615
0
VERTEX
8
0
10
338.230769
20
459.153846
0
VERTEX
8
0
10
341.700000
20
452.900000
0
VERTEX
8
0
10
346.200000
20
441.100000
0
VERTEX
8
0
10
350.000000
20
434.000000
0
VERTEX
8
0
10
364.100000
20
430.300000
0
VERTEX
8
0
10
371.846154
20
426.769231
0
VERTEX
8
0
10
374.153846
20
425.230769
0
VERTEX
8
0
10
382.100000
20
421.200000
0
VERTEX
8
0
10
383.000000
20
421.000000
0
SEQEND
0
POLYLINE
8
0
6
CONTINUOUS
66
1
62
7
10
0.0
20
0.0
30
0.000000
0
VERTEX
8
0
10
411.000000
20
420.000000
0
VERTEX
8
0
10
416.000000
20
423.000000
0
VERTEX
8
0
10
416.000000
20
429.000000
0
VERTEX
8
0
10
414.000000
20
434.000000
0
VERTEX
8
0
10
410.000000
20
437.000000
0
VERTEX
8
0
10
406.000000
20
437.000000
0
VERTEX
8
0
10
400.000000
20
433.000000
0
VERTEX
8
0
10
399.000000
20
431.000000
0
VERTEX
8
0
10
399.700000
20
426.900000
0
VERTEX
8
0
10
400.000000
20
425.000000
0
VERTEX
8
0
10
404.900000
20
421.800000
0
VERTEX
8
0
10
411.000000
20
420.000000
0
SEQEND
0
POLYLINE
8
0
6
CONTINUOUS
66
1
62
7
10
0.0
20
0.0
30
0.000000
0
VERTEX
8
0
10
409.000000
20
367.000000
0
VERTEX
8
0
10
411.700000
20
372.100000
0
VERTEX
8
0
10
413.000000
20
376.000000
0
VERTEX
8
0
10
409.000000
20
383.000000
0
VERTEX
8
0
10
405.100000
20
385.200000
0
VERTEX
8
0
10
404.000000
20
386.000000
0
VERTEX
8
0
10
398.000000
20
385.000000
0
VERTEX
8
0
10
395.800000
20
382.100000
0
VERTEX
8
0
10
395.000000
20
381.000000
0
VERTEX
8
0
10
395.000000
20
375.000000
0
VERTEX
8
0
10
396.000000
20
373.000000
0
VERTEX
8
0
10
399.820000
20
369.760000
0
VERTEX
8
0
10
403.300000
20
367.900000
0
VERTEX
8
0
10
409.000000
20
367.000000
0
SEQEND
0
POLYLINE
8
0
6
CONTINUOUS
66
1
62
7
10
0.0
20
0.0
30
0.000000
0
VERTEX
8
0
10
455.000000
20
366.000000
0
VERTEX
8
0
10
458.000000
20
370.000000
0
VERTEX
8
0
10
458.900000
20
370.200000
0
VERTEX
8
0
10
478.000000
20
379.000000
0
VERTEX
8
0
10
480.000000
20
382.000000
0
VERTEX
8
0
10
480.000000
20
385.000000
0
VERTEX
8
0
10
478.000000
20
386.000000
0
VERTEX
8
0
10
473.769231
20
391.846154
0
VERTEX
8
0
10
465.000000
20
407.000000
0
VERTEX
8
0
10
462.100000
20
409.200000
0
VERTEX
8
0
10
461.000000
20
410.000000
0
VERTEX
8
0
10
459.000000
20
410.000000
0
VERTEX
8
0
10
458.000000
20
409.000000
0
VERTEX
8
0
10
454.000000
20
409.000000
0
VERTEX
8
0
10
447.100000
20
411.200000
0
VERTEX
8
0
10
443.153846
20
413.230769
0
VERTEX
8
0
10
431.000000
20
420.000000
0
VERTEX
8
0
10
419.923077
20
413.384615
0
VERTEX
8
0
10
404.000000
20
410.000000
0
VERTEX
8
0
10
403.000000
20
409.000000
0
VERTEX
8
0
10
409.769231
20
398.846154
0
VERTEX
8
0
10
410.230769
20
398.153846
0
VERTEX
8
0
10
423.000000
20
380.000000
0
VERTEX
8
0
10
435.911765
20
375.647059
0
VERTEX
8
0
10
443.900000
20
370.800000
0
VERTEX
8
0
10
452.088235
20
366.352941
0
VERTEX
8
0
10
455.000000
20
366.000000
0
SEQEND
0
POLYLINE
8
0
6
CONTINUOUS
66
1
62
7
10
0.0
20
0.0
30
0.000000
0
VERTEX
8
0
10
359.000000
20
332.000000
0
VERTEX
8
0
10
375.750408
20
349.235726
0
VERTEX
8
0
10
384.000000
20
359.000000
0
VERTEX
8
0
10
384.000000
20
364.000000
0
VERTEX
8
0
10
382.700000
20
366.900000
0
VERTEX
8
0
10
381.647059
20
370.911765
0
VERTEX
8
0
10
381.000000
20
372.000000
0
VERTEX
8
0
10
382.000000
20
395.000000
0
VERTEX
8
0
10
370.800000
20
410.900000
0
VERTEX
8
0
10
368.000000
20
417.000000
0
VERTEX
8
0
10
363.204918
20
413.754098
0
VERTEX
8
0
10
351.900000
20
405.200000
0
VERTEX
8
0
10
351.100000
20
404.800000
0
VERTEX
8
0
10
341.000000
20
399.000000
0
VERTEX
8
0
10
343.000000
20
382.000000
0
VERTEX
8
0
10
338.700000
20
372.100000
0
VERTEX
8
0
10
336.000000
20
365.000000
0
VERTEX
8
0
10
336.000000
20
364.000000
0
VERTEX
8
0
10
348.230769
20
350.153846
0
VERTEX
8
0
10
357.200000
20
335.100000
0
VERTEX
8
0
10
359.000000
20
332.000000
0
SEQEND
0
POLYLINE
8
0
6
CONTINUOUS
66
1
62
7
10
0.0
20
0.0
30
0.000000
0
VERTEX
8
0
10
283.000000
20
287.000000
0
VERTEX
8
0
10
290.000000
20
291.000000
0
VERTEX
8
0
10
290.200000
20
291.900000
0
VERTEX
8
0
10
293.569231
20
299.053846
0
VERTEX
8
0
10
295.466926
20
321.970817
0
VERTEX
8
0
10
297.405405
20
338.932432
0
VERTEX
8
0
10
298.384615
20
343.923077
0
VERTEX
8
0
10
301.300000
20
352.900000
0
VERTEX
8
0
10
303.300000
20
357.900000
0
VERTEX
8
0
10
312.230769
20
374.846154
0
VERTEX
8
0
10
315.200000
20
379.900000
0
VERTEX
8
0
10
326.647059
20
402.088235
0
VERTEX
8
0
10
328.352941
20
408.911765
0
VERTEX
8
0
10
331.000000
20
423.000000
0
VERTEX
8
0
10
331.000000
20
432.000000
0
VERTEX
8
0
10
329.580000
20
438.940000
0
VERTEX
8
0
10
326.800000
20
446.900000
0
VERTEX
8
0
10
320.000000
20
459.000000
0
VERTEX
8
0
10
315.180000
20
463.240000
0
VERTEX
8
0
10
311.820000
20
465.760000
0
VERTEX
8
0
10
302.900000
20
470.800000
0
VERTEX
8
0
10
302.100000
20
471.200000
0
VERTEX
8
0
10
293.946154
20
473.569231
0
VERTEX
8
0
10
287.053846
20
474.430769
0
VERTEX
8
0
10
275.000000
20
475.000000
0
VERTEX
8
0
10
264.100000
20
471.800000
0
VERTEX
8
0
10
262.100000
20
470.800000
0
VERTEX
8
0
10
251.180000
20
463.760000
0
VERTEX
8
0
10
247.820000
20
461.240000
0
VERTEX
8
0
10
204.000000
20
417.000000
0
VERTEX
8
0
10
199.900000
20
415.200000
0
VERTEX
8
0
10
194.900000
20
412.200000
0
VERTEX
8
0
10
158.180000
20
394.760000
0
VERTEX
8
0
10
154.000000
20
392.000000
0
VERTEX
8
0
10
152.000000
20
390.000000
0
VERTEX
8
0
10
151.000000
20
383.000000
0
VERTEX
8
0
10
152.352941
20
379.088235
0
VERTEX
8
0
10
154.800000
20
373.900000
0
VERTEX
8
0
10
165.769231
20
356.846154
0
VERTEX
8
0
10
173.760000
20
345.820000
0
VERTEX
8
0
10
199.000000
20
319.000000
0
VERTEX
8
0
10
212.153846
20
309.230769
0
VERTEX
8
0
10
240.900000
20
294.800000
0
VERTEX
8
0
10
270.032995
20
287.461929
0
VERTEX
8
0
10
283.000000
20
287.000000
0
SEQEND
0
POLYLINE
8
0
6
CONTINUOUS
66
1
62
7
10
0.0
20
0.0
30
0.000000
0
VERTEX
8
0
10
234.000000
20
263.000000
0
VERTEX
8
0
10
242.153846
20
266.769231
0
VERTEX
8
0
10
249.000000
20
273.000000
0
VERTEX
8
0
10
251.000000
20
278.000000
0
VERTEX
8
0
10
250.200000
20
280.100000
0
VERTEX
8
0
10
250.000000
20
281.000000
0
VERTEX
8
0
10
238.900000
20
285.700000
0
VERTEX
8
0
10
237.100000
20
286.300000
0
VERTEX
8
0
10
207.100000
20
299.200000
0
VERTEX
8
0
10
206.000000
20
300.000000
0
VERTEX
8
0
10
204.000000
20
299.000000
0
VERTEX
8
0
10
204.000000
20
291.000000
0
VERTEX
8
0
10
205.352941
20
287.088235
0
VERTEX
8
0
10
206.647059
20
281.911765
0
VERTEX
8
0
10
209.230769
20
275.153846
0
VERTEX
8
0
10
210.769231
20
272.846154
0
VERTEX
8
0
10
217.000000
20
266.000000
0
VERTEX
8
0
10
222.067568
20
264.405405
0
VERTEX
8
0
10
234.000000
20
263.000000
0
SEQEND
0
POLYLINE
8
0
6
CONTINUOUS
66
1
62
7
10
0.0
20
0.0
30
0.000000
0
VERTEX
8
0
10
271.000000
20
252.000000
0
VERTEX
8
0
10
272.000000
20
254.000000
0
SEQEND
0
POLYLINE
8
0
6
CONTINUOUS
66
1
62
7
10
0.0
20
0.0
30
0.000000
0
VERTEX
8
0
10
460.000000
20
197.000000
0
VERTEX
8
0
10
461.846154
20
200.230769
0
VERTEX
8
0
10
463.458824
20
211.964706
0
VERTEX
8
0
10
464.482185
20
240.983373
0
VERTEX
8
0
10
464.647059
20
242.088235
0
VERTEX
8
0
10
468.000000
20
251.000000
0
VERTEX
8
0
10
470.000000
20
253.000000
0
VERTEX
8
0
10
475.088235
20
254.647059
0
VERTEX
8
0
10
484.900000
20
258.200000
0
VERTEX
8
0
10
490.846154
20
261.230769
0
VERTEX
8
0
10
496.000000
20
265.000000
0
VERTEX
8
0
10
494.800000
20
266.900000
0
VERTEX
8
0
10
493.000000
20
270.000000
0
VERTEX
8
0
10
488.820000
20
272.760000
0
VERTEX
8
0
10
477.000000
20
280.000000
0
VERTEX
8
0
10
464.000000
20
293.000000
0
VERTEX
8
0
10
461.240000
20
297.180000
0
VERTEX
8
0
10
436.200000
20
338.100000
0
VERTEX
8
0
10
436.000000
20
339.000000
0
VERTEX
8
0
10
425.153846
20
349.230769
0
VERTEX
8
0
10
414.000000
20
356.000000
0
VERTEX
8
0
10
409.000000
20
356.000000
0
VERTEX
8
0
10
407.000000
20
354.000000
0
VERTEX
8
0
10
407.000000
20
352.000000
0
VERTEX
8
0
10
408.000000
20
351.000000
0
VERTEX
8
0
10
405.000000
20
320.000000
0
VERTEX
8
0
10
405.000000
20
308.000000
0
VERTEX
8
0
10
406.439024
20
299.048780
0
VERTEX
8
0
10
409.300000
20
287.100000
0
VERTEX
8
0
10
415.800000
20
267.900000
0
VERTEX
8
0
10
426.230769
20
245.153846
0
VERTEX
8
0
10
429.800000
20
238.900000
0
VERTEX
8
0
10
444.760000
20
212.820000
0
VERTEX
8
0
10
449.754098
20
206.795082
0
VERTEX
8
0
10
459.000000
20
197.000000
0
VERTEX
8
0
10
460.000000
20
197.000000
0
SEQEND
0
POLYLINE
8
0
6
CONTINUOUS
66
1
62
7
10
0.0
20
0.0
30
0.000000
0
VERTEX
8
0
10
362.000000
20
132.000000
0
VERTEX
8
0
10
381.923077
20
135.384615
0
VERTEX
8
0
10
396.900000
20
139.300000
0
VERTEX
8
0
10
405.100000
20
141.800000
0
VERTEX
8
0
10
427.820000
20
153.240000
0
VERTEX
8
0
10
431.788235
20
156.247059
0
VERTEX
8
0
10
441.000000
20
164.000000
0
VERTEX
8
0
10
442.300000
20
167.900000
0
VERTEX
8
0
10
444.000000
20
176.000000
0
VERTEX
8
0
10
442.700000
20
178.900000
0
VERTEX
8
0
10
422.769231
20
200.846154
0
VERTEX
8
0
10
420.769231
20
203.846154
0
VERTEX
8
0
10
414.300000
20
215.100000
0
VERTEX
8
0
10
412.700000
20
219.900000
0
VERTEX
8
0
10
403.384615
20
257.076923
0
VERTEX
8
0
10
401.615385
20
265.923077
0
VERTEX
8
0
10
395.800000
20
291.900000
0
VERTEX
8
0
10
395.200000
20
293.100000
0
VERTEX
8
0
10
388.000000
20
303.000000
0
VERTEX
8
0
10
384.000000
20
307.000000
0
VERTEX
8
0
10
369.100000
20
316.200000
0
VERTEX
8
0
10
351.000000
20
320.000000
0
VERTEX
8
0
10
342.923077
20
319.384615
0
VERTEX
8
0
10
333.100000
20
316.800000
0
VERTEX
8
0
10
331.900000
20
316.200000
0
VERTEX
8
0
10
320.000000
20
310.000000
0
VERTEX
8
0
10
317.000000
20
307.000000
0
VERTEX
8
0
10
313.200000
20
300.900000
0
VERTEX
8
0
10
312.800000
20
300.100000
0
VERTEX
8
0
10
307.352941
20
287.911765
0
VERTEX
8
0
10
302.594595
20
268.067568
0
VERTEX
8
0
10
300.464602
20
249.969027
0
VERTEX
8
0
10
299.535398
20
236.030973
0
VERTEX
8
0
10
296.352941
20
213.911765
0
VERTEX
8
0
10
295.647059
20
211.088235
0
VERTEX
8
0
10
285.800000
20
189.100000
0
VERTEX
8
0
10
281.800000
20
182.100000
0
VERTEX
8
0
10
273.000000
20
165.000000
0
VERTEX
8
0
10
275.240000
20
157.180000
0
VERTEX
8
0
10
277.760000
20
153.820000
0
VERTEX
8
0
10
283.000000
20
148.000000
0
VERTEX
8
0
10
287.846154
20
144.769231
0
VERTEX
8
0
10
294.100000
20
141.300000
0
VERTEX
8
0
10
297.900000
20
139.800000
0
VERTEX
8
0
10
305.067568
20
137.405405
0
VERTEX
8
0
10
314.923077
20
135.615385
0
VERTEX
8
0
10
347.969027
20
132.535398
0
VERTEX
8
0
10
362.000000
20
132.000000
0
SEQEND
0
POLYLINE
8
0
6
CONTINUOUS
66
1
62
7
10
0.0
20
0.0
30
0.000000
0
VERTEX
8
0
10
331.000000
20
100.000000
0
VERTEX
8
0
10
332.088235
20
100.647059
0
VERTEX
8
0
10
337.735294
20
102.441176
0
VERTEX
8
0
10
341.180000
20
104.760000
0
VERTEX
8
0
10
348.000000
20
111.000000
0
VERTEX
8
0
10
352.000000
20
118.000000
0
VERTEX
8
0
10
352.000000
20
120.000000
0
VERTEX
8
0
10
348.900000
20
121.800000
0
VERTEX
8
0
10
337.923077
20
124.615385
0
VERTEX
8
0
10
325.048780
20
126.439024
0
VERTEX
8
0
10
313.000000
20
127.000000
0
VERTEX
8
0
10
311.911765
20
126.352941
0
VERTEX
8
0
10
309.000000
20
126.000000
0
VERTEX
8
0
10
307.000000
20
124.000000
0
VERTEX
8
0
10
307.000000
20
120.000000
0
VERTEX
8
0
10
308.352941
20
116.088235
0
VERTEX
8
0
10
309.800000
20
112.900000
0
VERTEX
8
0
10
313.000000
20
107.000000
0
VERTEX
8
0
10
316.000000
20
104.000000
0
VERTEX
8
0
10
327.076923
20
100.384615
0
VERTEX
8
0
10
331.000000
20
100.000000
0
SEQEND
0
POLYLINE
8
0
6
CONTINUOUS
66
1
62
7
10
0.0
20
0.0
30
0.000000
0
VERTEX
8
0
10
362.000000
20
83.000000
0
VERTEX
8
0
10
371.756098
20
94.195122
0
VERTEX
8
0
10
376.800000
20
102.100000
0
VERTEX
8
0
10
378.000000
20
104.000000
0
VERTEX
8
0
10
384.067568
20
104.594595
0
VERTEX
8
0
10
405.088235
20
109.647059
0
VERTEX
8
0
10
432.100000
20
120.800000
0
VERTEX
8
0
10
440.100000
20
125.800000
0
VERTEX
8
0
10
453.000000
20
134.000000
0
VERTEX
8
0
10
462.000000
20
143.000000
0
VERTEX
8
0
10
468.800000
20
153.100000
0
VERTEX
8
0
10
472.384615
20
163.923077
0
VERTEX
8
0
10
472.594595
20
165.067568
0
VERTEX
8
0
10
473.000000
20
170.000000
0
VERTEX
8
0
10
474.000000
20
171.000000
0
VERTEX
8
0
10
479.000000
20
173.000000
0
VERTEX
8
0
10
486.756098
20
182.195122
0
VERTEX
8
0
10
489.700000
20
188.100000
0
VERTEX
8
0
10
491.300000
20
192.900000
0
VERTEX
8
0
10
492.517203
20
199.016093
0
VERTEX
8
0
10
493.000000
20
228.000000
0
VERTEX
8
0
10
495.000000
20
230.000000
0
VERTEX
8
0
10
498.100000
20
230.800000
0
VERTEX
8
0
10
515.000000
20
241.000000
0
VERTEX
8
0
10
518.000000
20
244.000000
0
VERTEX
8
0
10
523.647059
20
255.088235
0
VERTEX
8
0
10
524.352941
20
257.911765
0
VERTEX
8
0
10
526.000000
20
263.000000
0
VERTEX
8
0
10
526.000000
20
274.000000
0
VERTEX
8
0
10
521.000000
20
284.000000
0
VERTEX
8
0
10
511.000000
20
294.000000
0
VERTEX
8
0
10
501.900000
20
299.800000
0
VERTEX
8
0
10
501.100000
20
300.200000
0
VERTEX
8
0
10
489.000000
20
310.000000
0
VERTEX
8
0
10
483.247059
20
317.211765
0
VERTEX
8
0
10
474.200000
20
332.100000
0
VERTEX
8
0
10
470.000000
20
340.000000
0
VERTEX
8
0
10
472.000000
20
342.000000
0
VERTEX
8
0
10
487.100000
20
349.800000
0
VERTEX
8
0
10
500.000000
20
358.000000
0
VERTEX
8
0
10
502.000000
20
360.000000
0
VERTEX
8
0
10
507.647059
20
371.088235
0
VERTEX
8
0
10
510.000000
20
379.000000
0
VERTEX
8
0
10
509.420000
20
386.060000
0
VERTEX
8
0
10
507.800000
20
393.900000
0
VERTEX
8
0
10
507.300000
20
395.100000
0
VERTEX
8
0
10
504.769231
20
400.846154
0
VERTEX
8
0
10
497.247059
20
410.211765
0
VERTEX
8
0
10
494.200000
20
416.100000
0
VERTEX
8
0
10
492.800000
20
418.900000
0
VERTEX
8
0
10
491.500000
20
422.000000
0
VERTEX
8
0
10
491.800000
20
423.100000
0
VERTEX
8
0
10
499.756098
20
433.195122
0
VERTEX
8
0
10
501.800000
20
437.100000
0
VERTEX
8
0
10
503.800000
20
441.100000
0
VERTEX
8
0
10
509.647059
20
458.088235
0
VERTEX
8
0
10
511.352941
20
464.911765
0
VERTEX
8
0
10
514.549180
20
484.040984
0
VERTEX
8
0
10
516.450820
20
504.959016
0
VERTEX
8
0
10
517.000000
20
516.000000
0
VERTEX
8
0
10
514.569231
20
534.946154
0
VERTEX
8
0
10
511.647059
20
549.911765
0
VERTEX
8
0
10
511.000000
20
553.000000
0
SEQEND
0
POLYLINE
8
0
6
CONTINUOUS
66
1
62
7
10
0.0
20
0.0
30
0.000000
0
VERTEX
8
0
10
363.000000
20
82.000000
0
VERTEX
8
0
10
362.000000
20
83.000000
0
SEQEND
0
POLYLINE
8
0
6
CONTINUOUS
66
1
62
7
10
0.0
20
0.0
30
0.000000
0
VERTEX
8
0
10
363.000000
20
82.000000
0
VERTEX
8
0
10
373.076923
20
83.615385
0
VERTEX
8
0
10
399.900000
20
89.300000
0
VERTEX
8
0
10
406.100000
20
91.700000
0
VERTEX
8
0
10
433.900000
20
102.200000
0
VERTEX
8
0
10
455.100000
20
112.800000
0
VERTEX
8
0
10
469.820000
20
120.240000
0
VERTEX
8
0
10
488.180000
20
133.760000
0
VERTEX
8
0
10
500.000000
20
142.000000
0
VERTEX
8
0
10
532.000000
20
174.000000
0
VERTEX
8
0
10
543.760000
20
190.180000
0
VERTEX
8
0
10
557.200000
20
208.900000
0
VERTEX
8
0
10
571.200000
20
235.900000
0
VERTEX
8
0
10
580.300000
20
257.900000
0
VERTEX
8
0
10
583.200000
20
265.900000
0
VERTEX
8
0
10
589.352941
20
284.911765
0
VERTEX
8
0
10
592.352941
20
298.911765
0
VERTEX
8
0
10
595.544828
20
314.037931
0
VERTEX
8
0
10
598.000000
20
344.000000
0
VERTEX
8
0
10
597.470769
20
363.026154
0
VERTEX
8
0
10
595.544828
20
391.962069
0
VERTEX
8
0
10
592.615385
20
405.923077
0
VERTEX
8
0
10
588.352941
20
425.088235
0
VERTEX
8
0
10
574.800000
20
462.900000
0
VERTEX
8
0
10
565.200000
20
482.100000
0
VERTEX
8
0
10
556.760000
20
498.820000
0
VERTEX
8
0
10
552.230769
20
505.153846
0
VERTEX
8
0
10
536.750594
20
526.767221
0
VERTEX
8
0
10
512.000000
20
553.000000
0
VERTEX
8
0
10
511.000000
20
553.000000
0
SEQEND
0
POLYLINE
8
0
6
CONTINUOUS
66
1
62
7
10
0.0
20
0.0
30
0.000000
0
VERTEX
8
0
10
362.000000
20
83.000000
0
VERTEX
8
0
10
361.000000
20
82.000000
0
VERTEX
8
0
10
362.000000
20
81.000000
0
VERTEX
8
0
10
363.000000
20
82.000000
0
SEQEND
0
POLYLINE
8
0
6
CONTINUOUS
66
1
62
7
10
0.0
20
0.0
30
0.000000
0
VERTEX
8
0
10
271.000000
20
252.000000
0
VERTEX
8
0
10
260.776243
20
243.248619
0
VERTEX
8
0
10
250.900000
20
237.200000
0
VERTEX
8
0
10
250.100000
20
236.800000
0
VERTEX
8
0
10
241.932432
20
233.405405
0
VERTEX
8
0
10
237.067568
20
232.594595
0
VERTEX
8
0
10
229.000000
20
232.000000
0
VERTEX
8
0
10
212.088235
20
235.352941
0
VERTEX
8
0
10
207.900000
20
236.800000
0
VERTEX
8
0
10
196.000000
20
244.000000
0
VERTEX
8
0
10
189.000000
20
251.000000
0
VERTEX
8
0
10
183.200000
20
260.100000
0
VERTEX
8
0
10
182.800000
20
260.900000
0
VERTEX
8
0
10
175.450820
20
281.040984
0
VERTEX
8
0
10
174.000000
20
292.000000
0
VERTEX
8
0
10
175.000000
20
301.000000
0
VERTEX
8
0
10
152.248869
20
325.226244
0
VERTEX
8
0
10
140.200000
20
341.100000
0
VERTEX
8
0
10
130.200000
20
356.100000
0
VERTEX
8
0
10
124.300000
20
370.100000
0
VERTEX
8
0
10
122.647059
20
375.911765
0
VERTEX
8
0
10
121.000000
20
382.000000
0
VERTEX
8
0
10
122.647059
20
394.088235
0
VERTEX
8
0
10
125.800000
20
402.100000
0
VERTEX
8
0
10
126.800000
20
404.100000
0
VERTEX
8
0
10
131.000000
20
412.000000
0
VERTEX
8
0
10
139.180000
20
418.760000
0
VERTEX
8
0
10
148.900000
20
425.200000
0
VERTEX
8
0
10
167.100000
20
431.800000
0
VERTEX
8
0
10
186.000000
20
442.000000
0
VERTEX
8
0
10
200.000000
20
456.000000
0
VERTEX
8
0
10
198.000000
20
458.000000
0
VERTEX
8
0
10
197.000000
20
458.000000
0
VERTEX
8
0
10
190.769231
20
465.846154
0
VERTEX
8
0
10
188.800000
20
468.900000
0
VERTEX
8
0
10
182.352941
20
485.088235
0
VERTEX
8
0
10
180.594595
20
493.932432
0
VERTEX
8
0
10
179.000000
20
511.000000
0
VERTEX
8
0
10
179.000000
20
529.000000
0
VERTEX
8
0
10
180.475113
20
549.977376
0
VERTEX
8
0
10
182.352941
20
560.911765
0
VERTEX
8
0
10
183.384615
20
565.923077
0
VERTEX
8
0
10
186.200000
20
574.900000
0
VERTEX
8
0
10
186.800000
20
576.100000
0
VERTEX
8
0
10
198.000000
20
596.000000
0
VERTEX
8
0
10
197.000000
20
597.000000
0
VERTEX
8
0
10
185.846154
20
590.230769
0
VERTEX
8
0
10
164.195122
20
576.756098
0
VERTEX
8
0
10
133.795082
20
551.245902
0
VERTEX
8
0
10
126.000000
20
544.000000
0
VERTEX
8
0
10
100.245902
20
513.795082
0
VERTEX
8
0
10
79.200000
20
478.900000
0
VERTEX
8
0
10
69.700000
20
456.100000
0
VERTEX
8
0
10
61.352941
20
433.911765
0
VERTEX
8
0
10
55.647059
20
410.088235
0
VERTEX
8
0
10
52.439024
20
396.951220
0
VERTEX
8
0
10
49.538071
20
361.032995
0
VERTEX
8
0
10
49.000000
20
344.000000
0
VERTEX
8
0
10
51.455172
20
313.037931
0
VERTEX
8
0
10
55.384615
20
294.076923
0
VERTEX
8
0
10
58.384615
20
280.076923
0
VERTEX
8
0
10
66.300000
20
258.100000
0
VERTEX
8
0
10
69.300000
20
250.100000
0
VERTEX
8
0
10
78.230769
20
230.153846
0
VERTEX
8
0
10
95.760000
20
199.820000
0
VERTEX
8
0
10
118.000000
20
170.000000
0
VERTEX
8
0
10
152.220690
20
138.248276
0
VERTEX
8
0
10
178.180000
20
120.240000
0
VERTEX
8
0
10
184.153846
20
116.230769
0
VERTEX
8
0
10
205.100000
20
106.200000
0
VERTEX
8
0
10
214.900000
20
101.800000
0
VERTEX
8
0
10
228.100000
20
96.300000
0
VERTEX
8
0
10
242.900000
20
91.700000
0
VERTEX
8
0
10
265.067568
20
85.405405
0
VERTEX
8
0
10
271.067568
20
84.405405
0
VERTEX
8
0
10
296.000000
20
80.000000
0
VERTEX
8
0
10
297.000000
20
81.000000
0
VERTEX
8
0
10
289.248276
20
89.220690
0
VERTEX
8
0
10
285.230769
20
95.153846
0
VERTEX
8
0
10
282.800000
20
98.900000
0
VERTEX
8
0
10
278.647059
20
112.911765
0
VERTEX
8
0
10
278.000000
20
116.000000
0
VERTEX
8
0
10
274.153846
20
118.230769
0
VERTEX
8
0
10
264.804878
20
124.756098
0
VERTEX
8
0
10
254.000000
20
135.000000
0
VERTEX
8
0
10
249.230769
20
142.153846
0
VERTEX
8
0
10
246.300000
20
149.100000
0
VERTEX
8
0
10
245.700000
20
150.900000
0
VERTEX
8
0
10
244.000000
20
156.000000
0
VERTEX
8
0
10
244.000000
20
168.000000
0
VERTEX
8
0
10
245.405405
20
173.932432
0
VERTEX
8
0
10
247.300000
20
180.900000
0
VERTEX
8
0
10
257.230769
20
198.846154
0
VERTEX
8
0
10
262.200000
20
207.900000
0
VERTEX
8
0
10
267.615385
20
220.076923
0
VERTEX
8
0
10
268.384615
20
223.923077
0
VERTEX
8
0
10
270.533074
20
236.029183
0
VERTEX
8
0
10
271.000000
20
252.000000
0
SEQEND
0
POLYLINE
8
0
6
CONTINUOUS
66
1
62
7
10
0.0
20
0.0
30
0.000000
0
VERTEX
8
0
10
331.000000
20
49.000000
0
VERTEX
8
0
10
359.969027
20
51.464602
0
VERTEX
8
0
10
378.923077
20
54.384615
0
VERTEX
8
0
10
384.076923
20
55.615385
0
VERTEX
8
0
10
415.900000
20
63.200000
0
VERTEX
8
0
10
433.900000
20
70.300000
0
VERTEX
8
0
10
461.846154
20
82.230769
0
VERTEX
8
0
10
476.100000
20
90.800000
0
VERTEX
8
0
10
504.195122
20
108.756098
0
VERTEX
8
0
10
536.000000
20
135.000000
0
VERTEX
8
0
10
564.245902
20
167.795082
0
VERTEX
8
0
10
572.756098
20
178.195122
0
VERTEX
8
0
10
592.800000
20
212.100000
0
VERTEX
8
0
10
595.200000
20
215.900000
0
VERTEX
8
0
10
614.647059
20
263.088235
0
VERTEX
8
0
10
621.352941
20
292.911765
0
VERTEX
8
0
10
625.549180
20
316.040984
0
VERTEX
8
0
10
629.000000
20
349.000000
0
VERTEX
8
0
10
628.461929
20
361.032995
0
VERTEX
8
0
10
625.554455
20
397.955446
0
VERTEX
8
0
10
621.647059
20
414.911765
0
VERTEX
8
0
10
617.647059
20
431.911765
0
VERTEX
8
0
10
605.700000
20
468.900000
0
VERTEX
8
0
10
601.700000
20
479.900000
0
VERTEX
8
0
10
587.800000
20
504.900000
0
VERTEX
8
0
10
580.800000
20
516.900000
0
VERTEX
8
0
10
551.000000
20
557.000000
0
VERTEX
8
0
10
513.764274
20
592.750408
0
VERTEX
8
0
10
507.846154
20
596.769231
0
VERTEX
8
0
10
504.846154
20
598.769231
0
VERTEX
8
0
10
473.100000
20
619.200000
0
VERTEX
8
0
10
437.100000
20
637.200000
0
VERTEX
8
0
10
389.932432
20
651.594595
0
VERTEX
8
0
10
385.067568
20
652.405405
0
VERTEX
8
0
10
352.250000
20
658.250000
0
VERTEX
8
0
10
351.594595
20
663.932432
0
VERTEX
8
0
10
348.800000
20
671.900000
0
VERTEX
8
0
10
348.200000
20
673.100000
0
VERTEX
8
0
10
347.000000
20
676.000000
0
VERTEX
8
0
10
342.000000
20
681.000000
0
VERTEX
8
0
10
334.900000
20
684.800000
0
VERTEX
8
0
10
330.000000
20
687.000000
0
VERTEX
8
0
10
317.000000
20
687.000000
0
VERTEX
8
0
10
312.900000
20
685.200000
0
VERTEX
8
0
10
305.000000
20
681.000000
0
VERTEX
8
0
10
299.000000
20
675.000000
0
VERTEX
8
0
10
298.300000
20
672.900000
0
VERTEX
8
0
10
294.000000
20
658.000000
0
VERTEX
8
0
10
255.911765
20
651.352941
0
VERTEX
8
0
10
209.100000
20
636.800000
0
VERTEX
8
0
10
173.100000
20
618.800000
0
VERTEX
8
0
10
133.235726
20
592.750408
0
VERTEX
8
0
10
96.000000
20
557.000000
0
VERTEX
8
0
10
74.243902
20
528.804878
0
VERTEX
8
0
10
71.240000
20
524.820000
0
VERTEX
8
0
10
63.200000
20
511.900000
0
VERTEX
8
0
10
52.200000
20
492.900000
0
VERTEX
8
0
10
44.700000
20
478.100000
0
VERTEX
8
0
10
38.300000
20
459.900000
0
VERTEX
8
0
10
29.647059
20
433.088235
0
VERTEX
8
0
10
22.647059
20
403.088235
0
VERTEX
8
0
10
20.560976
20
390.048780
0
VERTEX
8
0
10
18.000000
20
348.000000
0
VERTEX
8
0
10
22.384615
20
307.076923
0
VERTEX
8
0
10
25.405405
20
291.067568
0
VERTEX
8
0
10
30.300000
20
269.100000
0
VERTEX
8
0
10
39.700000
20
243.900000
0
VERTEX
8
0
10
46.200000
20
228.100000
0
VERTEX
8
0
10
52.800000
20
214.900000
0
VERTEX
8
0
10
66.240000
20
190.180000
0
VERTEX
8
0
10
84.769231
20
164.846154
0
VERTEX
8
0
10
91.000000
20
156.000000
0
VERTEX
8
0
10
126.235726
20
122.249592
0
VERTEX
8
0
10
154.180000
20
101.240000
0
VERTEX
8
0
10
158.180000
20
98.240000
0
VERTEX
8
0
10
168.100000
20
92.200000
0
VERTEX
8
0
10
187.900000
20
81.800000
0
VERTEX
8
0
10
208.100000
20
72.300000
0
VERTEX
8
0
10
236.900000
20
61.800000
0
VERTEX
8
0
10
248.923077
20
58.615385
0
VERTEX
8
0
10
258.923077
20
56.615385
0
VERTEX
8
0
10
290.032995
20
51.461929
0
VERTEX
8
0
10
331.000000
20
49.000000
0
SEQEND
0
ENDSEC
0
EOF
