  0
SECTION
  2
HEADER
  9
$ACADVER
  1
AC1006
  0
ENDSEC
  0
SECTION
  2
TABLES
  0
TABLE
  2
LTYPE
 70
    25
  0
LTYPE
  2
CONTINUOUS
 70
    64
  3
Solid line
 72
    64
 73
     0
 40
0.000000
  0
LTYPE
  2
DASHDOT
 70
    64
  3
__ . __ . __ . __ . __ . __ . __ . __ . __ . __
 72
    65
 73
     4
 40
1.000000
 49
0.500000
 49
-0.250000
 49
0.000000
 49
-0.250000
  0
LTYPE
  2
DASHED
 70
    64
  3
__ __ __ __ __ __ __ __ __ __ __ __ __ __ __ __
 72
    65
 73
     2
 40
0.750000
 49
0.500000
 49
-0.250000
  0
LTYPE
  2
DIVIDE
 70
    64
  3
____ . . ____ . . ____ . . ____ . . ____ . . __
 72
    65
 73
     6
 40
1.250000
 49
0.500000
 49
-0.250000
 49
0.000000
 49
-0.250000
 49
0.000000
 49
-0.250000
  0
LTYPE
  2
DOT
 70
    64
  3
. . . . . . . . . . . . . . . . . . . . . . . . 
 72
    65
 73
     2
 40
0.250000
 49
0.000000
 49
-0.250000
  0
ENDTAB
  0
ENDSEC
  0
SECTION
  2
BLOCKS
  0
BLOCK
  8
0
  2
Object_0
 70
    64
 10
0.000000
 20
0.000000
 30
0.000000
  0
ENDBLK
  0
ENDSEC
  0
SECTION
  2
ENTITIES
  0
ARC
  8
0
 62
     7
  6
CONTINUOUS
 10
2.872674
 20
5.152035
 30
-0.000000
 40
0.548647
 50
328.836620
 51
369.916834
  0
ARC
  8
0
 62
     7
  6
CONTINUOUS
 10
3.321515
 20
4.880599
 30
-0.000000
 40
0.024113
 50
156.289211
 51
328.836620
  0
ARC
  8
0
 62
     7
  6
CONTINUOUS
 10
3.329276
 20
4.940541
 30
-0.000000
 40
0.058438
 50
183.149790
 51
239.294764
  0
ARC
  8
0
 62
     7
  6
CONTINUOUS
 10
3.211651
 20
3.490497
 30
0.000000
 40
1.448047
 50
87.653940
 51
98.824750
  0
ARC
  8
0
 62
     7
  6
CONTINUOUS
 10
2.995105
 20
4.929366
 30
0.000000
 40
0.009737
 50
125.125831
 51
234.874169
  0
ARC
  8
0
 62
     7
  6
CONTINUOUS
 10
2.868543
 20
5.812447
 30
0.000000
 40
0.883437
 50
277.869564
 51
292.174902
  0
ARC
  8
0
 62
     7
  6
CONTINUOUS
 10
3.269418
 20
5.053009
 30
-0.000000
 40
0.089375
 50
175.778213
 51
221.017943
  0
ARC
  8
0
 62
     7
  6
CONTINUOUS
 10
3.221630
 20
5.183951
 30
0.000000
 40
0.131055
 50
198.648186
 51
251.610265
  0
ARC
  8
0
 62
     7
  6
CONTINUOUS
 10
2.846191
 20
5.793357
 30
-0.000000
 40
0.698099
 50
263.171536
 51
291.095765
  0
ARC
  8
0
 62
     7
  6
CONTINUOUS
 10
2.764423
 20
5.110523
 30
0.000000
 40
0.010386
 50
96.828464
 51
263.171536
  0
ARC
  8
0
 62
     7
  6
CONTINUOUS
 10
2.919404
 20
4.510591
 30
0.000000
 40
0.629922
 50
87.413147
 51
104.358726
  0
ARC
  8
0
 62
     7
  6
CONTINUOUS
 10
2.952655
 20
5.246553
 30
-0.000000
 40
0.106790
 50
267.413147
 51
329.411755
  0
ARC
  8
0
 62
     7
  6
CONTINUOUS
 10
3.022988
 20
5.204977
 30
0.000000
 40
0.025088
 50
329.411755
 51
476.534878
  0
ARC
  8
0
 62
     7
  6
CONTINUOUS
 10
3.396203
 20
5.902518
 30
-0.000000
 40
0.776875
 50
225.085010
 51
240.341309
  0
ARC
  8
0
 62
     7
  6
CONTINUOUS
 10
2.634819
 20
5.745289
 30
-0.000000
 40
0.446875
 50
269.946832
 51
298.446898
  0
ARC
  8
0
 62
     7
  6
CONTINUOUS
 10
2.634414
 20
5.308726
 30
-0.000000
 40
0.010313
 50
90.053168
 51
269.946832
  0
ARC
  8
0
 62
     7
  6
CONTINUOUS
 10
2.727071
 20
5.115723
 30
-0.000000
 40
0.223437
 50
86.002428
 51
114.502493
  0
ARC
  8
0
 62
     7
  6
CONTINUOUS
 10
2.746011
 20
5.386744
 30
0.000000
 40
0.048244
 50
266.002428
 51
383.527794
  0
ARC
  8
0
 62
     7
  6
CONTINUOUS
 10
2.612528
 20
5.205234
 30
-0.000000
 40
0.268125
 50
48.485355
 51
93.725085
  0
ARC
  8
0
 62
     7
  6
CONTINUOUS
 10
2.638272
 20
5.482718
 30
0.000000
 40
0.044290
 50
137.440755
 51
192.948879
  0
ARC
  8
0
 62
     7
  6
CONTINUOUS
 10
2.637611
 20
5.635780
 30
-0.000000
 40
0.127188
 50
217.596461
 51
255.445749
  0
ARC
  8
0
 62
     7
  6
CONTINUOUS
 10
2.545850
 20
5.565123
 30
-0.000000
 40
0.011375
 50
87.529370
 51
217.596461
  0
ARC
  8
0
 62
     7
  6
CONTINUOUS
 10
2.540200
 20
5.434181
 30
-0.000000
 40
0.142439
 50
29.810397
 51
87.529370
  0
ARC
  8
0
 62
     7
  6
CONTINUOUS
 10
2.684416
 20
5.574497
 30
0.000000
 40
0.072500
 50
253.472095
 51
286.527905
  0
ARC
  8
0
 62
     7
  6
CONTINUOUS
 10
2.391674
 20
5.491163
 30
-0.000000
 40
0.313672
 50
2.526910
 51
26.562934
  0
ARC
  8
0
 62
     7
  6
CONTINUOUS
 10
2.683659
 20
5.630896
 30
-0.000000
 40
0.011436
 50
50.691664
 51
177.320707
  0
ARC
  8
0
 62
     7
  6
CONTINUOUS
 10
2.561697
 20
5.481932
 30
0.000000
 40
0.203958
 50
358.713197
 51
410.691664
  0
ARC
  8
0
 62
     7
  6
CONTINUOUS
 10
2.949758
 20
5.623172
 30
0.000000
 40
0.234896
 50
218.373401
 51
266.752430
  0
ARC
  8
0
 62
     7
  6
CONTINUOUS
 10
2.815924
 20
5.474591
 30
0.000000
 40
0.148027
 50
324.510657
 51
395.489343
  0
ARC
  8
0
 62
     7
  6
CONTINUOUS
 10
2.957076
 20
5.533028
 30
0.000000
 40
0.034375
 50
53.130102
 51
126.869898
  0
ARC
  8
0
 62
     7
  6
CONTINUOUS
 10
2.444336
 20
5.377948
 30
0.000000
 40
0.563750
 50
353.536226
 51
378.896993
  0
ARC
  8
0
 62
     7
  6
CONTINUOUS
 10
2.343303
 20
4.490885
 30
0.000000
 40
1.056172
 50
38.159918
 51
51.241869
  0
ARC
  8
0
 62
     7
  6
CONTINUOUS
 10
3.167638
 20
5.188584
 30
0.000000
 40
0.045547
 50
277.723882
 51
341.505465
  0
ARC
  8
0
 62
     7
  6
CONTINUOUS
 10
2.327718
 20
5.198041
 30
0.000000
 40
0.883438
 50
358.449389
 51
372.754727
  0
ARC
  8
0
 62
     7
  6
CONTINUOUS
 10
3.206779
 20
5.397029
 30
0.000000
 40
0.017864
 50
44.390498
 51
192.754727
  0
ARC
  8
0
 62
     7
  6
CONTINUOUS
 10
2.311066
 20
5.164217
 30
0.000000
 40
0.941016
 50
351.074643
 51
375.110667
  0
ARC
  8
0
 62
     7
  6
CONTINUOUS
 10
3.300402
 20
5.084223
 30
0.000000
 40
0.089007
 50
227.862718
 51
353.177489
  0
ARC
  8
0
 62
     7
  6
CONTINUOUS
 10
3.007418
 20
5.119276
 30
0.000000
 40
0.384080
 50
353.177489
 51
376.935890
  0
ARC
  8
0
 62
     7
  6
CONTINUOUS
 10
3.394645
 20
5.237190
 30
-0.000000
 40
0.020702
 50
26.797211
 51
196.935890
  0
ARC
  8
0
 62
     7
  6
CONTINUOUS
 10
3.428675
 20
5.345507
 30
0.000000
 40
0.027250
 50
21.203938
 51
158.796062
  0
ARC
  8
0
 62
     7
  6
CONTINUOUS
 10
2.989642
 20
5.175183
 30
0.000000
 40
0.498165
 50
326.129906
 51
381.203938
  0
ARC
  8
0
 62
     7
  6
CONTINUOUS
 10
3.461682
 20
4.890695
 30
0.000000
 40
0.058813
 50
173.307441
 51
311.818390
  0
ARC
  8
0
 62
     7
  6
CONTINUOUS
 10
3.261248
 20
5.114724
 30
0.000000
 40
0.359417
 50
311.818390
 51
394.406353
  0
ARC
  8
0
 62
     7
  6
CONTINUOUS
 10
3.558537
 20
5.420938
 30
0.000000
 40
0.103125
 50
269.582059
 51
375.842264
  0
ARC
  8
0
 62
     7
  6
CONTINUOUS
 10
3.790853
 20
5.568396
 30
0.000000
 40
0.178750
 50
176.630625
 51
221.870355
  0
ARC
  8
0
 62
     7
  6
CONTINUOUS
 10
3.562662
 20
6.171505
 30
0.000000
 40
0.594687
 50
239.814120
 51
274.798769
  0
ARC
  8
0
 62
     7
  6
CONTINUOUS
 10
3.098503
 20
5.518961
 30
0.000000
 40
0.215533
 50
39.984084
 51
112.313078
  0
ARC
  8
0
 62
     7
  6
CONTINUOUS
 10
2.798919
 20
5.317397
 30
0.000000
 40
0.456273
 50
33.290971
 51
61.494502
  0
ARC
  8
0
 62
     7
  6
CONTINUOUS
 10
3.226079
 20
5.464329
 30
0.000000
 40
0.113177
 50
43.360288
 51
113.851354
  0
ARC
  8
0
 62
     7
  6
CONTINUOUS
 10
3.022202
 20
5.271800
 30
0.000000
 40
0.393594
 50
12.981714
 51
43.360288
  0
ARC
  8
0
 62
     7
  6
CONTINUOUS
 10
3.746044
 20
6.005335
 30
-0.000000
 40
0.429688
 50
261.203452
 51
302.422838
  0
ARC
  8
0
 62
     7
  6
CONTINUOUS
 10
4.657239
 20
5.169103
 30
-0.000000
 40
0.829297
 50
145.180143
 51
159.945687
  0
ARC
  8
0
 62
     7
  6
CONTINUOUS
 10
3.841003
 20
5.434722
 30
0.000000
 40
0.041680
 50
26.743714
 51
114.606173
  0
ARC
  8
0
 62
     7
  6
CONTINUOUS
 10
4.212577
 20
5.273241
 30
0.000000
 40
0.437054
 50
152.859131
 51
207.140869
  0
ARC
  8
0
 62
     7
  6
CONTINUOUS
 10
3.729190
 20
5.025445
 30
-0.000000
 40
0.106146
 50
306.405312
 51
387.140869
  0
ARC
  8
0
 62
     7
  6
CONTINUOUS
 10
3.872525
 20
4.448094
 30
0.000000
 40
0.498437
 50
99.275345
 51
118.329912
  0
ARC
  8
0
 62
     7
  6
CONTINUOUS
 10
2.898484
 20
5.282314
 30
0.000000
 40
0.836853
 50
331.798062
 51
380.889049
  0
ARC
  8
0
 62
     7
  6
CONTINUOUS
 10
3.285241
 20
6.124046
 30
0.000000
 40
0.419375
 50
290.284347
 51
311.062063
  0
ARC
  8
0
 62
     7
  6
CONTINUOUS
 10
3.408080
 20
5.791689
 30
0.000000
 40
0.065044
 50
194.841484
 51
290.284347
  0
ARC
  8
0
 62
     7
  6
CONTINUOUS
 10
3.458571
 20
5.678843
 30
0.000000
 40
0.148672
 50
104.702155
 51
139.686804
  0
ARC
  8
0
 62
     7
  6
CONTINUOUS
 10
3.384958
 20
5.837821
 30
0.000000
 40
0.038958
 50
337.076509
 51
460.931535
  0
ARC
  8
0
 62
     7
  6
CONTINUOUS
 10
3.304115
 20
6.256392
 30
0.000000
 40
0.387348
 50
232.550747
 51
280.931535
  0
LINE
  8
0
 62
     7
  6
CONTINUOUS
 10
3.112934
 20
6.034303
 30
0.000000
 11
3.068584
 21
5.948879
 31
0.000000
  0
ARC
  8
0
 62
     7
  6
CONTINUOUS
 10
3.392938
 20
6.470549
 30
0.000000
 40
0.518375
 50
237.305649
 51
279.271557
  0
ARC
  8
0
 62
     7
  6
CONTINUOUS
 10
3.694862
 20
6.553671
 30
0.000000
 40
0.633561
 50
249.834772
 51
320.812911
  0
ARC
  8
0
 62
     7
  6
CONTINUOUS
 10
4.218584
 20
6.126731
 30
0.000000
 40
0.042133
 50
344.312920
 51
500.812911
  0
ARC
  8
0
 62
     7
  6
CONTINUOUS
 10
3.682505
 20
6.478146
 30
0.000000
 40
0.681282
 50
259.702418
 51
327.823045
  0
ARC
  8
0
 62
     7
  6
CONTINUOUS
 10
3.692169
 20
6.335086
 30
0.000000
 40
0.328218
 50
273.067926
 51
401.567920
  0
ARC
  8
0
 62
     7
  6
CONTINUOUS
 10
3.942122
 20
6.494588
 30
0.000000
 40
0.058437
 50
94.308915
 51
150.453889
  0
ARC
  8
0
 62
     7
  6
CONTINUOUS
 10
3.503043
 20
6.431101
 30
0.000000
 40
0.399062
 50
13.373769
 51
85.085448
  0
ARC
  8
0
 62
     7
  6
CONTINUOUS
 10
3.466628
 20
6.514451
 30
0.000000
 40
0.322079
 50
296.882023
 51
437.337391
  0
ARC
  8
0
 62
     7
  6
CONTINUOUS
 10
3.226565
 20
7.744923
 30
-0.000000
 40
1.565986
 50
275.950192
 51
284.258294
  0
ARC
  8
0
 62
     7
  6
CONTINUOUS
 10
3.393201
 20
6.146123
 30
0.000000
 40
0.041473
 50
95.950192
 51
264.049808
  0
ARC
  8
0
 62
     7
  6
CONTINUOUS
 10
3.431850
 20
6.516952
 30
-0.000000
 40
0.414311
 50
264.049808
 51
339.804287
  0
ARC
  8
0
 62
     7
  6
CONTINUOUS
 10
3.831001
 20
6.370127
 30
0.000000
 40
0.010988
 50
20.195713
 51
159.804287
  0
ARC
  8
0
 62
     7
  6
CONTINUOUS
 10
3.592020
 20
6.282219
 30
0.000000
 40
0.265625
 50
291.530330
 51
380.195713
  0
ARC
  8
0
 62
     7
  6
CONTINUOUS
 10
3.708638
 20
6.027800
 30
0.000000
 40
0.020491
 50
159.045753
 51
273.067926
  0
ARC
  8
0
 62
     7
  6
CONTINUOUS
 10
3.269935
 20
6.615563
 30
-0.000000
 40
0.347188
 50
304.747777
 51
327.590150
  0
ARC
  8
0
 62
     7
  6
CONTINUOUS
 10
3.575433
 20
6.392545
 30
0.000000
 40
0.038958
 50
344.689574
 51
468.544601
  0
ARC
  8
0
 62
     7
  6
CONTINUOUS
 10
3.332565
 20
6.592708
 30
0.000000
 40
0.350625
 50
266.969785
 51
323.114759
  0
ARC
  8
0
 62
     7
  6
CONTINUOUS
 10
3.309670
 20
6.232261
 30
0.000000
 40
0.011197
 50
292.920640
 51
427.079360
  0
ARC
  8
0
 62
     7
  6
CONTINUOUS
 10
3.196179
 20
6.500662
 30
-0.000000
 40
0.302606
 50
253.070605
 51
292.920640
  0
ARC
  8
0
 62
     7
  6
CONTINUOUS
 10
3.160055
 20
6.381984
 30
0.000000
 40
0.178552
 50
132.997136
 51
253.070605
  0
ARC
  8
0
 62
     7
  6
CONTINUOUS
 10
3.041095
 20
6.496998
 30
0.000000
 40
0.015827
 50
339.581480
 51
460.210819
  0
ARC
  8
0
 62
     7
  6
CONTINUOUS
 10
3.212358
 20
6.433243
 30
0.000000
 40
0.166917
 50
159.581480
 51
284.218698
  0
ARC
  8
0
 62
     7
  6
CONTINUOUS
 10
3.597639
 20
5.437005
 30
0.000000
 40
0.902669
 50
98.268808
 51
112.420743
  0
ARC
  8
0
 62
     7
  6
CONTINUOUS
 10
3.288989
 20
6.602037
 30
0.000000
 40
0.197801
 50
290.509535
 51
360.497738
  0
ARC
  8
0
 62
     7
  6
CONTINUOUS
 10
3.365698
 20
6.574331
 30
0.000000
 40
0.124609
 50
13.658620
 51
100.864258
  0
LINE
  8
0
 62
     7
  6
CONTINUOUS
 10
3.348391
 20
6.673984
 30
0.000000
 11
3.342211
 21
6.696707
 31
0.000000
  0
ARC
  8
0
 62
     7
  6
CONTINUOUS
 10
3.350533
 20
6.595519
 30
0.000000
 40
0.078494
 50
39.619830
 51
91.563618
  0
ARC
  8
0
 62
     7
  6
CONTINUOUS
 10
3.329574
 20
6.578168
 30
0.000000
 40
0.105703
 50
244.980597
 51
399.619830
  0
ARC
  8
0
 62
     7
  6
CONTINUOUS
 10
3.339783
 20
6.545670
 30
0.000000
 40
0.083789
 50
110.072762
 51
229.052287
  0
LINE
  8
0
 62
     7
  6
CONTINUOUS
 10
3.311025
 20
6.624370
 30
0.000000
 11
3.284663
 21
6.646431
 31
0.000000
  0
ARC
  8
0
 62
     7
  6
CONTINUOUS
 10
3.324671
 20
6.528419
 30
0.000000
 40
0.124609
 50
108.727690
 51
195.933328
  0
ARC
  8
0
 62
     7
  6
CONTINUOUS
 10
3.317314
 20
6.526318
 30
-0.000000
 40
0.116958
 50
195.933328
 51
290.509535
  0
ARC
  8
0
 62
     7
  6
CONTINUOUS
 10
3.298740
 20
6.476750
 30
0.000000
 40
0.125039
 50
173.236649
 51
269.086605
  0
ARC
  8
0
 62
     7
  6
CONTINUOUS
 10
3.160347
 20
6.477626
 30
-0.000000
 40
0.019853
 50
44.236165
 51
166.105514
  0
ARC
  8
0
 62
     7
  6
CONTINUOUS
 10
3.272049
 20
6.449994
 30
-0.000000
 40
0.134922
 50
166.105514
 51
280.547353
  0
ARC
  8
0
 62
     7
  6
CONTINUOUS
 10
3.296746
 20
6.334540
 30
0.000000
 40
0.017188
 50
270.000000
 51
450.000000
  0
ARC
  8
0
 62
     7
  6
CONTINUOUS
 10
3.334627
 20
6.498678
 30
-0.000000
 40
0.244349
 50
357.676703
 51
509.864873
  0
ARC
  8
0
 62
     7
  6
CONTINUOUS
 10
3.113519
 20
6.654304
 30
0.000000
 40
0.034375
 50
180.275613
 51
286.535818
  0
ARC
  8
0
 62
     7
  6
CONTINUOUS
 10
3.357670
 20
6.488641
 30
-0.000000
 40
0.323984
 50
62.075849
 51
149.281487
  0
ARC
  8
0
 62
     7
  6
CONTINUOUS
 10
3.383152
 20
6.536718
 30
0.000000
 40
0.269572
 50
344.015761
 51
422.075849
  0
LINE
  8
0
 62
     7
  6
CONTINUOUS
 10
3.578775
 20
6.488772
 30
-0.000000
 11
3.642301
 21
6.462486
 31
0.000000
  0
ARC
  8
0
 62
     7
  6
CONTINUOUS
 10
3.986753
 20
6.657750
 30
0.000000
 40
0.058438
 50
180.000000
 51
360.000000
  0
ARC
  8
0
 62
     7
  6
CONTINUOUS
 10
3.711620
 20
6.651895
 30
0.000000
 40
0.333622
 50
1.005455
 51
53.481764
  0
ARC
  8
0
 62
     7
  6
CONTINUOUS
 10
3.646507
 20
5.608175
 30
0.000000
 40
1.347500
 50
78.636513
 51
87.476623
  0
ARC
  8
0
 62
     7
  6
CONTINUOUS
 10
3.517329
 20
6.568438
 30
0.000000
 40
0.420579
 50
12.260395
 51
63.436938
  0
ARC
  8
0
 62
     7
  6
CONTINUOUS
 10
4.682325
 20
7.127147
 30
0.000000
 40
0.625253
 50
204.577499
 51
228.653821
  0
ARC
  8
0
 62
     7
  6
CONTINUOUS
 10
3.958211
 20
6.482437
 30
0.000000
 40
0.357068
 50
330.595087
 51
389.404913
  0
ARC
  8
0
 62
     7
  6
CONTINUOUS
 10
4.308209
 20
6.285184
 30
0.000000
 40
0.044688
 50
150.595087
 51
330.256997
  0
ARC
  8
0
 62
     7
  6
CONTINUOUS
 10
3.961431
 20
6.483328
 30
0.000000
 40
0.444082
 50
330.256997
 51
401.235683
  0
ARC
  8
0
 62
     7
  6
CONTINUOUS
 10
3.646507
 20
5.608175
 30
0.000000
 40
1.347500
 50
60.943275
 51
69.638955
  0
ARC
  8
0
 62
     7
  6
CONTINUOUS
 10
3.664585
 20
7.055077
 30
0.000000
 40
0.398245
 50
4.162952
 51
174.405407
  0
ARC
  8
0
 62
     7
  6
CONTINUOUS
 10
3.646507
 20
5.608175
 30
0.000000
 40
1.533125
 50
104.284180
 51
434.284180
  0
ARC
  8
0
 62
     7
  6
CONTINUOUS
 10
3.665335
 20
7.115062
 30
0.000000
 40
0.198401
 50
359.284180
 51
539.284180
  0
ARC
  8
0
 62
     7
  6
CONTINUOUS
 10
3.646507
 20
5.608175
 30
0.000000
 40
1.533125
 50
81.784180
 51
96.784180
  0
ARC
  8
0
 62
     7
  6
CONTINUOUS
 10
4.264687
 20
6.467443
 30
0.000000
 40
0.306430
 50
286.327041
 51
386.590061
  0
ARC
  8
0
 62
     7
  6
CONTINUOUS
 10
3.689765
 20
6.192259
 30
0.000000
 40
0.661335
 50
320.763442
 51
358.363309
  0
ARC
  8
0
 62
     7
  6
CONTINUOUS
 10
4.216086
 20
5.762443
 30
-0.000000
 40
0.018191
 50
140.763442
 51
282.531659
  0
ARC
  8
0
 62
     7
  6
CONTINUOUS
 10
4.151973
 20
6.050884
 30
0.000000
 40
0.313672
 50
282.531659
 51
306.567683
  0
ARC
  8
0
 62
     7
  6
CONTINUOUS
 10
4.360425
 20
5.763297
 30
0.000000
 40
0.041680
 50
25.324161
 51
121.174117
  0
ARC
  8
0
 62
     7
  6
CONTINUOUS
 10
4.705700
 20
4.437446
 30
0.000000
 40
1.378437
 50
91.444627
 51
102.894247
  0
ARC
  8
0
 62
     7
  6
CONTINUOUS
 10
4.716500
 20
5.803934
 30
0.000000
 40
0.046983
 50
165.817408
 51
248.186012
  0
ARC
  8
0
 62
     7
  6
CONTINUOUS
 10
4.770397
 20
5.938592
 30
0.000000
 40
0.192026
 50
248.186012
 51
291.813988
  0
ARC
  8
0
 62
     7
  6
CONTINUOUS
 10
4.947193
 20
5.791453
 30
0.000000
 40
0.109941
 50
196.452506
 51
288.418535
  0
ARC
  8
0
 62
     7
  6
CONTINUOUS
 10
3.646507
 20
5.608175
 30
0.000000
 40
1.347500
 50
3.384202
 51
48.158792
  0
ARC
  8
0
 62
     7
  6
CONTINUOUS
 10
4.650265
 20
5.695079
 30
0.000000
 40
0.020669
 50
301.917139
 51
474.427058
  0
ARC
  8
0
 62
     7
  6
CONTINUOUS
 10
4.704651
 20
5.607761
 30
-0.000000
 40
0.082201
 50
121.917139
 51
182.157716
  0
ARC
  8
0
 62
     7
  6
CONTINUOUS
 10
4.656859
 20
5.605961
 30
0.000000
 40
0.034375
 50
182.157716
 51
288.417920
  0
ARC
  8
0
 62
     7
  6
CONTINUOUS
 10
4.783819
 20
5.504170
 30
0.000000
 40
0.135146
 50
97.971755
 51
149.211910
  0
ARC
  8
0
 62
     7
  6
CONTINUOUS
 10
4.768079
 20
5.616569
 30
0.000000
 40
0.021651
 50
313.382423
 51
457.971755
  0
ARC
  8
0
 62
     7
  6
CONTINUOUS
 10
4.732777
 20
5.653923
 30
0.000000
 40
0.073047
 50
263.267193
 51
313.382423
  0
ARC
  8
0
 62
     7
  6
CONTINUOUS
 10
4.729942
 20
5.567630
 30
0.000000
 40
0.014896
 50
112.619865
 51
247.380135
  0
ARC
  8
0
 62
     7
  6
CONTINUOUS
 10
4.719916
 20
5.543568
 30
0.000000
 40
0.011172
 50
292.619865
 51
427.380135
  0
ARC
  8
0
 62
     7
  6
CONTINUOUS
 10
4.686400
 20
4.479877
 30
0.000000
 40
1.054057
 50
87.944170
 51
92.055830
  0
ARC
  8
0
 62
     7
  6
CONTINUOUS
 10
4.654394
 20
5.371510
 30
-0.000000
 40
0.161849
 50
92.055830
 51
150.539326
  0
ARC
  8
0
 62
     7
  6
CONTINUOUS
 10
4.674135
 20
5.631941
 30
0.000000
 40
0.241892
 50
228.379745
 51
270.000000
  0
ARC
  8
0
 62
     7
  6
CONTINUOUS
 10
4.674135
 20
5.372862
 30
-0.000000
 40
0.017188
 50
270.000000
 51
450.000000
  0
ARC
  8
0
 62
     7
  6
CONTINUOUS
 10
4.698068
 20
5.888379
 30
-0.000000
 40
0.533242
 50
241.348434
 51
267.427641
  0
ARC
  8
0
 62
     7
  6
CONTINUOUS
 10
3.950622
 20
5.885995
 30
0.000000
 40
0.677187
 50
300.225383
 51
316.567851
  0
ARC
  8
0
 62
     7
  6
CONTINUOUS
 10
4.308313
 20
5.280245
 30
0.000000
 40
0.026597
 50
129.153212
 51
230.846788
  0
ARC
  8
0
 62
     7
  6
CONTINUOUS
 10
4.479777
 20
5.490831
 30
-0.000000
 40
0.298160
 50
230.846788
 51
282.812698
  0
ARC
  8
0
 62
     7
  6
CONTINUOUS
 10
4.523106
 20
5.194975
 30
0.000000
 40
0.023360
 50
277.915541
 51
372.660095
  0
ARC
  8
0
 62
     7
  6
CONTINUOUS
 10
4.450463
 20
5.717449
 30
0.000000
 40
0.550859
 50
241.554433
 51
277.915541
  0
ARC
  8
0
 62
     7
  6
CONTINUOUS
 10
3.908275
 20
5.403622
 30
0.000000
 40
0.327670
 50
306.869898
 51
328.639278
  0
ARC
  8
0
 62
     7
  6
CONTINUOUS
 10
4.125502
 20
5.113986
 30
0.000000
 40
0.034375
 50
126.869898
 51
233.130102
  0
ARC
  8
0
 62
     7
  6
CONTINUOUS
 10
4.066041
 20
4.457762
 30
0.000000
 40
0.629922
 50
69.519787
 51
86.465366
  0
ARC
  8
0
 62
     7
  6
CONTINUOUS
 10
4.283737
 20
5.034611
 30
0.000000
 40
0.013531
 50
281.528498
 51
438.471502
  0
ARC
  8
0
 62
     7
  6
CONTINUOUS
 10
4.192780
 20
5.480545
 30
0.000000
 40
0.468646
 50
247.405436
 51
281.528498
  0
LINE
  8
0
 62
     7
  6
CONTINUOUS
 10
3.965742
 20
4.980052
 30
0.000000
 11
4.012722
 21
5.047869
 31
0.000000
  0
LINE
  8
0
 62
     7
  6
CONTINUOUS
 10
3.924492
 20
4.980052
 30
0.000000
 11
3.965742
 21
4.980052
 31
0.000000
  0
ARC
  8
0
 62
     7
  6
CONTINUOUS
 10
3.734570
 20
5.031614
 30
0.000000
 40
0.196797
 50
344.810713
 51
375.189287
  0
ARC
  8
0
 62
     7
  6
CONTINUOUS
 10
4.176472
 20
5.231095
 30
0.000000
 40
0.292188
 50
154.268994
 51
210.413968
  0
ARC
  8
0
 62
     7
  6
CONTINUOUS
 10
3.921979
 20
5.352366
 30
0.000000
 40
0.010355
 50
337.742321
 51
507.383510
  0
ARC
  8
0
 62
     7
  6
CONTINUOUS
 10
4.153622
 20
5.257562
 30
-0.000000
 40
0.239937
 50
157.742321
 51
219.838765
  0
ARC
  8
0
 62
     7
  6
CONTINUOUS
 10
3.969707
 20
5.219373
 30
-0.000000
 40
0.115522
 50
269.840413
 51
328.371205
  0
ARC
  8
0
 62
     7
  6
CONTINUOUS
 10
4.674039
 20
5.276240
 30
0.000000
 40
0.617246
 50
156.634589
 51
190.969075
  0
ARC
  8
0
 62
     7
  6
CONTINUOUS
 10
4.114195
 20
5.512719
 30
0.000000
 40
0.010733
 50
341.373546
 51
489.202090
  0
ARC
  8
0
 62
     7
  6
CONTINUOUS
 10
4.645628
 20
5.333599
 30
-0.000000
 40
0.550075
 50
161.373546
 51
188.111179
  0
ARC
  8
0
 62
     7
  6
CONTINUOUS
 10
4.131993
 20
5.278758
 30
0.000000
 40
0.038414
 50
216.354636
 51
323.645364
  0
ARC
  8
0
 62
     7
  6
CONTINUOUS
 10
4.708481
 20
4.854439
 30
0.000000
 40
0.677396
 50
126.720288
 51
143.645364
  0
ARC
  8
0
 62
     7
  6
CONTINUOUS
 10
4.276789
 20
5.433170
 30
0.000000
 40
0.044607
 50
306.720288
 51
376.498612
  0
ARC
  8
0
 62
     7
  6
CONTINUOUS
 10
4.531381
 20
5.508577
 30
0.000000
 40
0.220918
 50
138.819004
 51
196.498612
  0
ARC
  8
0
 62
     7
  6
CONTINUOUS
 10
4.376498
 20
5.644076
 30
0.000000
 40
0.015130
 50
331.756632
 51
498.819004
  0
ARC
  8
0
 62
     7
  6
CONTINUOUS
 10
4.759273
 20
5.438461
 30
0.000000
 40
0.419375
 50
151.756632
 51
172.534347
  0
ARC
  8
0
 62
     7
  6
CONTINUOUS
 10
4.363857
 20
5.481305
 30
-0.000000
 40
0.023494
 50
150.283082
 51
273.058522
  0
ARC
  8
0
 62
     7
  6
CONTINUOUS
 10
4.353079
 20
5.683022
 30
0.000000
 40
0.225499
 50
273.058522
 51
312.248214
  0
ARC
  8
0
 62
     7
  6
CONTINUOUS
 10
4.146170
 20
5.910826
 30
0.000000
 40
0.533242
 50
312.248214
 51
338.327421
  0
ARC
  8
0
 62
     7
  6
CONTINUOUS
 10
5.114590
 20
5.196833
 30
0.000000
 40
0.345255
 50
112.368242
 51
147.735687
  0
ARC
  8
0
 62
     7
  6
CONTINUOUS
 10
3.646507
 20
5.608175
 30
0.000000
 40
1.347500
 50
292.926042
 51
356.059986
  0
ARC
  8
0
 62
     7
  6
CONTINUOUS
 10
4.168448
 20
4.429135
 30
0.000000
 40
0.062090
 50
160.450041
 51
272.739988
  0
ARC
  8
0
 62
     7
  6
CONTINUOUS
 10
3.938285
 20
4.939042
 30
0.000000
 40
0.518375
 50
289.337722
 51
331.303631
  0
ARC
  8
0
 62
     7
  6
CONTINUOUS
 10
4.374733
 20
4.700129
 30
0.000000
 40
0.020815
 50
331.303631
 51
495.814340
  0
ARC
  8
0
 62
     7
  6
CONTINUOUS
 10
4.607307
 20
4.817762
 30
0.000000
 40
0.268125
 50
157.380135
 51
202.619865
  0
ARC
  8
0
 62
     7
  6
CONTINUOUS
 10
4.320569
 20
5.262390
 30
0.000000
 40
0.343750
 50
276.554408
 51
309.074817
  0
ARC
  8
0
 62
     7
  6
CONTINUOUS
 10
4.596686
 20
5.011603
 30
0.000000
 40
0.061574
 50
127.260277
 51
195.132618
  0
ARC
  8
0
 62
     7
  6
CONTINUOUS
 10
4.546813
 20
5.235469
 30
0.000000
 40
0.175312
 50
274.119302
 51
330.264276
  0
ARC
  8
0
 62
     7
  6
CONTINUOUS
 10
4.707635
 20
5.169139
 30
0.000000
 40
0.022344
 50
112.619865
 51
247.380135
  0
ARC
  8
0
 62
     7
  6
CONTINUOUS
 10
4.593772
 20
5.442411
 30
0.000000
 40
0.273701
 50
292.619865
 51
333.797822
  0
ARC
  8
0
 62
     7
  6
CONTINUOUS
 10
4.857889
 20
5.358889
 30
0.000000
 40
0.041680
 50
147.735687
 51
243.585643
  0
ARC
  8
0
 62
     7
  6
CONTINUOUS
 10
4.254486
 20
4.853074
 30
-0.000000
 40
0.035412
 50
330.383259
 51
482.587493
  0
ARC
  8
0
 62
     7
  6
CONTINUOUS
 10
4.112554
 20
5.075115
 30
0.000000
 40
0.228117
 50
250.761976
 51
302.587493
  0
ARC
  8
0
 62
     7
  6
CONTINUOUS
 10
3.872716
 20
4.387865
 30
0.000000
 40
0.499780
 50
70.761976
 51
148.258535
  0
ARC
  8
0
 62
     7
  6
CONTINUOUS
 10
3.581108
 20
4.588680
 30
0.000000
 40
0.147170
 50
155.035697
 51
204.964303
  0
ARC
  8
0
 62
     7
  6
CONTINUOUS
 10
3.382375
 20
4.275359
 30
0.000000
 40
0.259558
 50
75.426042
 51
104.573958
  0
ARC
  8
0
 62
     7
  6
CONTINUOUS
 10
3.344769
 20
4.420003
 30
0.000000
 40
0.110105
 50
104.573958
 51
255.426042
  0
ARC
  8
0
 62
     7
  6
CONTINUOUS
 10
3.646507
 20
5.608175
 30
0.000000
 40
1.347500
 50
255.724056
 51
264.700752
  0
ARC
  8
0
 62
     7
  6
CONTINUOUS
 10
3.351977
 20
5.326052
 30
-0.000000
 40
1.068503
 50
279.183249
 51
326.385470
  0
ARC
  8
0
 62
     7
  6
CONTINUOUS
 10
4.718136
 20
4.589505
 30
-0.000000
 40
0.497917
 50
150.383259
 51
163.066945
  0
ARC
  8
0
 62
     7
  6
CONTINUOUS
 10
3.321349
 20
4.712668
 30
0.000000
 40
0.083359
 50
312.075022
 51
407.924978
  0
ARC
  8
0
 62
     7
  6
CONTINUOUS
 10
2.862598
 20
5.220823
 30
-0.000000
 40
0.767957
 50
290.924993
 51
312.075022
  0
ARC
  8
0
 62
     7
  6
CONTINUOUS
 10
3.118683
 20
4.551081
 30
-0.000000
 40
0.050925
 50
182.731416
 51
290.924993
  0
ARC
  8
0
 62
     7
  6
CONTINUOUS
 10
2.968503
 20
4.543916
 30
-0.000000
 40
0.099425
 50
280.805679
 51
362.731416
  0
ARC
  8
0
 62
     7
  6
CONTINUOUS
 10
3.646507
 20
5.608175
 30
0.000000
 40
1.347500
 50
184.062195
 51
240.426042
  0
ARC
  8
0
 62
     7
  6
CONTINUOUS
 10
1.976460
 20
5.098261
 30
0.000000
 40
0.533242
 50
25.036349
 51
51.115556
  0
ARC
  8
0
 62
     7
  6
CONTINUOUS
 10
2.490536
 20
5.282676
 30
0.000000
 40
0.051562
 50
126.869898
 51
233.130102
  0
ARC
  8
0
 62
     7
  6
CONTINUOUS
 10
2.390162
 20
5.042583
 30
0.000000
 40
0.210618
 50
26.654611
 51
70.750576
  0
ARC
  8
0
 62
     7
  6
CONTINUOUS
 10
2.578397
 20
5.109568
 30
0.000000
 40
0.027500
 50
90.000000
 51
270.000000
  0
ARC
  8
0
 62
     7
  6
CONTINUOUS
 10
2.578397
 20
4.929400
 30
0.000000
 40
0.152668
 50
27.620895
 51
90.000000
  0
ARC
  8
0
 62
     7
  6
CONTINUOUS
 10
2.732000
 20
4.965805
 30
0.000000
 40
0.038958
 50
118.072487
 51
241.927513
  0
ARC
  8
0
 62
     7
  6
CONTINUOUS
 10
3.021829
 20
5.509235
 30
-0.000000
 40
0.654845
 50
241.927513
 51
268.018114
  0
ARC
  8
0
 62
     7
  6
CONTINUOUS
 10
2.978557
 20
4.827281
 30
0.000000
 40
0.034375
 50
315.724915
 51
413.130102
  0
ARC
  8
0
 62
     7
  6
CONTINUOUS
 10
3.140669
 20
5.061096
 30
0.000000
 40
0.292187
 50
241.927513
 51
298.072487
  0
ARC
  8
0
 62
     7
  6
CONTINUOUS
 10
3.312940
 20
4.738089
 30
-0.000000
 40
0.073888
 50
29.562773
 51
118.072487
  0
LINE
  8
0
 62
     7
  6
CONTINUOUS
 10
2.897376
 20
5.721818
 30
0.000000
 11
2.650993
 21
5.785080
 31
0.000000
  0
ARC
  8
0
 62
     7
  6
CONTINUOUS
 10
2.641894
 20
5.749644
 30
0.000000
 40
0.036585
 50
75.599714
 51
191.079287
  0
ARC
  8
0
 62
     7
  6
CONTINUOUS
 10
2.544116
 20
5.824267
 30
0.000000
 40
0.102449
 50
232.845860
 51
307.154140
  0
ARC
  8
0
 62
     7
  6
CONTINUOUS
 10
2.491666
 20
5.684506
 30
0.000000
 40
0.058867
 50
99.213171
 51
179.145597
  0
ARC
  8
0
 62
     7
  6
CONTINUOUS
 10
2.414117
 20
5.402002
 30
0.000000
 40
0.283997
 50
86.226880
 51
111.492317
  0
ARC
  8
0
 62
     7
  6
CONTINUOUS
 10
3.646507
 20
5.608175
 30
0.000000
 40
1.347500
 50
142.926042
 51
177.511661
  0
ARC
  8
0
 62
     7
  6
CONTINUOUS
 10
3.090077
 20
6.272358
 30
0.000000
 40
0.539426
 50
164.059164
 51
254.098452
  0
LINE
  8
0
 62
     7
  6
CONTINUOUS
 10
2.942282
 20
5.753574
 30
0.000000
 11
2.897376
 21
5.721818
 31
0.000000
  0
LINE
  8
0
 62
     7
  6
CONTINUOUS
 10
3.030457
 20
6.092966
 30
0.000000
 11
2.970871
 21
6.008797
 31
-0.000000
  0
ARC
  8
0
 62
     7
  6
CONTINUOUS
 10
3.778312
 20
6.751455
 30
0.000000
 40
0.996442
 50
208.688148
 51
221.364070
  0
ARC
  8
0
 62
     7
  6
CONTINUOUS
 10
3.106025
 20
6.383570
 30
-0.000000
 40
0.230080
 50
112.022055
 51
208.688148
  0
ARC
  8
0
 62
     7
  6
CONTINUOUS
 10
3.002555
 20
6.639383
 30
0.000000
 40
0.045866
 50
292.022055
 51
376.855191
  0
ARC
  8
0
 62
     7
  6
CONTINUOUS
 10
3.412444
 20
6.763567
 30
0.000000
 40
0.382422
 50
175.093863
 51
196.855191
  0
ARC
  8
0
 62
     7
  6
CONTINUOUS
 10
3.646507
 20
5.608175
 30
0.000000
 40
1.347500
 50
117.370801
 51
123.692602
  0
ARC
  8
0
 62
     7
  6
CONTINUOUS
 10
3.061866
 20
6.464353
 30
-0.000000
 40
0.301680
 50
121.511298
 51
174.146472
  0
ARC
  8
0
 62
     7
  6
CONTINUOUS
 10
3.302822
 20
6.439650
 30
0.000000
 40
0.543898
 50
174.146472
 51
232.387574
  0
INSERT
  8
Default
 62
     7
  2
Object_0
 10
-10.160000
 20
-10.160000
 30
0.000000
  0
ENDSEC
  0
EOF
