0
SECTION
2
HEADER
9
$ACADVER
1
AC1003
9
$INSBASE
10
0.0
20
0.0
30
0.0
9
$EXTMIN
10
0.000
20
0.000
30
0.0
9
$EXTMAX
10
654.000
20
728.000
30
0.0
9
$LIMMIN
10
0.000
20
0.000
9
$LIMMAX
10
654.000
20
728.000
9
$LTSCALE
40
1.0
9
$LUNITS
70
2
9
$LUPREC
70
3
9
$LIMCHECK
70
0
9
$UCSNAME
2

9
$UCSORG
10
0.0
20
0.0
30
0.0
9
$UCSXDIR
10
1.0
20
0.0
30
0.0
9
$UCSYDIR
10
0.0
20
1.0
30
0.0
9
$WORLDVIEW
70
1
9
$UNITMODE
70
0
0
ENDSEC
0
SECTION
2
TABLES
0
TABLE
2
VPORT
70
1
0
VPORT
2
*ACTIVE
70
0
10
0.0
20
0.0
11
1.0
21
1.0
12
327.000
22
364.000
13
0.0
23
0.0
14
1.0
24
1.0
15
0.0
25
0.0
16
0.0
26
0.0
36
1.0
17
0.0
27
0.0
37
0.0
40
500.0
41
1.113
42
50.0
43
0.0
44
0.0
50
0.0
51
0.0
71
0
72
100
73
1
74
1
75
0
76
0
77
0
78
0
0
ENDTAB
0
TABLE
2
LTYPE
70
1
0
LTYPE
2
CONTINUOUS
70
64
3
Solid line
72
65
73
0
40
0.000
0
ENDTAB
0
TABLE
2
LAYER
70
1
0
LAYER
2
0
70
64
62
7
6
CONTINUOUS
0
ENDTAB
0
ENDSEC
0
SECTION
2
BLOCKS
0
ENDSEC
0
SECTION
2
ENTITIES
0
POLYLINE
8
0
6
CONTINUOUS
66
1
62
7
10
0.0
20
0.0
30
0.000000
0
VERTEX
8
0
10
322.000000
20
660.000000
0
VERTEX
8
0
10
324.900000
20
661.300000
0
VERTEX
8
0
10
328.000000
20
663.000000
0
VERTEX
8
0
10
329.769231
20
666.153846
0
VERTEX
8
0
10
331.500000
20
671.000000
0
VERTEX
8
0
10
329.230769
20
677.153846
0
VERTEX
8
0
10
326.000000
20
681.000000
0
VERTEX
8
0
10
324.000000
20
682.000000
0
VERTEX
8
0
10
317.000000
20
682.000000
0
VERTEX
8
0
10
311.000000
20
677.000000
0
VERTEX
8
0
10
310.300000
20
674.900000
0
VERTEX
8
0
10
309.000000
20
672.000000
0
VERTEX
8
0
10
311.769231
20
664.846154
0
VERTEX
8
0
10
314.000000
20
662.000000
0
VERTEX
8
0
10
319.088235
20
660.352941
0
VERTEX
8
0
10
322.000000
20
660.000000
0
SEQEND
0
POLYLINE
8
0
6
CONTINUOUS
66
1
62
7
10
0.0
20
0.0
30
0.000000
0
VERTEX
8
0
10
366.000000
20
640.000000
0
VERTEX
8
0
10
369.000000
20
641.000000
0
SEQEND
0
POLYLINE
8
0
6
CONTINUOUS
66
1
62
7
10
0.0
20
0.0
30
0.000000
0
VERTEX
8
0
10
183.000000
20
608.000000
0
VERTEX
8
0
10
181.000000
20
608.000000
0
SEQEND
0
POLYLINE
8
0
6
CONTINUOUS
66
1
62
7
10
0.0
20
0.0
30
0.000000
0
VERTEX
8
0
10
183.000000
20
608.000000
0
VERTEX
8
0
10
183.000000
20
609.000000
0
VERTEX
8
0
10
208.900000
20
622.200000
0
VERTEX
8
0
10
247.088235
20
635.647059
0
VERTEX
8
0
10
275.923077
20
641.384615
0
VERTEX
8
0
10
294.026154
20
643.529231
0
VERTEX
8
0
10
310.973846
20
644.470769
0
VERTEX
8
0
10
333.000000
20
645.000000
0
VERTEX
8
0
10
365.000000
20
642.000000
0
VERTEX
8
0
10
366.000000
20
640.000000
0
SEQEND
0
POLYLINE
8
0
6
CONTINUOUS
66
1
62
7
10
0.0
20
0.0
30
0.000000
0
VERTEX
8
0
10
183.000000
20
608.000000
0
VERTEX
8
0
10
271.952232
20
609.448975
0
VERTEX
8
0
10
277.900000
20
612.200000
0
VERTEX
8
0
10
279.900000
20
613.200000
0
VERTEX
8
0
10
290.088235
20
617.647059
0
VERTEX
8
0
10
297.923077
20
619.384615
0
VERTEX
8
0
10
306.000000
20
621.000000
0
VERTEX
8
0
10
326.000000
20
621.000000
0
VERTEX
8
0
10
327.000000
20
620.000000
0
VERTEX
8
0
10
329.000000
20
620.000000
0
VERTEX
8
0
10
338.846154
20
626.230769
0
VERTEX
8
0
10
366.000000
20
640.000000
0
SEQEND
0
POLYLINE
8
0
6
CONTINUOUS
66
1
62
7
10
0.0
20
0.0
30
0.000000
0
VERTEX
8
0
10
446.000000
20
595.000000
0
VERTEX
8
0
10
445.000000
20
596.000000
0
VERTEX
8
0
10
444.000000
20
595.000000
0
SEQEND
0
POLYLINE
8
0
6
CONTINUOUS
66
1
62
7
10
0.0
20
0.0
30
0.000000
0
VERTEX
8
0
10
446.000000
20
595.000000
0
VERTEX
8
0
10
447.000000
20
596.000000
0
SEQEND
0
POLYLINE
8
0
6
CONTINUOUS
66
1
62
7
10
0.0
20
0.0
30
0.000000
0
VERTEX
8
0
10
445.000000
20
594.000000
0
VERTEX
8
0
10
444.000000
20
595.000000
0
SEQEND
0
POLYLINE
8
0
6
CONTINUOUS
66
1
62
7
10
0.0
20
0.0
30
0.000000
0
VERTEX
8
0
10
445.000000
20
594.000000
0
VERTEX
8
0
10
446.000000
20
595.000000
0
SEQEND
0
POLYLINE
8
0
6
CONTINUOUS
66
1
62
7
10
0.0
20
0.0
30
0.000000
0
VERTEX
8
0
10
447.000000
20
596.000000
0
VERTEX
8
0
10
447.230769
20
597.846154
0
VERTEX
8
0
10
451.000000
20
604.000000
0
VERTEX
8
0
10
450.000000
20
609.000000
0
VERTEX
8
0
10
448.100000
20
610.200000
0
VERTEX
8
0
10
446.100000
20
611.200000
0
VERTEX
8
0
10
437.967005
20
613.538071
0
VERTEX
8
0
10
424.000000
20
615.000000
0
VERTEX
8
0
10
410.000000
20
615.000000
0
VERTEX
8
0
10
399.076923
20
612.615385
0
VERTEX
8
0
10
378.100000
20
605.700000
0
VERTEX
8
0
10
373.900000
20
604.200000
0
VERTEX
8
0
10
354.180000
20
593.760000
0
VERTEX
8
0
10
343.000000
20
585.000000
0
VERTEX
8
0
10
342.769231
20
584.153846
0
VERTEX
8
0
10
341.000000
20
582.000000
0
VERTEX
8
0
10
343.000000
20
580.000000
0
VERTEX
8
0
10
347.000000
20
579.000000
0
VERTEX
8
0
10
394.000000
20
579.000000
0
VERTEX
8
0
10
402.076923
20
580.615385
0
VERTEX
8
0
10
426.100000
20
588.700000
0
VERTEX
8
0
10
444.000000
20
595.000000
0
SEQEND
0
POLYLINE
8
0
6
CONTINUOUS
66
1
62
7
10
0.0
20
0.0
30
0.000000
0
VERTEX
8
0
10
125.000000
20
565.000000
0
VERTEX
8
0
10
126.000000
20
566.000000
0
SEQEND
0
POLYLINE
8
0
6
CONTINUOUS
66
1
62
7
10
0.0
20
0.0
30
0.000000
0
VERTEX
8
0
10
218.000000
20
550.000000
0
VERTEX
8
0
10
247.923077
20
555.384615
0
VERTEX
8
0
10
266.900000
20
562.200000
0
VERTEX
8
0
10
268.100000
20
562.700000
0
VERTEX
8
0
10
277.000000
20
567.000000
0
VERTEX
8
0
10
279.000000
20
569.000000
0
VERTEX
8
0
10
278.000000
20
573.000000
0
VERTEX
8
0
10
274.000000
20
576.000000
0
VERTEX
8
0
10
178.000000
20
576.000000
0
VERTEX
8
0
10
167.100000
20
571.800000
0
VERTEX
8
0
10
165.900000
20
571.200000
0
VERTEX
8
0
10
161.000000
20
567.000000
0
VERTEX
8
0
10
161.000000
20
562.000000
0
VERTEX
8
0
10
162.230769
20
560.153846
0
VERTEX
8
0
10
165.000000
20
556.000000
0
VERTEX
8
0
10
179.088235
20
551.352941
0
VERTEX
8
0
10
181.911765
20
550.647059
0
VERTEX
8
0
10
218.000000
20
550.000000
0
SEQEND
0
POLYLINE
8
0
6
CONTINUOUS
66
1
62
7
10
0.0
20
0.0
30
0.000000
0
VERTEX
8
0
10
445.000000
20
594.000000
0
VERTEX
8
0
10
437.846154
20
589.230769
0
VERTEX
8
0
10
418.900000
20
579.200000
0
VERTEX
8
0
10
411.088235
20
576.647059
0
VERTEX
8
0
10
395.946154
20
573.430769
0
VERTEX
8
0
10
389.053846
20
572.569231
0
VERTEX
8
0
10
374.983373
20
571.482185
0
VERTEX
8
0
10
347.000000
20
571.000000
0
VERTEX
8
0
10
346.000000
20
570.000000
0
VERTEX
8
0
10
353.000000
20
563.000000
0
VERTEX
8
0
10
353.000000
20
562.000000
0
VERTEX
8
0
10
347.000000
20
560.000000
0
VERTEX
8
0
10
346.000000
20
559.000000
0
VERTEX
8
0
10
347.769231
20
555.846154
0
VERTEX
8
0
10
348.000000
20
555.000000
0
VERTEX
8
0
10
352.820000
20
550.760000
0
VERTEX
8
0
10
356.180000
20
548.240000
0
VERTEX
8
0
10
363.100000
20
545.300000
0
VERTEX
8
0
10
368.911765
20
543.647059
0
VERTEX
8
0
10
388.048780
20
539.439024
0
VERTEX
8
0
10
411.000000
20
537.000000
0
VERTEX
8
0
10
437.053846
20
538.569231
0
VERTEX
8
0
10
447.911765
20
540.352941
0
VERTEX
8
0
10
461.900000
20
545.200000
0
VERTEX
8
0
10
466.000000
20
547.000000
0
VERTEX
8
0
10
467.230769
20
548.846154
0
VERTEX
8
0
10
469.615385
20
553.076923
0
VERTEX
8
0
10
470.384615
20
556.923077
0
VERTEX
8
0
10
471.000000
20
565.000000
0
VERTEX
8
0
10
469.569231
20
572.946154
0
VERTEX
8
0
10
465.700000
20
588.900000
0
VERTEX
8
0
10
464.800000
20
590.900000
0
VERTEX
8
0
10
459.000000
20
600.000000
0
VERTEX
8
0
10
457.000000
20
600.500000
0
VERTEX
8
0
10
449.100000
20
596.800000
0
VERTEX
8
0
10
447.000000
20
596.000000
0
SEQEND
0
POLYLINE
8
0
6
CONTINUOUS
66
1
62
7
10
0.0
20
0.0
30
0.000000
0
VERTEX
8
0
10
464.000000
20
508.000000
0
VERTEX
8
0
10
476.000000
20
512.000000
0
VERTEX
8
0
10
480.000000
20
516.000000
0
VERTEX
8
0
10
479.000000
20
522.000000
0
VERTEX
8
0
10
476.000000
20
525.000000
0
VERTEX
8
0
10
473.900000
20
525.800000
0
VERTEX
8
0
10
473.100000
20
526.200000
0
VERTEX
8
0
10
472.000000
20
527.000000
0
VERTEX
8
0
10
468.000000
20
527.000000
0
VERTEX
8
0
10
452.100000
20
522.700000
0
VERTEX
8
0
10
447.900000
20
521.200000
0
VERTEX
8
0
10
445.000000
20
519.000000
0
VERTEX
8
0
10
443.000000
20
514.000000
0
VERTEX
8
0
10
445.900000
20
511.800000
0
VERTEX
8
0
10
460.076923
20
508.384615
0
VERTEX
8
0
10
464.000000
20
508.000000
0
SEQEND
0
POLYLINE
8
0
6
CONTINUOUS
66
1
62
7
10
0.0
20
0.0
30
0.000000
0
VERTEX
8
0
10
506.000000
20
490.000000
0
VERTEX
8
0
10
508.000000
20
491.000000
0
VERTEX
8
0
10
510.000000
20
494.000000
0
VERTEX
8
0
10
509.000000
20
500.000000
0
VERTEX
8
0
10
506.000000
20
503.000000
0
VERTEX
8
0
10
496.060000
20
504.420000
0
VERTEX
8
0
10
485.000000
20
505.000000
0
VERTEX
8
0
10
476.911765
20
503.352941
0
VERTEX
8
0
10
472.000000
20
502.000000
0
VERTEX
8
0
10
471.000000
20
501.000000
0
VERTEX
8
0
10
470.000000
20
498.000000
0
VERTEX
8
0
10
471.000000
20
497.000000
0
VERTEX
8
0
10
481.088235
20
492.352941
0
VERTEX
8
0
10
483.911765
20
491.647059
0
VERTEX
8
0
10
491.029183
20
490.466926
0
VERTEX
8
0
10
506.000000
20
490.000000
0
SEQEND
0
POLYLINE
8
0
6
CONTINUOUS
66
1
62
7
10
0.0
20
0.0
30
0.000000
0
VERTEX
8
0
10
176.000000
20
489.000000
0
VERTEX
8
0
10
208.911765
20
496.352941
0
VERTEX
8
0
10
245.900000
20
509.200000
0
VERTEX
8
0
10
260.153846
20
516.769231
0
VERTEX
8
0
10
271.000000
20
524.000000
0
VERTEX
8
0
10
282.240000
20
535.820000
0
VERTEX
8
0
10
292.000000
20
549.000000
0
VERTEX
8
0
10
298.000000
20
549.000000
0
VERTEX
8
0
10
301.911765
20
547.647059
0
VERTEX
8
0
10
303.000000
20
547.000000
0
VERTEX
8
0
10
319.000000
20
547.000000
0
VERTEX
8
0
10
325.940000
20
548.420000
0
VERTEX
8
0
10
334.900000
20
552.200000
0
VERTEX
8
0
10
337.000000
20
553.000000
0
VERTEX
8
0
10
338.200000
20
554.900000
0
VERTEX
8
0
10
340.000000
20
558.000000
0
VERTEX
8
0
10
338.384615
20
568.076923
0
VERTEX
8
0
10
336.647059
20
575.911765
0
VERTEX
8
0
10
333.769231
20
581.846154
0
VERTEX
8
0
10
330.000000
20
587.000000
0
VERTEX
8
0
10
324.932432
20
588.594595
0
VERTEX
8
0
10
320.067568
20
589.405405
0
VERTEX
8
0
10
313.000000
20
590.000000
0
VERTEX
8
0
10
297.900000
20
585.200000
0
VERTEX
8
0
10
292.900000
20
582.200000
0
VERTEX
8
0
10
289.000000
20
579.000000
0
VERTEX
8
0
10
287.000000
20
574.000000
0
VERTEX
8
0
10
288.000000
20
553.000000
0
VERTEX
8
0
10
284.000000
20
549.000000
0
VERTEX
8
0
10
280.000000
20
547.000000
0
VERTEX
8
0
10
278.000000
20
548.000000
0
VERTEX
8
0
10
280.200000
20
551.900000
0
VERTEX
8
0
10
283.000000
20
558.000000
0
VERTEX
8
0
10
281.000000
20
560.000000
0
VERTEX
8
0
10
244.900000
20
549.300000
0
VERTEX
8
0
10
243.100000
20
548.700000
0
VERTEX
8
0
10
227.932432
20
545.405405
0
VERTEX
8
0
10
217.067568
20
543.594595
0
VERTEX
8
0
10
216.000000
20
543.000000
0
VERTEX
8
0
10
190.000000
20
543.000000
0
VERTEX
8
0
10
185.076923
20
544.384615
0
VERTEX
8
0
10
164.000000
20
549.000000
0
VERTEX
8
0
10
157.000000
20
548.000000
0
VERTEX
8
0
10
156.000000
20
547.000000
0
VERTEX
8
0
10
155.700000
20
545.100000
0
VERTEX
8
0
10
155.000000
20
544.000000
0
VERTEX
8
0
10
155.000000
20
535.000000
0
VERTEX
8
0
10
158.352941
20
518.088235
0
VERTEX
8
0
10
161.700000
20
506.900000
0
VERTEX
8
0
10
166.230769
20
496.153846
0
VERTEX
8
0
10
168.000000
20
493.000000
0
VERTEX
8
0
10
172.900000
20
489.800000
0
VERTEX
8
0
10
176.000000
20
489.000000
0
SEQEND
0
POLYLINE
8
0
6
CONTINUOUS
66
1
62
7
10
0.0
20
0.0
30
0.000000
0
VERTEX
8
0
10
208.000000
20
468.000000
0
VERTEX
8
0
10
209.000000
20
469.000000
0
SEQEND
0
POLYLINE
8
0
6
CONTINUOUS
66
1
62
7
10
0.0
20
0.0
30
0.000000
0
VERTEX
8
0
10
206.000000
20
467.000000
0
VERTEX
8
0
10
208.000000
20
468.000000
0
SEQEND
0
POLYLINE
8
0
6
CONTINUOUS
66
1
62
7
10
0.0
20
0.0
30
0.000000
0
VERTEX
8
0
10
207.000000
20
466.000000
0
VERTEX
8
0
10
206.000000
20
467.000000
0
SEQEND
0
POLYLINE
8
0
6
CONTINUOUS
66
1
62
7
10
0.0
20
0.0
30
0.000000
0
VERTEX
8
0
10
207.000000
20
466.000000
0
VERTEX
8
0
10
208.000000
20
468.000000
0
SEQEND
0
POLYLINE
8
0
6
CONTINUOUS
66
1
62
7
10
0.0
20
0.0
30
0.000000
0
VERTEX
8
0
10
434.000000
20
460.000000
0
VERTEX
8
0
10
438.000000
20
465.000000
0
VERTEX
8
0
10
438.000000
20
473.000000
0
VERTEX
8
0
10
430.700000
20
490.900000
0
VERTEX
8
0
10
430.000000
20
492.000000
0
VERTEX
8
0
10
431.000000
20
494.000000
0
VERTEX
8
0
10
449.900000
20
483.800000
0
VERTEX
8
0
10
459.000000
20
479.000000
0
VERTEX
8
0
10
468.000000
20
479.000000
0
VERTEX
8
0
10
470.000000
20
481.000000
0
VERTEX
8
0
10
471.000000
20
486.000000
0
VERTEX
8
0
10
468.800000
20
489.900000
0
VERTEX
8
0
10
468.200000
20
491.100000
0
VERTEX
8
0
10
464.000000
20
496.000000
0
VERTEX
8
0
10
436.900000
20
513.800000
0
VERTEX
8
0
10
430.100000
20
518.200000
0
VERTEX
8
0
10
411.923077
20
528.615385
0
VERTEX
8
0
10
407.000000
20
530.000000
0
VERTEX
8
0
10
404.000000
20
530.000000
0
VERTEX
8
0
10
401.000000
20
527.000000
0
VERTEX
8
0
10
401.000000
20
526.000000
0
VERTEX
8
0
10
409.243902
20
513.195122
0
VERTEX
8
0
10
417.754098
20
502.795082
0
VERTEX
8
0
10
419.569231
20
498.946154
0
VERTEX
8
0
10
421.455172
20
480.037931
0
VERTEX
8
0
10
423.352941
20
469.088235
0
VERTEX
8
0
10
426.000000
20
464.000000
0
VERTEX
8
0
10
428.900000
20
461.800000
0
VERTEX
8
0
10
434.000000
20
460.000000
0
SEQEND
0
POLYLINE
8
0
6
CONTINUOUS
66
1
62
7
10
0.0
20
0.0
30
0.000000
0
VERTEX
8
0
10
376.000000
20
454.000000
0
VERTEX
8
0
10
379.100000
20
455.700000
0
VERTEX
8
0
10
382.804878
20
457.243902
0
VERTEX
8
0
10
387.195122
20
460.756098
0
VERTEX
8
0
10
394.000000
20
467.000000
0
VERTEX
8
0
10
401.800000
20
479.100000
0
VERTEX
8
0
10
402.200000
20
479.900000
0
VERTEX
8
0
10
406.000000
20
492.000000
0
VERTEX
8
0
10
406.000000
20
498.000000
0
VERTEX
8
0
10
403.647059
20
507.911765
0
VERTEX
8
0
10
402.200000
20
512.100000
0
VERTEX
8
0
10
399.756098
20
516.804878
0
VERTEX
8
0
10
396.243902
20
521.195122
0
VERTEX
8
0
10
390.000000
20
528.000000
0
VERTEX
8
0
10
382.900000
20
532.800000
0
VERTEX
8
0
10
372.100000
20
538.200000
0
VERTEX
8
0
10
358.088235
20
542.352941
0
VERTEX
8
0
10
356.923077
20
542.615385
0
VERTEX
8
0
10
344.000000
20
545.000000
0
VERTEX
8
0
10
341.000000
20
542.000000
0
VERTEX
8
0
10
341.544828
20
533.962069
0
VERTEX
8
0
10
342.455172
20
523.037931
0
VERTEX
8
0
10
345.352941
20
499.088235
0
VERTEX
8
0
10
365.200000
20
467.100000
0
VERTEX
8
0
10
367.200000
20
463.100000
0
VERTEX
8
0
10
371.000000
20
456.000000
0
VERTEX
8
0
10
376.000000
20
454.000000
0
SEQEND
0
POLYLINE
8
0
6
CONTINUOUS
66
1
62
7
10
0.0
20
0.0
30
0.000000
0
VERTEX
8
0
10
502.000000
20
445.000000
0
VERTEX
8
0
10
505.900000
20
447.200000
0
VERTEX
8
0
10
509.000000
20
449.000000
0
VERTEX
8
0
10
511.000000
20
453.000000
0
VERTEX
8
0
10
508.000000
20
460.000000
0
VERTEX
8
0
10
505.000000
20
463.000000
0
VERTEX
8
0
10
488.846154
20
473.769231
0
VERTEX
8
0
10
488.100000
20
474.200000
0
VERTEX
8
0
10
479.000000
20
478.000000
0
VERTEX
8
0
10
476.000000
20
478.000000
0
VERTEX
8
0
10
473.000000
20
476.000000
0
VERTEX
8
0
10
472.000000
20
474.000000
0
VERTEX
8
0
10
473.800000
20
466.900000
0
VERTEX
8
0
10
479.000000
20
459.000000
0
VERTEX
8
0
10
482.820000
20
455.760000
0
VERTEX
8
0
10
490.180000
20
450.240000
0
VERTEX
8
0
10
499.100000
20
446.200000
0
VERTEX
8
0
10
502.000000
20
445.000000
0
SEQEND
0
POLYLINE
8
0
6
CONTINUOUS
66
1
62
7
10
0.0
20
0.0
30
0.000000
0
VERTEX
8
0
10
468.000000
20
442.000000
0
VERTEX
8
0
10
471.000000
20
444.000000
0
VERTEX
8
0
10
471.000000
20
451.000000
0
VERTEX
8
0
10
469.300000
20
456.100000
0
VERTEX
8
0
10
463.752941
20
464.788235
0
VERTEX
8
0
10
458.000000
20
472.000000
0
VERTEX
8
0
10
452.000000
20
477.000000
0
VERTEX
8
0
10
448.000000
20
477.000000
0
VERTEX
8
0
10
446.000000
20
475.000000
0
VERTEX
8
0
10
446.615385
20
467.923077
0
VERTEX
8
0
10
447.384615
20
464.076923
0
VERTEX
8
0
10
451.000000
20
452.000000
0
VERTEX
8
0
10
457.900000
20
445.800000
0
VERTEX
8
0
10
466.100000
20
442.300000
0
VERTEX
8
0
10
468.000000
20
442.000000
0
SEQEND
0
POLYLINE
8
0
6
CONTINUOUS
66
1
62
7
10
0.0
20
0.0
30
0.000000
0
VERTEX
8
0
10
148.000000
20
436.000000
0
VERTEX
8
0
10
170.100000
20
439.800000
0
VERTEX
8
0
10
179.000000
20
444.000000
0
VERTEX
8
0
10
181.000000
20
446.000000
0
VERTEX
8
0
10
181.000000
20
449.000000
0
VERTEX
8
0
10
179.000000
20
452.000000
0
VERTEX
8
0
10
175.100000
20
453.300000
0
VERTEX
8
0
10
167.000000
20
456.000000
0
VERTEX
8
0
10
148.000000
20
456.000000
0
VERTEX
8
0
10
144.088235
20
454.647059
0
VERTEX
8
0
10
137.180000
20
451.760000
0
VERTEX
8
0
10
133.000000
20
449.000000
0
VERTEX
8
0
10
130.000000
20
446.000000
0
VERTEX
8
0
10
130.000000
20
441.000000
0
VERTEX
8
0
10
131.000000
20
440.000000
0
VERTEX
8
0
10
143.067568
20
436.405405
0
VERTEX
8
0
10
148.000000
20
436.000000
0
SEQEND
0
POLYLINE
8
0
6
CONTINUOUS
66
1
62
7
10
0.0
20
0.0
30
0.000000
0
VERTEX
8
0
10
207.000000
20
466.000000
0
VERTEX
8
0
10
189.800000
20
444.100000
0
VERTEX
8
0
10
187.000000
20
439.000000
0
VERTEX
8
0
10
188.000000
20
434.000000
0
VERTEX
8
0
10
190.000000
20
432.000000
0
VERTEX
8
0
10
194.000000
20
431.000000
0
VERTEX
8
0
10
199.911765
20
432.352941
0
VERTEX
8
0
10
206.846154
20
435.230769
0
VERTEX
8
0
10
209.153846
20
436.769231
0
VERTEX
8
0
10
212.000000
20
438.000000
0
VERTEX
8
0
10
227.000000
20
453.000000
0
VERTEX
8
0
10
243.769231
20
476.153846
0
VERTEX
8
0
10
248.230769
20
482.846154
0
VERTEX
8
0
10
256.000000
20
497.000000
0
VERTEX
8
0
10
256.000000
20
503.000000
0
VERTEX
8
0
10
254.000000
20
505.000000
0
VERTEX
8
0
10
253.000000
20
505.000000
0
VERTEX
8
0
10
242.236496
20
495.750365
0
VERTEX
8
0
10
214.000000
20
469.000000
0
VERTEX
8
0
10
213.000000
20
470.000000
0
VERTEX
8
0
10
212.000000
20
476.000000
0
VERTEX
8
0
10
211.000000
20
477.000000
0
VERTEX
8
0
10
205.932432
20
478.594595
0
VERTEX
8
0
10
201.067568
20
479.405405
0
VERTEX
8
0
10
192.000000
20
480.000000
0
VERTEX
8
0
10
178.900000
20
476.300000
0
VERTEX
8
0
10
175.000000
20
475.000000
0
VERTEX
8
0
10
170.000000
20
470.000000
0
VERTEX
8
0
10
170.000000
20
468.000000
0
VERTEX
8
0
10
173.000000
20
465.000000
0
VERTEX
8
0
10
175.100000
20
464.200000
0
VERTEX
8
0
10
175.900000
20
463.800000
0
VERTEX
8
0
10
183.000000
20
462.000000
0
VERTEX
8
0
10
191.000000
20
462.000000
0
VERTEX
8
0
10
204.100000
20
465.800000
0
VERTEX
8
0
10
206.000000
20
467.000000
0
SEQEND
0
POLYLINE
8
0
6
CONTINUOUS
66
1
62
7
10
0.0
20
0.0
30
0.000000
0
VERTEX
8
0
10
277.000000
20
424.000000
0
VERTEX
8
0
10
278.100000
20
424.800000
0
VERTEX
8
0
10
285.000000
20
428.000000
0
VERTEX
8
0
10
297.000000
20
440.000000
0
VERTEX
8
0
10
305.800000
20
452.100000
0
VERTEX
8
0
10
310.200000
20
460.900000
0
VERTEX
8
0
10
316.000000
20
479.000000
0
VERTEX
8
0
10
316.000000
20
498.000000
0
VERTEX
8
0
10
305.000000
20
538.000000
0
VERTEX
8
0
10
301.000000
20
542.000000
0
VERTEX
8
0
10
294.756098
20
534.195122
0
VERTEX
8
0
10
286.756098
20
524.195122
0
VERTEX
8
0
10
265.230769
20
493.846154
0
VERTEX
8
0
10
262.700000
20
488.100000
0
VERTEX
8
0
10
260.445545
20
480.955446
0
VERTEX
8
0
10
259.554455
20
472.044554
0
VERTEX
8
0
10
259.000000
20
459.000000
0
VERTEX
8
0
10
260.405405
20
453.067568
0
VERTEX
8
0
10
261.405405
20
447.067568
0
VERTEX
8
0
10
268.000000
20
430.000000
0
VERTEX
8
0
10
272.000000
20
426.000000
0
VERTEX
8
0
10
276.100000
20
424.200000
0
VERTEX
8
0
10
277.000000
20
424.000000
0
SEQEND
0
POLYLINE
8
0
6
CONTINUOUS
66
1
62
7
10
0.0
20
0.0
30
0.000000
0
VERTEX
8
0
10
231.000000
20
405.000000
0
VERTEX
8
0
10
235.000000
20
407.000000
0
VERTEX
8
0
10
240.200000
20
413.900000
0
VERTEX
8
0
10
241.560976
20
418.048780
0
VERTEX
8
0
10
242.439024
20
425.951220
0
VERTEX
8
0
10
243.000000
20
437.000000
0
VERTEX
8
0
10
241.352941
20
444.088235
0
VERTEX
8
0
10
239.000000
20
451.000000
0
VERTEX
8
0
10
236.000000
20
454.000000
0
VERTEX
8
0
10
234.000000
20
453.000000
0
VERTEX
8
0
10
228.769231
20
447.153846
0
VERTEX
8
0
10
226.800000
20
444.100000
0
VERTEX
8
0
10
222.647059
20
433.088235
0
VERTEX
8
0
10
221.594595
20
427.067568
0
VERTEX
8
0
10
221.000000
20
419.000000
0
VERTEX
8
0
10
223.230769
20
412.153846
0
VERTEX
8
0
10
227.000000
20
407.000000
0
VERTEX
8
0
10
231.000000
20
405.000000
0
SEQEND
0
POLYLINE
8
0
6
CONTINUOUS
66
1
62
7
10
0.0
20
0.0
30
0.000000
0
VERTEX
8
0
10
146.000000
20
401.000000
0
VERTEX
8
0
10
147.088235
20
401.647059
0
VERTEX
8
0
10
154.820000
20
404.240000
0
VERTEX
8
0
10
158.846154
20
407.230769
0
VERTEX
8
0
10
175.000000
20
419.000000
0
VERTEX
8
0
10
178.000000
20
426.000000
0
VERTEX
8
0
10
178.000000
20
428.000000
0
VERTEX
8
0
10
175.000000
20
431.000000
0
VERTEX
8
0
10
172.000000
20
432.000000
0
VERTEX
8
0
10
167.000000
20
432.000000
0
VERTEX
8
0
10
150.100000
20
426.700000
0
VERTEX
8
0
10
148.900000
20
426.200000
0
VERTEX
8
0
10
140.000000
20
422.000000
0
VERTEX
8
0
10
134.000000
20
416.000000
0
VERTEX
8
0
10
133.000000
20
409.000000
0
VERTEX
8
0
10
135.000000
20
405.000000
0
VERTEX
8
0
10
138.900000
20
402.800000
0
VERTEX
8
0
10
146.000000
20
401.000000
0
SEQEND
0
POLYLINE
8
0
6
CONTINUOUS
66
1
62
7
10
0.0
20
0.0
30
0.000000
0
VERTEX
8
0
10
326.000000
20
377.000000
0
VERTEX
8
0
10
353.211765
20
398.752941
0
VERTEX
8
0
10
364.153846
20
406.769231
0
VERTEX
8
0
10
375.900000
20
413.200000
0
VERTEX
8
0
10
389.088235
20
418.647059
0
VERTEX
8
0
10
414.932432
20
424.405405
0
VERTEX
8
0
10
456.000000
20
428.000000
0
VERTEX
8
0
10
458.000000
20
430.000000
0
VERTEX
8
0
10
458.000000
20
432.000000
0
VERTEX
8
0
10
454.000000
20
436.000000
0
VERTEX
8
0
10
446.900000
20
440.800000
0
VERTEX
8
0
10
444.100000
20
442.200000
0
VERTEX
8
0
10
429.911765
20
448.647059
0
VERTEX
8
0
10
427.088235
20
449.352941
0
VERTEX
8
0
10
407.000000
20
454.000000
0
VERTEX
8
0
10
397.000000
20
454.000000
0
VERTEX
8
0
10
381.100000
20
450.700000
0
VERTEX
8
0
10
364.900000
20
445.200000
0
VERTEX
8
0
10
351.204918
20
436.754098
0
VERTEX
8
0
10
339.000000
20
426.000000
0
VERTEX
8
0
10
337.230769
20
422.846154
0
VERTEX
8
0
10
334.769231
20
419.153846
0
VERTEX
8
0
10
327.352941
20
404.911765
0
VERTEX
8
0
10
326.647059
20
402.088235
0
VERTEX
8
0
10
324.000000
20
393.000000
0
VERTEX
8
0
10
324.000000
20
379.000000
0
VERTEX
8
0
10
326.000000
20
377.000000
0
SEQEND
0
POLYLINE
8
0
6
CONTINUOUS
66
1
62
7
10
0.0
20
0.0
30
0.000000
0
VERTEX
8
0
10
184.000000
20
374.000000
0
VERTEX
8
0
10
185.088235
20
374.647059
0
VERTEX
8
0
10
188.000000
20
375.000000
0
VERTEX
8
0
10
194.000000
20
381.000000
0
VERTEX
8
0
10
195.800000
20
385.100000
0
VERTEX
8
0
10
197.200000
20
387.900000
0
VERTEX
8
0
10
201.647059
20
398.088235
0
VERTEX
8
0
10
204.300000
20
406.900000
0
VERTEX
8
0
10
205.000000
20
408.000000
0
VERTEX
8
0
10
205.000000
20
415.000000
0
VERTEX
8
0
10
203.000000
20
419.000000
0
VERTEX
8
0
10
200.000000
20
421.000000
0
VERTEX
8
0
10
194.000000
20
420.000000
0
VERTEX
8
0
10
185.000000
20
411.000000
0
VERTEX
8
0
10
182.200000
20
405.900000
0
VERTEX
8
0
10
179.800000
20
402.100000
0
VERTEX
8
0
10
175.384615
20
392.923077
0
VERTEX
8
0
10
174.615385
20
389.076923
0
VERTEX
8
0
10
174.000000
20
383.000000
0
VERTEX
8
0
10
178.000000
20
377.000000
0
VERTEX
8
0
10
184.000000
20
374.000000
0
SEQEND
0
POLYLINE
8
0
6
CONTINUOUS
66
1
62
7
10
0.0
20
0.0
30
0.000000
0
VERTEX
8
0
10
410.000000
20
311.000000
0
VERTEX
8
0
10
423.000000
20
313.000000
0
VERTEX
8
0
10
424.000000
20
314.000000
0
VERTEX
8
0
10
425.000000
20
317.000000
0
VERTEX
8
0
10
417.100000
20
322.200000
0
VERTEX
8
0
10
406.900000
20
326.700000
0
VERTEX
8
0
10
368.900000
20
347.800000
0
VERTEX
8
0
10
365.100000
20
350.200000
0
VERTEX
8
0
10
362.000000
20
352.000000
0
VERTEX
8
0
10
360.000000
20
357.000000
0
VERTEX
8
0
10
361.000000
20
364.000000
0
VERTEX
8
0
10
369.000000
20
369.000000
0
VERTEX
8
0
10
373.000000
20
369.000000
0
VERTEX
8
0
10
379.000000
20
366.000000
0
VERTEX
8
0
10
383.700000
20
352.900000
0
VERTEX
8
0
10
385.000000
20
349.000000
0
VERTEX
8
0
10
391.900000
20
344.800000
0
VERTEX
8
0
10
395.100000
20
343.200000
0
VERTEX
8
0
10
412.088235
20
337.352941
0
VERTEX
8
0
10
414.911765
20
336.647059
0
VERTEX
8
0
10
419.000000
20
335.000000
0
VERTEX
8
0
10
427.000000
20
335.000000
0
VERTEX
8
0
10
429.000000
20
336.000000
0
VERTEX
8
0
10
431.800000
20
341.100000
0
VERTEX
8
0
10
435.700000
20
351.100000
0
VERTEX
8
0
10
437.405405
20
358.932432
0
VERTEX
8
0
10
438.000000
20
367.000000
0
VERTEX
8
0
10
436.615385
20
371.923077
0
VERTEX
8
0
10
434.760000
20
375.820000
0
VERTEX
8
0
10
430.000000
20
384.000000
0
VERTEX
8
0
10
430.000000
20
387.000000
0
VERTEX
8
0
10
431.200000
20
388.900000
0
VERTEX
8
0
10
433.000000
20
393.000000
0
VERTEX
8
0
10
440.000000
20
397.000000
0
VERTEX
8
0
10
447.000000
20
395.000000
0
VERTEX
8
0
10
449.200000
20
391.100000
0
VERTEX
8
0
10
451.000000
20
388.000000
0
VERTEX
8
0
10
451.000000
20
379.000000
0
VERTEX
8
0
10
448.594595
20
367.067568
0
VERTEX
8
0
10
447.420000
20
359.940000
0
VERTEX
8
0
10
443.000000
20
325.000000
0
VERTEX
8
0
10
444.000000
20
324.000000
0
VERTEX
8
0
10
447.846154
20
325.230769
0
VERTEX
8
0
10
450.153846
20
326.769231
0
VERTEX
8
0
10
462.000000
20
338.000000
0
VERTEX
8
0
10
468.230769
20
346.846154
0
VERTEX
8
0
10
475.647059
20
360.088235
0
VERTEX
8
0
10
476.352941
20
362.911765
0
VERTEX
8
0
10
478.000000
20
368.000000
0
VERTEX
8
0
10
478.000000
20
388.000000
0
VERTEX
8
0
10
475.647059
20
401.911765
0
VERTEX
8
0
10
475.352941
20
403.088235
0
VERTEX
8
0
10
474.000000
20
408.000000
0
VERTEX
8
0
10
468.000000
20
414.000000
0
VERTEX
8
0
10
460.955446
20
416.554455
0
VERTEX
8
0
10
452.044554
20
417.445545
0
VERTEX
8
0
10
434.000000
20
418.000000
0
VERTEX
8
0
10
412.911765
20
414.352941
0
VERTEX
8
0
10
406.088235
20
412.647059
0
VERTEX
8
0
10
383.100000
20
404.800000
0
VERTEX
8
0
10
372.900000
20
399.200000
0
VERTEX
8
0
10
350.216814
20
384.752212
0
VERTEX
8
0
10
335.000000
20
371.000000
0
VERTEX
8
0
10
330.230769
20
363.846154
0
VERTEX
8
0
10
329.800000
20
363.100000
0
VERTEX
8
0
10
329.000000
20
362.000000
0
VERTEX
8
0
10
329.000000
20
354.000000
0
VERTEX
8
0
10
331.230769
20
350.153846
0
VERTEX
8
0
10
340.000000
20
338.000000
0
VERTEX
8
0
10
350.820000
20
328.760000
0
VERTEX
8
0
10
361.153846
20
321.230769
0
VERTEX
8
0
10
369.100000
20
318.300000
0
VERTEX
8
0
10
375.900000
20
315.700000
0
VERTEX
8
0
10
385.053846
20
313.430769
0
VERTEX
8
0
10
410.000000
20
311.000000
0
SEQEND
0
POLYLINE
8
0
6
CONTINUOUS
66
1
62
7
10
0.0
20
0.0
30
0.000000
0
VERTEX
8
0
10
310.000000
20
298.000000
0
VERTEX
8
0
10
311.000000
20
299.000000
0
VERTEX
8
0
10
311.000000
20
310.000000
0
VERTEX
8
0
10
309.554455
20
319.955446
0
VERTEX
8
0
10
308.569231
20
327.946154
0
VERTEX
8
0
10
303.647059
20
349.911765
0
VERTEX
8
0
10
300.647059
20
360.911765
0
VERTEX
8
0
10
291.700000
20
386.900000
0
VERTEX
8
0
10
290.300000
20
390.100000
0
VERTEX
8
0
10
282.769231
20
416.846154
0
VERTEX
8
0
10
280.000000
20
421.000000
0
VERTEX
8
0
10
277.000000
20
421.000000
0
VERTEX
8
0
10
272.153846
20
418.769231
0
VERTEX
8
0
10
266.846154
20
415.230769
0
VERTEX
8
0
10
253.000000
20
403.000000
0
VERTEX
8
0
10
250.800000
20
399.100000
0
VERTEX
8
0
10
246.352941
20
390.911765
0
VERTEX
8
0
10
244.000000
20
383.000000
0
VERTEX
8
0
10
244.000000
20
368.000000
0
VERTEX
8
0
10
246.700000
20
358.900000
0
VERTEX
8
0
10
250.230769
20
351.153846
0
VERTEX
8
0
10
251.769231
20
348.846154
0
VERTEX
8
0
10
261.000000
20
336.000000
0
VERTEX
8
0
10
267.000000
20
330.000000
0
VERTEX
8
0
10
292.180000
20
310.240000
0
VERTEX
8
0
10
292.820000
20
309.760000
0
VERTEX
8
0
10
308.264706
20
298.441176
0
VERTEX
8
0
10
310.000000
20
298.000000
0
SEQEND
0
POLYLINE
8
0
6
CONTINUOUS
66
1
62
7
10
0.0
20
0.0
30
0.000000
0
VERTEX
8
0
10
409.000000
20
211.000000
0
VERTEX
8
0
10
420.000000
20
224.000000
0
VERTEX
8
0
10
426.846154
20
230.230769
0
VERTEX
8
0
10
433.180000
20
234.760000
0
VERTEX
8
0
10
454.100000
20
245.800000
0
VERTEX
8
0
10
454.900000
20
246.200000
0
VERTEX
8
0
10
463.100000
20
249.700000
0
VERTEX
8
0
10
465.000000
20
250.000000
0
VERTEX
8
0
10
468.000000
20
253.000000
0
VERTEX
8
0
10
446.846154
20
266.769231
0
VERTEX
8
0
10
438.195122
20
272.243902
0
VERTEX
8
0
10
422.204918
20
285.245902
0
VERTEX
8
0
10
412.000000
20
294.000000
0
VERTEX
8
0
10
411.760000
20
294.820000
0
VERTEX
8
0
10
405.000000
20
304.000000
0
VERTEX
8
0
10
404.100000
20
304.200000
0
VERTEX
8
0
10
384.946154
20
308.569231
0
VERTEX
8
0
10
376.923077
20
309.615385
0
VERTEX
8
0
10
360.900000
20
314.800000
0
VERTEX
8
0
10
360.100000
20
315.200000
0
VERTEX
8
0
10
355.923077
20
316.615385
0
VERTEX
8
0
10
352.000000
20
317.000000
0
VERTEX
8
0
10
350.000000
20
313.000000
0
VERTEX
8
0
10
350.000000
20
307.000000
0
VERTEX
8
0
10
351.384615
20
302.076923
0
VERTEX
8
0
10
354.352941
20
289.088235
0
VERTEX
8
0
10
363.200000
20
260.100000
0
VERTEX
8
0
10
369.800000
20
248.900000
0
VERTEX
8
0
10
389.000000
20
224.000000
0
VERTEX
8
0
10
394.000000
20
219.000000
0
VERTEX
8
0
10
404.900000
20
211.800000
0
VERTEX
8
0
10
409.000000
20
211.000000
0
SEQEND
0
POLYLINE
8
0
6
CONTINUOUS
66
1
62
7
10
0.0
20
0.0
30
0.000000
0
VERTEX
8
0
10
308.000000
20
197.000000
0
VERTEX
8
0
10
311.000000
20
199.000000
0
VERTEX
8
0
10
315.200000
20
205.900000
0
VERTEX
8
0
10
316.200000
20
207.900000
0
VERTEX
8
0
10
322.615385
20
223.076923
0
VERTEX
8
0
10
323.384615
20
226.923077
0
VERTEX
8
0
10
325.000000
20
234.000000
0
VERTEX
8
0
10
325.000000
20
252.000000
0
VERTEX
8
0
10
323.647059
20
255.911765
0
VERTEX
8
0
10
321.647059
20
262.911765
0
VERTEX
8
0
10
316.800000
20
272.900000
0
VERTEX
8
0
10
313.230769
20
279.153846
0
VERTEX
8
0
10
304.000000
20
290.000000
0
VERTEX
8
0
10
293.820000
20
297.760000
0
VERTEX
8
0
10
285.900000
20
301.800000
0
VERTEX
8
0
10
285.100000
20
302.200000
0
VERTEX
8
0
10
269.100000
20
308.300000
0
VERTEX
8
0
10
256.053846
20
310.430769
0
VERTEX
8
0
10
237.000000
20
312.000000
0
VERTEX
8
0
10
234.100000
20
310.700000
0
VERTEX
8
0
10
231.000000
20
309.000000
0
VERTEX
8
0
10
231.000000
20
308.000000
0
VERTEX
8
0
10
253.820000
20
292.760000
0
VERTEX
8
0
10
262.195122
20
286.243902
0
VERTEX
8
0
10
271.248276
20
277.220690
0
VERTEX
8
0
10
281.760000
20
264.820000
0
VERTEX
8
0
10
289.800000
20
252.900000
0
VERTEX
8
0
10
295.200000
20
242.100000
0
VERTEX
8
0
10
301.384615
20
218.076923
0
VERTEX
8
0
10
302.405405
20
212.067568
0
VERTEX
8
0
10
305.250000
20
197.250000
0
VERTEX
8
0
10
308.000000
20
197.000000
0
SEQEND
0
POLYLINE
8
0
6
CONTINUOUS
66
1
62
7
10
0.0
20
0.0
30
0.000000
0
VERTEX
8
0
10
258.000000
20
172.000000
0
VERTEX
8
0
10
280.100000
20
177.800000
0
VERTEX
8
0
10
288.000000
20
183.000000
0
VERTEX
8
0
10
288.230769
20
183.846154
0
VERTEX
8
0
10
290.000000
20
186.000000
0
VERTEX
8
0
10
290.000000
20
208.000000
0
VERTEX
8
0
10
286.615385
20
223.923077
0
VERTEX
8
0
10
285.647059
20
227.911765
0
VERTEX
8
0
10
278.769231
20
246.846154
0
VERTEX
8
0
10
277.230769
20
249.153846
0
VERTEX
8
0
10
267.754098
20
262.795082
0
VERTEX
8
0
10
262.756098
20
268.804878
0
VERTEX
8
0
10
255.000000
20
278.000000
0
VERTEX
8
0
10
227.820000
20
298.760000
0
VERTEX
8
0
10
215.900000
20
303.800000
0
VERTEX
8
0
10
212.000000
20
305.000000
0
VERTEX
8
0
10
204.153846
20
301.769231
0
VERTEX
8
0
10
201.180000
20
299.760000
0
VERTEX
8
0
10
189.000000
20
290.000000
0
VERTEX
8
0
10
177.800000
20
273.100000
0
VERTEX
8
0
10
177.300000
20
271.900000
0
VERTEX
8
0
10
171.615385
20
255.076923
0
VERTEX
8
0
10
169.000000
20
242.000000
0
VERTEX
8
0
10
169.000000
20
231.000000
0
VERTEX
8
0
10
170.445545
20
221.044554
0
VERTEX
8
0
10
170.700000
20
219.900000
0
VERTEX
8
0
10
172.000000
20
216.000000
0
VERTEX
8
0
10
174.000000
20
214.000000
0
VERTEX
8
0
10
175.000000
20
214.000000
0
VERTEX
8
0
10
176.200000
20
215.900000
0
VERTEX
8
0
10
182.800000
20
233.100000
0
VERTEX
8
0
10
207.000000
20
271.000000
0
VERTEX
8
0
10
209.000000
20
273.000000
0
VERTEX
8
0
10
213.100000
20
274.700000
0
VERTEX
8
0
10
214.900000
20
275.300000
0
VERTEX
8
0
10
219.000000
20
276.000000
0
VERTEX
8
0
10
220.100000
20
275.200000
0
VERTEX
8
0
10
223.000000
20
274.000000
0
VERTEX
8
0
10
228.000000
20
269.000000
0
VERTEX
8
0
10
228.000000
20
264.000000
0
VERTEX
8
0
10
223.000000
20
258.000000
0
VERTEX
8
0
10
218.900000
20
256.200000
0
VERTEX
8
0
10
210.000000
20
251.000000
0
VERTEX
8
0
10
200.800000
20
240.100000
0
VERTEX
8
0
10
196.647059
20
230.088235
0
VERTEX
8
0
10
195.594595
20
224.067568
0
VERTEX
8
0
10
195.000000
20
216.000000
0
VERTEX
8
0
10
198.000000
20
213.000000
0
VERTEX
8
0
10
200.100000
20
212.200000
0
VERTEX
8
0
10
206.911765
20
209.647059
0
VERTEX
8
0
10
225.000000
20
206.000000
0
VERTEX
8
0
10
233.000000
20
206.000000
0
VERTEX
8
0
10
234.076923
20
206.615385
0
VERTEX
8
0
10
238.000000
20
207.000000
0
VERTEX
8
0
10
241.000000
20
210.000000
0
VERTEX
8
0
10
241.800000
20
212.100000
0
VERTEX
8
0
10
245.000000
20
216.000000
0
VERTEX
8
0
10
245.846154
20
216.230769
0
VERTEX
8
0
10
253.000000
20
219.000000
0
VERTEX
8
0
10
257.000000
20
219.000000
0
VERTEX
8
0
10
262.000000
20
216.000000
0
VERTEX
8
0
10
264.000000
20
211.000000
0
VERTEX
8
0
10
264.000000
20
207.000000
0
VERTEX
8
0
10
263.300000
20
205.900000
0
VERTEX
8
0
10
263.000000
20
204.000000
0
VERTEX
8
0
10
260.000000
20
201.000000
0
VERTEX
8
0
10
257.911765
20
200.352941
0
VERTEX
8
0
10
255.088235
20
199.647059
0
VERTEX
8
0
10
241.000000
20
197.000000
0
VERTEX
8
0
10
230.000000
20
197.000000
0
VERTEX
8
0
10
223.060000
20
198.420000
0
VERTEX
8
0
10
221.946154
20
198.569231
0
VERTEX
8
0
10
184.000000
20
205.000000
0
VERTEX
8
0
10
182.000000
20
203.000000
0
VERTEX
8
0
10
184.000000
20
198.000000
0
VERTEX
8
0
10
188.000000
20
194.000000
0
VERTEX
8
0
10
206.153846
20
182.230769
0
VERTEX
8
0
10
215.100000
20
178.300000
0
VERTEX
8
0
10
219.900000
20
176.700000
0
VERTEX
8
0
10
229.053846
20
173.430769
0
VERTEX
8
0
10
235.946154
20
172.569231
0
VERTEX
8
0
10
258.000000
20
172.000000
0
SEQEND
0
POLYLINE
8
0
6
CONTINUOUS
66
1
62
7
10
0.0
20
0.0
30
0.000000
0
VERTEX
8
0
10
144.000000
20
140.000000
0
VERTEX
8
0
10
119.000000
20
161.000000
0
VERTEX
8
0
10
112.000000
20
168.000000
0
VERTEX
8
0
10
104.243902
20
178.195122
0
VERTEX
8
0
10
89.243902
20
197.195122
0
VERTEX
8
0
10
82.200000
20
208.100000
0
VERTEX
8
0
10
67.230769
20
233.153846
0
VERTEX
8
0
10
62.200000
20
244.100000
0
VERTEX
8
0
10
53.300000
20
267.100000
0
VERTEX
8
0
10
47.647059
20
283.911765
0
VERTEX
8
0
10
46.615385
20
288.923077
0
VERTEX
8
0
10
40.439024
20
317.048780
0
VERTEX
8
0
10
38.538071
20
338.967005
0
VERTEX
8
0
10
37.000000
20
354.000000
0
VERTEX
8
0
10
37.000000
20
370.000000
0
VERTEX
8
0
10
39.455172
20
400.962069
0
VERTEX
8
0
10
43.384615
20
419.923077
0
VERTEX
8
0
10
45.352941
20
428.911765
0
VERTEX
8
0
10
48.800000
20
442.100000
0
VERTEX
8
0
10
57.300000
20
465.900000
0
VERTEX
8
0
10
69.200000
20
490.900000
0
VERTEX
8
0
10
74.800000
20
502.100000
0
VERTEX
8
0
10
91.240000
20
526.820000
0
VERTEX
8
0
10
95.769231
20
533.153846
0
VERTEX
8
0
10
106.249315
20
545.768493
0
VERTEX
8
0
10
124.000000
20
565.000000
0
VERTEX
8
0
10
125.000000
20
565.000000
0
SEQEND
0
POLYLINE
8
0
6
CONTINUOUS
66
1
62
7
10
0.0
20
0.0
30
0.000000
0
VERTEX
8
0
10
144.000000
20
140.000000
0
VERTEX
8
0
10
142.405405
20
148.067568
0
VERTEX
8
0
10
141.000000
20
158.000000
0
VERTEX
8
0
10
143.800000
20
163.100000
0
VERTEX
8
0
10
150.000000
20
173.000000
0
VERTEX
8
0
10
156.000000
20
178.000000
0
VERTEX
8
0
10
150.800000
20
186.900000
0
VERTEX
8
0
10
149.800000
20
188.900000
0
VERTEX
8
0
10
147.000000
20
193.000000
0
VERTEX
8
0
10
146.000000
20
193.000000
0
VERTEX
8
0
10
137.800000
20
206.900000
0
VERTEX
8
0
10
134.000000
20
223.000000
0
VERTEX
8
0
10
134.000000
20
249.000000
0
VERTEX
8
0
10
140.352941
20
275.911765
0
VERTEX
8
0
10
146.230769
20
288.846154
0
VERTEX
8
0
10
147.769231
20
291.153846
0
VERTEX
8
0
10
160.000000
20
309.000000
0
VERTEX
8
0
10
170.000000
20
319.000000
0
VERTEX
8
0
10
179.180000
20
325.760000
0
VERTEX
8
0
10
182.153846
20
327.769231
0
VERTEX
8
0
10
191.100000
20
331.800000
0
VERTEX
8
0
10
193.100000
20
332.800000
0
VERTEX
8
0
10
217.000000
20
339.000000
0
VERTEX
8
0
10
217.000000
20
341.000000
0
VERTEX
8
0
10
212.000000
20
351.000000
0
VERTEX
8
0
10
210.000000
20
351.000000
0
VERTEX
8
0
10
204.100000
20
347.800000
0
VERTEX
8
0
10
202.100000
20
346.800000
0
VERTEX
8
0
10
191.940000
20
343.420000
0
VERTEX
8
0
10
185.000000
20
342.000000
0
VERTEX
8
0
10
177.923077
20
342.615385
0
VERTEX
8
0
10
170.088235
20
344.352941
0
VERTEX
8
0
10
159.100000
20
349.200000
0
VERTEX
8
0
10
157.204918
20
350.245902
0
VERTEX
8
0
10
147.000000
20
359.000000
0
VERTEX
8
0
10
142.000000
20
368.000000
0
VERTEX
8
0
10
140.100000
20
369.200000
0
VERTEX
8
0
10
127.088235
20
372.352941
0
VERTEX
8
0
10
118.180000
20
376.240000
0
VERTEX
8
0
10
105.000000
20
387.000000
0
VERTEX
8
0
10
103.230769
20
390.153846
0
VERTEX
8
0
10
100.800000
20
394.900000
0
VERTEX
8
0
10
97.000000
20
407.000000
0
VERTEX
8
0
10
97.000000
20
415.000000
0
VERTEX
8
0
10
99.352941
20
422.911765
0
VERTEX
8
0
10
100.000000
20
424.000000
0
VERTEX
8
0
10
98.230769
20
427.153846
0
VERTEX
8
0
10
95.800000
20
431.900000
0
VERTEX
8
0
10
94.000000
20
439.000000
0
VERTEX
8
0
10
94.000000
20
447.000000
0
VERTEX
8
0
10
95.384615
20
451.923077
0
VERTEX
8
0
10
95.700000
20
453.100000
0
VERTEX
8
0
10
99.230769
20
460.846154
0
VERTEX
8
0
10
104.000000
20
468.000000
0
VERTEX
8
0
10
111.820000
20
474.240000
0
VERTEX
8
0
10
115.180000
20
476.760000
0
VERTEX
8
0
10
132.000000
20
486.000000
0
VERTEX
8
0
10
128.700000
20
492.900000
0
VERTEX
8
0
10
127.700000
20
495.900000
0
VERTEX
8
0
10
122.615385
20
514.923077
0
VERTEX
8
0
10
121.615385
20
519.923077
0
VERTEX
8
0
10
119.000000
20
537.000000
0
VERTEX
8
0
10
119.000000
20
546.000000
0
VERTEX
8
0
10
120.405405
20
551.932432
0
VERTEX
8
0
10
124.200000
20
561.900000
0
VERTEX
8
0
10
125.000000
20
565.000000
0
SEQEND
0
POLYLINE
8
0
6
CONTINUOUS
66
1
62
7
10
0.0
20
0.0
30
0.000000
0
VERTEX
8
0
10
145.000000
20
138.000000
0
VERTEX
8
0
10
144.000000
20
140.000000
0
SEQEND
0
POLYLINE
8
0
6
CONTINUOUS
66
1
62
7
10
0.0
20
0.0
30
0.000000
0
VERTEX
8
0
10
249.000000
20
100.000000
0
VERTEX
8
0
10
251.230769
20
102.846154
0
VERTEX
8
0
10
259.200000
20
118.900000
0
VERTEX
8
0
10
259.800000
20
120.100000
0
VERTEX
8
0
10
283.000000
20
166.000000
0
VERTEX
8
0
10
281.000000
20
168.000000
0
VERTEX
8
0
10
275.923077
20
167.384615
0
VERTEX
8
0
10
272.076923
20
166.615385
0
VERTEX
8
0
10
249.000000
20
162.000000
0
VERTEX
8
0
10
239.000000
20
162.000000
0
VERTEX
8
0
10
231.053846
20
163.430769
0
VERTEX
8
0
10
229.911765
20
163.647059
0
VERTEX
8
0
10
208.000000
20
169.000000
0
VERTEX
8
0
10
206.100000
20
167.800000
0
VERTEX
8
0
10
177.000000
20
153.000000
0
VERTEX
8
0
10
178.000000
20
150.000000
0
VERTEX
8
0
10
189.846154
20
142.769231
0
VERTEX
8
0
10
205.100000
20
133.200000
0
VERTEX
8
0
10
227.180000
20
117.240000
0
VERTEX
8
0
10
249.000000
20
100.000000
0
SEQEND
0
POLYLINE
8
0
6
CONTINUOUS
66
1
62
7
10
0.0
20
0.0
30
0.000000
0
VERTEX
8
0
10
327.000000
20
77.000000
0
VERTEX
8
0
10
359.951220
20
80.439024
0
VERTEX
8
0
10
396.911765
20
87.352941
0
VERTEX
8
0
10
404.900000
20
90.300000
0
VERTEX
8
0
10
437.100000
20
102.800000
0
VERTEX
8
0
10
465.100000
20
117.800000
0
VERTEX
8
0
10
479.820000
20
127.240000
0
VERTEX
8
0
10
483.180000
20
129.760000
0
VERTEX
8
0
10
505.000000
20
145.000000
0
VERTEX
8
0
10
537.000000
20
177.000000
0
VERTEX
8
0
10
539.760000
20
181.180000
0
VERTEX
8
0
10
559.760000
20
208.180000
0
VERTEX
8
0
10
569.800000
20
226.100000
0
VERTEX
8
0
10
574.769231
20
235.153846
0
VERTEX
8
0
10
582.700000
20
252.100000
0
VERTEX
8
0
10
586.300000
20
262.900000
0
VERTEX
8
0
10
594.615385
20
288.076923
0
VERTEX
8
0
10
600.384615
20
315.923077
0
VERTEX
8
0
10
602.455172
20
332.962069
0
VERTEX
8
0
10
604.000000
20
367.000000
0
VERTEX
8
0
10
601.538071
20
394.967005
0
VERTEX
8
0
10
600.352941
20
406.088235
0
VERTEX
8
0
10
590.800000
20
446.900000
0
VERTEX
8
0
10
577.700000
20
479.900000
0
VERTEX
8
0
10
560.800000
20
509.900000
0
VERTEX
8
0
10
555.760000
20
518.820000
0
VERTEX
8
0
10
530.000000
20
552.000000
0
VERTEX
8
0
10
529.000000
20
552.000000
0
VERTEX
8
0
10
524.800000
20
540.100000
0
VERTEX
8
0
10
521.000000
20
534.000000
0
VERTEX
8
0
10
521.000000
20
532.000000
0
VERTEX
8
0
10
522.900000
20
530.800000
0
VERTEX
8
0
10
524.100000
20
530.200000
0
VERTEX
8
0
10
533.000000
20
525.000000
0
VERTEX
8
0
10
540.230769
20
516.153846
0
VERTEX
8
0
10
542.647059
20
511.911765
0
VERTEX
8
0
10
543.352941
20
509.088235
0
VERTEX
8
0
10
546.000000
20
498.000000
0
VERTEX
8
0
10
546.000000
20
491.000000
0
VERTEX
8
0
10
544.615385
20
486.076923
0
VERTEX
8
0
10
541.769231
20
479.153846
0
VERTEX
8
0
10
539.500000
20
475.000000
0
VERTEX
8
0
10
541.230769
20
471.153846
0
VERTEX
8
0
10
544.700000
20
464.900000
0
VERTEX
8
0
10
545.300000
20
463.100000
0
VERTEX
8
0
10
547.000000
20
458.000000
0
VERTEX
8
0
10
547.000000
20
453.000000
0
VERTEX
8
0
10
541.000000
20
433.000000
0
VERTEX
8
0
10
533.000000
20
425.000000
0
VERTEX
8
0
10
527.804878
20
421.243902
0
VERTEX
8
0
10
518.911765
20
417.352941
0
VERTEX
8
0
10
514.900000
20
416.300000
0
VERTEX
8
0
10
511.000000
20
415.000000
0
VERTEX
8
0
10
509.000000
20
413.000000
0
VERTEX
8
0
10
510.352941
20
409.088235
0
VERTEX
8
0
10
514.000000
20
386.000000
0
VERTEX
8
0
10
512.352941
20
361.911765
0
VERTEX
8
0
10
506.800000
20
345.100000
0
VERTEX
8
0
10
505.200000
20
340.900000
0
VERTEX
8
0
10
496.240000
20
326.820000
0
VERTEX
8
0
10
492.243902
20
321.804878
0
VERTEX
8
0
10
476.000000
20
304.000000
0
VERTEX
8
0
10
462.000000
20
296.000000
0
VERTEX
8
0
10
480.846154
20
284.769231
0
VERTEX
8
0
10
486.820000
20
280.760000
0
VERTEX
8
0
10
494.000000
20
275.000000
0
VERTEX
8
0
10
499.769231
20
266.846154
0
VERTEX
8
0
10
501.647059
20
261.911765
0
VERTEX
8
0
10
502.352941
20
259.088235
0
VERTEX
8
0
10
504.000000
20
255.000000
0
VERTEX
8
0
10
504.000000
20
251.000000
0
VERTEX
8
0
10
499.800000
20
239.100000
0
VERTEX
8
0
10
496.200000
20
232.900000
0
VERTEX
8
0
10
493.000000
20
229.000000
0
VERTEX
8
0
10
488.820000
20
226.240000
0
VERTEX
8
0
10
473.900000
20
219.300000
0
VERTEX
8
0
10
470.900000
20
218.200000
0
VERTEX
8
0
10
451.000000
20
208.000000
0
VERTEX
8
0
10
447.000000
20
204.000000
0
VERTEX
8
0
10
441.000000
20
195.000000
0
VERTEX
8
0
10
433.000000
20
187.000000
0
VERTEX
8
0
10
430.900000
20
186.200000
0
VERTEX
8
0
10
424.100000
20
182.800000
0
VERTEX
8
0
10
415.067568
20
180.594595
0
VERTEX
8
0
10
410.076923
20
179.615385
0
VERTEX
8
0
10
404.000000
20
179.000000
0
VERTEX
8
0
10
397.060000
20
180.420000
0
VERTEX
8
0
10
391.100000
20
182.200000
0
VERTEX
8
0
10
385.900000
20
184.800000
0
VERTEX
8
0
10
375.204918
20
192.245902
0
VERTEX
8
0
10
363.000000
20
203.000000
0
VERTEX
8
0
10
363.000000
20
204.000000
0
VERTEX
8
0
10
357.100000
20
209.200000
0
VERTEX
8
0
10
356.000000
20
210.000000
0
VERTEX
8
0
10
354.000000
20
209.000000
0
VERTEX
8
0
10
353.700000
20
207.100000
0
VERTEX
8
0
10
345.769231
20
190.153846
0
VERTEX
8
0
10
344.230769
20
187.846154
0
VERTEX
8
0
10
337.000000
20
177.000000
0
VERTEX
8
0
10
334.000000
20
174.000000
0
VERTEX
8
0
10
321.000000
20
168.000000
0
VERTEX
8
0
10
319.000000
20
166.000000
0
VERTEX
8
0
10
318.594595
20
161.067568
0
VERTEX
8
0
10
316.800000
20
155.100000
0
VERTEX
8
0
10
315.700000
20
152.100000
0
VERTEX
8
0
10
309.769231
20
141.153846
0
VERTEX
8
0
10
303.800000
20
131.100000
0
VERTEX
8
0
10
290.300000
20
102.900000
0
VERTEX
8
0
10
285.700000
20
92.100000
0
VERTEX
8
0
10
280.769231
20
83.153846
0
VERTEX
8
0
10
279.000000
20
81.000000
0
VERTEX
8
0
10
280.000000
20
80.000000
0
VERTEX
8
0
10
314.032995
20
77.461929
0
VERTEX
8
0
10
327.000000
20
77.000000
0
SEQEND
0
POLYLINE
8
0
6
CONTINUOUS
66
1
62
7
10
0.0
20
0.0
30
0.000000
0
VERTEX
8
0
10
331.000000
20
49.000000
0
VERTEX
8
0
10
363.964706
20
51.458824
0
VERTEX
8
0
10
391.923077
20
57.384615
0
VERTEX
8
0
10
400.923077
20
59.384615
0
VERTEX
8
0
10
415.900000
20
64.300000
0
VERTEX
8
0
10
443.900000
20
74.300000
0
VERTEX
8
0
10
456.900000
20
81.200000
0
VERTEX
8
0
10
480.100000
20
93.800000
0
VERTEX
8
0
10
487.820000
20
98.240000
0
VERTEX
8
0
10
491.180000
20
100.760000
0
VERTEX
8
0
10
523.000000
20
123.000000
0
VERTEX
8
0
10
558.000000
20
158.000000
0
VERTEX
8
0
10
571.769231
20
177.153846
0
VERTEX
8
0
10
583.760000
20
193.180000
0
VERTEX
8
0
10
600.800000
20
226.100000
0
VERTEX
8
0
10
604.800000
20
234.100000
0
VERTEX
8
0
10
612.700000
20
255.100000
0
VERTEX
8
0
10
619.700000
20
274.100000
0
VERTEX
8
0
10
629.560976
20
318.048780
0
VERTEX
8
0
10
633.000000
20
355.000000
0
VERTEX
8
0
10
632.461929
20
369.032995
0
VERTEX
8
0
10
629.554455
20
405.955446
0
VERTEX
8
0
10
625.647059
20
422.911765
0
VERTEX
8
0
10
620.647059
20
444.911765
0
VERTEX
8
0
10
609.800000
20
475.900000
0
VERTEX
8
0
10
604.700000
20
489.900000
0
VERTEX
8
0
10
591.800000
20
513.900000
0
VERTEX
8
0
10
583.200000
20
530.100000
0
VERTEX
8
0
10
567.756098
20
550.804878
0
VERTEX
8
0
10
553.243902
20
569.195122
0
VERTEX
8
0
10
545.000000
20
578.000000
0
VERTEX
8
0
10
513.788235
20
605.752941
0
VERTEX
8
0
10
477.846154
20
630.769231
0
VERTEX
8
0
10
436.900000
20
650.800000
0
VERTEX
8
0
10
394.900000
20
663.700000
0
VERTEX
8
0
10
349.000000
20
672.000000
0
VERTEX
8
0
10
346.200000
20
681.100000
0
VERTEX
8
0
10
343.000000
20
688.000000
0
VERTEX
8
0
10
337.153846
20
693.230769
0
VERTEX
8
0
10
328.940000
20
697.580000
0
VERTEX
8
0
10
319.000000
20
699.000000
0
VERTEX
8
0
10
312.060000
20
697.580000
0
VERTEX
8
0
10
308.100000
20
695.800000
0
VERTEX
8
0
10
306.900000
20
695.200000
0
VERTEX
8
0
10
303.000000
20
693.000000
0
VERTEX
8
0
10
297.000000
20
687.000000
0
VERTEX
8
0
10
294.300000
20
680.900000
0
VERTEX
8
0
10
292.000000
20
672.000000
0
VERTEX
8
0
10
244.911765
20
663.352941
0
VERTEX
8
0
10
204.100000
20
650.800000
0
VERTEX
8
0
10
160.846154
20
629.230769
0
VERTEX
8
0
10
127.211765
20
605.752941
0
VERTEX
8
0
10
88.000000
20
570.000000
0
VERTEX
8
0
10
84.243902
20
564.804878
0
VERTEX
8
0
10
73.243902
20
550.804878
0
VERTEX
8
0
10
57.800000
20
530.100000
0
VERTEX
8
0
10
48.230769
20
512.846154
0
VERTEX
8
0
10
35.700000
20
488.100000
0
VERTEX
8
0
10
30.800000
20
475.100000
0
VERTEX
8
0
10
20.352941
20
444.911765
0
VERTEX
8
0
10
14.647059
20
420.088235
0
VERTEX
8
0
10
11.445545
20
405.955446
0
VERTEX
8
0
10
8.000000
20
368.000000
0
VERTEX
8
0
10
8.538071
20
353.967005
0
VERTEX
8
0
10
11.439024
20
318.048780
0
VERTEX
8
0
10
21.300000
20
274.100000
0
VERTEX
8
0
10
27.800000
20
255.900000
0
VERTEX
8
0
10
37.200000
20
232.100000
0
VERTEX
8
0
10
41.800000
20
222.900000
0
VERTEX
8
0
10
57.240000
20
193.180000
0
VERTEX
8
0
10
70.769231
20
174.846154
0
VERTEX
8
0
10
83.000000
20
158.000000
0
VERTEX
8
0
10
118.000000
20
123.000000
0
VERTEX
8
0
10
153.180000
20
98.240000
0
VERTEX
8
0
10
162.100000
20
93.200000
0
VERTEX
8
0
10
184.846154
20
80.769231
0
VERTEX
8
0
10
197.100000
20
74.300000
0
VERTEX
8
0
10
226.900000
20
63.700000
0
VERTEX
8
0
10
240.076923
20
59.384615
0
VERTEX
8
0
10
252.923077
20
56.615385
0
VERTEX
8
0
10
277.035294
20
51.458824
0
VERTEX
8
0
10
288.964706
20
50.541176
0
VERTEX
8
0
10
331.000000
20
49.000000
0
SEQEND
0
ENDSEC
0
EOF
