  0
SECTION
  2
HEADER
  9
$ACADVER
  1
AC1015
  9
$ACADMAINTVER
 70
     6
  9
$DWGCODEPAGE
  3
DOS850
  9
$INSBASE
 10
0.0
 20
0.0
 30
0.0
  9
$EXTMIN
 10
-280.0
 20
-300.0
 30
1.000000E+20
  9
$EXTMAX
 10
266.0
 20
336.9999
 30
-1.000000E+20
  9
$LIMMIN
 10
0.0
 20
0.0
  9
$LIMMAX
 10
0.0
 20
0.0
  9
$ORTHOMODE
 70
     0
  9
$REGENMODE
 70
     1
  9
$FILLMODE
 70
     1
  9
$QTEXTMODE
 70
     0
  9
$MIRRTEXT
 70
     1
  9
$LTSCALE
 40
1.0
  9
$ATTMODE
 70
     1
  9
$TEXTSIZE
 40
0.2
  9
$TRACEWID
 40
0.05
  9
$TEXTSTYLE
  7
Standard
  9
$CLAYER
  8
0
  9
$CELTYPE
  6
Continuous
  9
$CECOLOR
 62
   256
  9
$CELTSCALE
 40
1.0
  9
$DISPSILH
 70
     0
  9
$DIMSCALE
 40
1.0
  9
$DIMASZ
 40
0.18
  9
$DIMEXO
 40
0.0625
  9
$DIMDLI
 40
0.38
  9
$DIMRND
 40
0.0
  9
$DIMDLE
 40
0.0
  9
$DIMEXE
 40
0.18
  9
$DIMTP
 40
0.0
  9
$DIMTM
 40
0.0
  9
$DIMTXT
 40
0.18
  9
$DIMCEN
 40
0.09
  9
$DIMTSZ
 40
0.0
  9
$DIMTOL
 70
     0
  9
$DIMLIM
 70
     0
  9
$DIMTIH
 70
     1
  9
$DIMTOH
 70
     1
  9
$DIMSE1
 70
     0
  9
$DIMSE2
 70
     0
  9
$DIMTAD
 70
     0
  9
$DIMZIN
 70
     0
  9
$DIMBLK
  1

  9
$DIMASO
 70
     1
  9
$DIMSHO
 70
     1
  9
$DIMPOST
  1

  9
$DIMAPOST
  1

  9
$DIMALT
 70
     0
  9
$DIMALTD
 70
     2
  9
$DIMALTF
 40
25.4
  9
$DIMLFAC
 40
1.0
  9
$DIMTOFL
 70
     0
  9
$DIMTVP
 40
0.0
  9
$DIMTIX
 70
     0
  9
$DIMSOXD
 70
     0
  9
$DIMSAH
 70
     0
  9
$DIMBLK1
  1

  9
$DIMBLK2
  1

  9
$DIMSTYLE
  2
Standard
  9
$DIMCLRD
 70
     0
  9
$DIMCLRE
 70
     0
  9
$DIMCLRT
 70
     0
  9
$DIMTFAC
 40
1.0
  9
$DIMGAP
 40
0.09
  9
$DIMJUST
 70
     0
  9
$DIMSD1
 70
     0
  9
$DIMSD2
 70
     0
  9
$DIMTOLJ
 70
     1
  9
$DIMTZIN
 70
     0
  9
$DIMALTZ
 70
     0
  9
$DIMALTTZ
 70
     0
  9
$DIMUPT
 70
     0
  9
$DIMDEC
 70
     4
  9
$DIMTDEC
 70
     4
  9
$DIMALTU
 70
     2
  9
$DIMALTTD
 70
     2
  9
$DIMTXSTY
  7
Standard
  9
$DIMAUNIT
 70
     0
  9
$DIMADEC
 70
     0
  9
$DIMALTRND
 40
0.0
  9
$DIMAZIN
 70
     0
  9
$DIMDSEP
 70
     0
  9
$DIMATFIT
 70
     3
  9
$DIMFRAC
 70
     0
  9
$DIMLDRBLK
  1

  9
$DIMLUNIT
 70
     2
  9
$DIMLWD
 70
     0
  9
$DIMLWE
 70
     0
  9
$DIMTMOVE
 70
     0
  9
$LUNITS
 70
     2
  9
$LUPREC
 70
     4
  9
$SKETCHINC
 40
0.1
  9
$FILLETRAD
 40
0.0
  9
$AUNITS
 70
     0
  9
$AUPREC
 70
     0
  9
$MENU
  1
acad
  9
$ELEVATION
 40
0.0
  9
$PELEVATION
 40
0.0
  9
$THICKNESS
 40
0.0
  9
$LIMCHECK
 70
     0
  9
$CHAMFERA
 40
0.0
  9
$CHAMFERB
 40
0.0
  9
$CHAMFERC
 40
0.0
  9
$CHAMFERD
 40
0.0
  9
$SKPOLY
 70
     0
  9
$TDCREATE
 40
0.000000000
  9
$TDUCREATE
 40
0.000000000
  9
$TDUPDATE
 40
0.000000000
  9
$TDUUPDATE
 40
0.000000000
  9
$TDINDWG
 40
0.0000000000
  9
$TDUSRTIMER
 40
0.0000000000
  9
$USRTIMER
 70
     1
  9
$ANGBASE
 50
0.0
  9
$ANGDIR
 70
     0
  9
$PDMODE
 70
     0
  9
$PDSIZE
 40
0.0
  9
$PLINEWID
 40
0.0
  9
$SPLFRAME
 70
     0
  9
$SPLINETYPE
 70
     6
  9
$SPLINESEGS
 70
     8
  9
$HANDSEED
  5
45
  9
$SURFTAB1
 70
     6
  9
$SURFTAB2
 70
     6
  9
$SURFTYPE
 70
     6
  9
$SURFU
 70
     6
  9
$SURFV
 70
     6
  9
$UCSBASE
  2

  9
$UCSNAME
  2

  9
$UCSORG
 10
0.0
 20
0.0
 30
0.0
  9
$UCSXDIR
 10
1.0
 20
0.0
 30
0.0
  9
$UCSYDIR
 10
0.0
 20
1.0
 30
0.0
  9
$UCSORTHOREF
  2

  9
$UCSORTHOVIEW
 70
     0
  9
$UCSORGTOP
 10
0.0
 20
0.0
 30
0.0
  9
$UCSORGBOTTOM
 10
0.0
 20
0.0
 30
0.0
  9
$UCSORGLEFT
 10
0.0
 20
0.0
 30
0.0
  9
$UCSORGRIGHT
 10
0.0
 20
0.0
 30
0.0
  9
$UCSORGFRONT
 10
0.0
 20
0.0
 30
0.0
  9
$UCSORGBACK
 10
0.0
 20
0.0
 30
0.0
  9
$PUCSBASE
  2

  9
$PUCSNAME
  2

  9
$PUCSORG
 10
0.0
 20
0.0
 30
0.0
  9
$PUCSXDIR
 10
1.0
 20
0.0
 30
0.0
  9
$PUCSYDIR
 10
0.0
 20
1.0
 30
0.0
  9
$PUCSORTHOREF
  2

  9
$PUCSORTHOVIEW
 70
     0
  9
$PUCSORGTOP
 10
0.0
 20
0.0
 30
0.0
  9
$PUCSORGBOTTOM
 10
0.0
 20
0.0
 30
0.0
  9
$PUCSORGLEFT
 10
0.0
 20
0.0
 30
0.0
  9
$PUCSORGRIGHT
 10
0.0
 20
0.0
 30
0.0
  9
$PUCSORGFRONT
 10
0.0
 20
0.0
 30
0.0
  9
$PUCSORGBACK
 10
0.0
 20
0.0
 30
0.0
  9
$USERI1
 70
     0
  9
$USERI2
 70
     0
  9
$USERI3
 70
     0
  9
$USERI4
 70
     0
  9
$USERI5
 70
     0
  9
$USERR1
 40
0.0
  9
$USERR2
 40
0.0
  9
$USERR3
 40
0.0
  9
$USERR4
 40
0.0
  9
$USERR5
 40
0.0
  9
$WORLDVIEW
 70
     1
  9
$SHADEDGE
 70
     3
  9
$SHADEDIF
 70
    70
  9
$TILEMODE
 70
     1
  9
$MAXACTVP
 70
    16
  9
$PINSBASE
 10
0.0
 20
0.0
 30
0.0
  9
$PLIMCHECK
 70
     0
  9
$PEXTMIN
 10
1.000000E+20
 20
1.000000E+20
 30
1.000000E+20
  9
$PEXTMAX
 10
-1.000000E+20
 20
-1.000000E+20
 30
-1.000000E+20
  9
$PLIMMIN
 10
0.0
 20
0.0
  9
$PLIMMAX
 10
12.0
 20
9.0
  9
$UNITMODE
 70
     0
  9
$VISRETAIN
 70
     0
  9
$PLINEGEN
 70
     1
  9
$PSLTSCALE
 70
     0
  9
$TREEDEPTH
 70
  3020
  9
$CMLSTYLE
  2
Standard
  9
$CMLJUST
 70
     0
  9
$CMLSCALE
 40
1.0
  9
$PROXYGRAPHICS
 70
     0
  9
$MEASUREMENT
 70
     0
  9
$CELWEIGHT
370
     0
  9
$ENDCAPS
280
     0
  9
$JOINSTYLE
280
     0
  9
$LWDISPLAY
290
     0
  9
$INSUNITS
 70
     4
  9
$HYPERLINKBASE
  1

  9
$XEDIT
290
     1
  9
$CEPSNTYPE
380
     0
  9
$PSTYLEMODE
290
     1
  9
$FINGERPRINTGUID
  2

  9
$VERSIONGUID
  2

  9
$EXTNAMES
290
     1
  9
$PSVPSCALE
 40
0.0
  0
ENDSEC
  0
SECTION
  2
CLASSES
  0
CLASS
  1
LWPOLYLINE
  2
AcDbPolyline
  3
AutoCAD 2000
 90
    32768
280
     0
281
     1
  0
CLASS
  1
IMAGE
  2
AcDbRasterImage
  3
ISM
 90
    32895
280
     0
281
     1
  0
CLASS
  1
OLE2FRAME
  2
AcDbOle2Frame
  3
AutoCAD 2000
 90
    32768
280
     0
281
     1
  0
CLASS
  1
HATCH
  2
AcDbHatch
  3
AutoCAD 2000
 90
    32768
280
     0
281
     1
  0
CLASS
  1
DICTIONARYVAR
  2
AcDbDictionaryVar
  3
AutoCAD 2000
 90
    32768
280
     0
281
     0
  0
CLASS
  1
RASTERVARIABLES
  2
AcDbRasterVariables
  3
ISM
 90
    32768
280
     0
281
     0
  0
CLASS
  1
IMAGEDEF
  2
AcDbRasterImageDef
  3
ISM
 90
    32768
280
     0
281
     0
  0
CLASS
  1
IMAGEDEF_REACTOR
  2
AcDbRasterImageDefReactor
  3
ISM
 90
    32769
280
     0
281
     0
  0
CLASS
  1
IDBUFFER
  2
AcDbIdBuffer
  3
AutoCAD 2000
 90
    32768
280
     0
281
     0
  0
CLASS
  1
SPATIAL_FILTER
  2
AcDbSpatialFilter
  3
AutoCAD 2000
 90
    32768
280
     0
281
     0
  0
CLASS
  1
XRECORD
  2
AcDbXrecord
  3
AutoCAD 2000
 90
    32768
280
     0
281
     0
  0
CLASS
  1
SORTENTSTABLE
  2
AcDbSortentsTable
  3
AutoCAD 2000
 90
    32768
280
     0
281
     0
  0
CLASS
  1
LAYER_INDEX
  2
AcDbLayerIndex
  3
AutoCAD 2000
 90
    32768
280
     0
281
     0
  0
CLASS
  1
SPATIAL_INDEX
  2
AcDbSpatialIndex
  3
AutoCAD 2000
 90
    32768
280
     0
281
     0
  0
CLASS
  1
OBJECT_PTR
  2
CAseDLPNTableRecord
  3
"ASE-LPNTableRecord"
 90
    32769
280
     0
281
     0
  0
CLASS
  1
LAYOUT
  2
AcDbLayout
  3
AutoCAD 2000
 90
        0
280
     0
281
     0
  0
CLASS
  1
PLOTSETTINGS
  2
AcDbPlotSettings
  3
AutoCAD 2000
 90
    32768
280
     0
281
     0
  0
CLASS
  1
ACDBDICTIONARYWDFLT
  2
AcDbDictionaryWithDefault
  3
AutoCAD 2000
 90
        0
280
     0
281
     0
  0
CLASS
  1
ACDBPLACEHOLDER
  2
AcDbPlaceHolder
  3
AutoCAD 2000
 90
        0
280
     0
281
     0
  0
CLASS
  1
VBA_PROJECT
  2
AcDbVbaProject
  3
acadvba
 90
    32768
280
     0
281
     0
  0
CLASS
  1
WIPEOUT
  2
AcDbWipeout
  3
WipeOut|AutoCAD Express Tool|expresstools@autodesk.com
 90
    32895
280
     0
281
     1
  0
CLASS
  1
WIPEOUTVARIABLES
  2
AcDbWipeoutVariables
  3
WipeOut|AutoCAD Express Tool|expresstools@autodesk.com
 90
        0
280
     0
281
     0
  0
CLASS
  1
RTEXT
  2
RText
  3
RText|AutoCAD Express Tool|expresstools@autodesk.com
 90
    32768
280
     0
281
     1
  0
CLASS
  1
ARCALIGNEDTEXT
  2
AcDbArcAlignedText
  3
ATEXT|AutoCAD Express Tool|expresstools@autodesk.com
 90
    32768
280
     0
281
     1
  0
ENDSEC
  0
SECTION
  2
TABLES
  0
TABLE
  2
VPORT
  5
7
100
AcDbSymbolTable
 70
     1
  0
VPORT
  5
15
100
AcDbSymbolTableRecord
100
AcDbViewportTableRecord
  2
*ACTIVE
 70
     0
 10
0.0
 20
0.0
 11
1.0
 21
1.0
 12
6.591288
 22
4.579184
 13
0.0
 23
0.0
 14
1.0
 24
1.0
 15
0.0
 25
0.0
 16
0.0
 26
0.0
 36
1.0
 17
0.0
 27
0.0
 37
0.0
 40
9.158369
 41
0.688564
 42
50.0
 43
0.0
 44
0.0
 50
0.0
 51
0.0
 71
     0
 72
   100
 73
     1
 74
     1
 75
     0
 76
     0
 77
     0
 78
     0
281
     0
 65
     0
110
0.0
120
0.0
130
0.0
111
1.0
121
0.0
131
0.0
112
0.0
122
1.0
132
0.0
345
0
346
0
 79
     0
146
0.0
  0
ENDTAB
  0
TABLE
  2
LTYPE
  5
4
100
AcDbSymbolTable
 70
     3
  0
LTYPE
  5
11
100
AcDbSymbolTableRecord
100
AcDbLinetypeTableRecord
  2
ByBlock
 70
    64
  3

 72
    65
 73
     0
 40
0.0
  0
LTYPE
  5
12
100
AcDbSymbolTableRecord
100
AcDbLinetypeTableRecord
  2
ByLayer
 70
    64
  3

 72
    65
 73
     0
 40
0.0
  0
LTYPE
  5
13
100
AcDbSymbolTableRecord
100
AcDbLinetypeTableRecord
  2
Continuous
 70
    64
  3
Solid line
 72
    65
 73
     0
 40
0.0
  0
ENDTAB
  0
TABLE
  2
LAYER
  5
2
100
AcDbSymbolTable
 70
     2
  0
LAYER
  5
14
100
AcDbSymbolTableRecord
100
AcDbLayerTableRecord
  2
0
 70
     0
 62
     7
  6
Continuous
290
     1
370
    -3
390
1D
  0
LAYER
  5
24
100
AcDbSymbolTableRecord
100
AcDbLayerTableRecord
  2
0
 70
     0
 62
     7
  6
Continuous
290
     1
370
    -3
390
1F
  0
ENDTAB
  0
TABLE
  2
STYLE
  5
3
100
AcDbSymbolTable
 70
     1
  0
STYLE
  5
17
100
AcDbSymbolTableRecord
100
AcDbTextStyleTableRecord
  2
Standard
 70
     0
 40
0.0
 41
1.0
 50
0.0
 71
     0
 42
0.0
  3
txt
  4

  0
ENDTAB
  0
TABLE
  2
VIEW
  5
5
100
AcDbSymbolTable
 70
     0
  0
ENDTAB
  0
TABLE
  2
UCS
  5
6
100
AcDbSymbolTable
 70
     0
  0
ENDTAB
  0
TABLE
  2
APPID
  5
8
100
AcDbSymbolTable
 70
     1
  0
APPID
  5
16
100
AcDbSymbolTableRecord
100
AcDbRegAppTableRecord
  2
ACAD
 70
     0
  0
ENDTAB
  0
TABLE
  2
DIMSTYLE
  5
9
100
AcDbSymbolTable
 70
     1
100
AcDbDimStyleTable
 71
     0
  0
DIMSTYLE
105
18
100
AcDbSymbolTableRecord
100
AcDbDimStyleTableRecord
  2
Standard
 70
     0
  3

  4

 40
1.0
 41
0.18
 42
0.0625
 43
0.38
 44
0.18
 45
0.0
 46
0.0
 47
0.0
 48
0.0
 71
     0
 72
     0
 73
     1
 74
     1
 75
     0
 76
     0
 77
     0
 78
     0
 79
     0
140
0.18
141
0.09
142
0.0
143
25.4
144
1.0
145
0.0
146
1.0
147
0.09
148
0.0
170
     0
171
     2
172
     0
173
     0
174
     0
175
     0
176
     0
177
     0
178
     0
179
     0
271
     4
272
     4
273
     2
274
     2
275
     0
276
     0
277
     2
278
    46
279
     0
280
     0
281
     0
282
     0
283
     1
284
     0
285
     0
286
     0
288
     0
340
17
341
0
342
0
343
0
344
0
371
    -2
372
    -2
  0
ENDTAB
  0
TABLE
  2
BLOCK_RECORD
  5
1
100
AcDbSymbolTable
 70
     0
  0
BLOCK_RECORD
  5
A
100
AcDbSymbolTableRecord
100
AcDbBlockTableRecord
  2
*MODEL_SPACE
340
20
  0
BLOCK_RECORD
  5
B
100
AcDbSymbolTableRecord
100
AcDbBlockTableRecord
  2
*PAPER_SPACE
340
21
  0
ENDTAB
  0
ENDSEC
  0
SECTION
  2
BLOCKS
  0
BLOCK
  5
D
100
AcDbEntity
  8
0
100
AcDbBlockBegin
  2
*MODEL_SPACE
 70
     0
 10
0.0
 20
0.0
 30
0.0
  3
*MODEL_SPACE
  1

  0
ENDBLK
  5
E
100
AcDbEntity
  8
0
100
AcDbBlockEnd
  0
BLOCK
  5
F
100
AcDbEntity
 67
     1
  8
0
100
AcDbBlockBegin
  2
*PAPER_SPACE
 70
     0
 10
0.0
 20
0.0
 30
0.0
  3
*PAPER_SPACE
  1

  0
ENDBLK
  5
10
100
AcDbEntity
 67
     1
  8
0
100
AcDbBlockEnd
  0
ENDSEC
  0
SECTION
  2
ENTITIES
  0
SPLINE
  5
25
100
AcDbEntity
  8
0
 62
     7
100
AcDbSpline
210
0.0
220
0.0
230
1.0
 70
     1
 71
     3
 72
  1228
 73
  1224
 74
     0
 42
0.0000000001
 43
0.0000000001
 40
0.0
 40
0.0
 40
0.0
 40
0.0
 40
0.0032679738562092
 40
0.0032679738562092
 40
0.0032679738562092
 40
0.0032679738562092
 40
0.0065359477124183
 40
0.0065359477124183
 40
0.0065359477124183
 40
0.0065359477124183
 40
0.0098039215686275
 40
0.0098039215686275
 40
0.0098039215686275
 40
0.0098039215686275
 40
0.0130718954248366
 40
0.0130718954248366
 40
0.0130718954248366
 40
0.0130718954248366
 40
0.0163398692810458
 40
0.0163398692810458
 40
0.0163398692810458
 40
0.0163398692810458
 40
0.0196078431372549
 40
0.0196078431372549
 40
0.0196078431372549
 40
0.0196078431372549
 40
0.0228758169934641
 40
0.0228758169934641
 40
0.0228758169934641
 40
0.0228758169934641
 40
0.0261437908496732
 40
0.0261437908496732
 40
0.0261437908496732
 40
0.0261437908496732
 40
0.0294117647058823
 40
0.0294117647058823
 40
0.0294117647058823
 40
0.0294117647058823
 40
0.0326797385620915
 40
0.0326797385620915
 40
0.0326797385620915
 40
0.0326797385620915
 40
0.0359477124183007
 40
0.0359477124183007
 40
0.0359477124183007
 40
0.0359477124183007
 40
0.0392156862745098
 40
0.0392156862745098
 40
0.0392156862745098
 40
0.0392156862745098
 40
0.042483660130719
 40
0.042483660130719
 40
0.042483660130719
 40
0.042483660130719
 40
0.0457516339869281
 40
0.0457516339869281
 40
0.0457516339869281
 40
0.0457516339869281
 40
0.0490196078431373
 40
0.0490196078431373
 40
0.0490196078431373
 40
0.0490196078431373
 40
0.0522875816993464
 40
0.0522875816993464
 40
0.0522875816993464
 40
0.0522875816993464
 40
0.0555555555555556
 40
0.0555555555555556
 40
0.0555555555555556
 40
0.0555555555555556
 40
0.0588235294117647
 40
0.0588235294117647
 40
0.0588235294117647
 40
0.0588235294117647
 40
0.0620915032679739
 40
0.0620915032679739
 40
0.0620915032679739
 40
0.0620915032679739
 40
0.065359477124183
 40
0.065359477124183
 40
0.065359477124183
 40
0.065359477124183
 40
0.0686274509803922
 40
0.0686274509803922
 40
0.0686274509803922
 40
0.0686274509803922
 40
0.0718954248366013
 40
0.0718954248366013
 40
0.0718954248366013
 40
0.0718954248366013
 40
0.0751633986928105
 40
0.0751633986928105
 40
0.0751633986928105
 40
0.0751633986928105
 40
0.0784313725490196
 40
0.0784313725490196
 40
0.0784313725490196
 40
0.0784313725490196
 40
0.0816993464052288
 40
0.0816993464052288
 40
0.0816993464052288
 40
0.0816993464052288
 40
0.0849673202614379
 40
0.0849673202614379
 40
0.0849673202614379
 40
0.0849673202614379
 40
0.0882352941176471
 40
0.0882352941176471
 40
0.0882352941176471
 40
0.0882352941176471
 40
0.0915032679738562
 40
0.0915032679738562
 40
0.0915032679738562
 40
0.0915032679738562
 40
0.0947712418300654
 40
0.0947712418300654
 40
0.0947712418300654
 40
0.0947712418300654
 40
0.0980392156862746
 40
0.0980392156862746
 40
0.0980392156862746
 40
0.0980392156862746
 40
0.1013071895424837
 40
0.1013071895424837
 40
0.1013071895424837
 40
0.1013071895424837
 40
0.1045751633986929
 40
0.1045751633986929
 40
0.1045751633986929
 40
0.1045751633986929
 40
0.107843137254902
 40
0.107843137254902
 40
0.107843137254902
 40
0.107843137254902
 40
0.1111111111111112
 40
0.1111111111111112
 40
0.1111111111111112
 40
0.1111111111111112
 40
0.1143790849673203
 40
0.1143790849673203
 40
0.1143790849673203
 40
0.1143790849673203
 40
0.1176470588235295
 40
0.1176470588235295
 40
0.1176470588235295
 40
0.1176470588235295
 40
0.1209150326797386
 40
0.1209150326797386
 40
0.1209150326797386
 40
0.1209150326797386
 40
0.1241830065359478
 40
0.1241830065359478
 40
0.1241830065359478
 40
0.1241830065359478
 40
0.1274509803921569
 40
0.1274509803921569
 40
0.1274509803921569
 40
0.1274509803921569
 40
0.1307189542483661
 40
0.1307189542483661
 40
0.1307189542483661
 40
0.1307189542483661
 40
0.1339869281045752
 40
0.1339869281045752
 40
0.1339869281045752
 40
0.1339869281045752
 40
0.1372549019607843
 40
0.1372549019607843
 40
0.1372549019607843
 40
0.1372549019607843
 40
0.1405228758169935
 40
0.1405228758169935
 40
0.1405228758169935
 40
0.1405228758169935
 40
0.1437908496732026
 40
0.1437908496732026
 40
0.1437908496732026
 40
0.1437908496732026
 40
0.1470588235294117
 40
0.1470588235294117
 40
0.1470588235294117
 40
0.1470588235294117
 40
0.1503267973856209
 40
0.1503267973856209
 40
0.1503267973856209
 40
0.1503267973856209
 40
0.15359477124183
 40
0.15359477124183
 40
0.15359477124183
 40
0.15359477124183
 40
0.1568627450980392
 40
0.1568627450980392
 40
0.1568627450980392
 40
0.1568627450980392
 40
0.1601307189542483
 40
0.1601307189542483
 40
0.1601307189542483
 40
0.1601307189542483
 40
0.1633986928104574
 40
0.1633986928104574
 40
0.1633986928104574
 40
0.1633986928104574
 40
0.1666666666666666
 40
0.1666666666666666
 40
0.1666666666666666
 40
0.1666666666666666
 40
0.1699346405228757
 40
0.1699346405228757
 40
0.1699346405228757
 40
0.1699346405228757
 40
0.1732026143790849
 40
0.1732026143790849
 40
0.1732026143790849
 40
0.1732026143790849
 40
0.176470588235294
 40
0.176470588235294
 40
0.176470588235294
 40
0.176470588235294
 40
0.1797385620915031
 40
0.1797385620915031
 40
0.1797385620915031
 40
0.1797385620915031
 40
0.1830065359477123
 40
0.1830065359477123
 40
0.1830065359477123
 40
0.1830065359477123
 40
0.1862745098039214
 40
0.1862745098039214
 40
0.1862745098039214
 40
0.1862745098039214
 40
0.1895424836601306
 40
0.1895424836601306
 40
0.1895424836601306
 40
0.1895424836601306
 40
0.1928104575163397
 40
0.1928104575163397
 40
0.1928104575163397
 40
0.1928104575163397
 40
0.1960784313725488
 40
0.1960784313725488
 40
0.1960784313725488
 40
0.1960784313725488
 40
0.199346405228758
 40
0.199346405228758
 40
0.199346405228758
 40
0.199346405228758
 40
0.2026143790849671
 40
0.2026143790849671
 40
0.2026143790849671
 40
0.2026143790849671
 40
0.2058823529411762
 40
0.2058823529411762
 40
0.2058823529411762
 40
0.2058823529411762
 40
0.2091503267973854
 40
0.2091503267973854
 40
0.2091503267973854
 40
0.2091503267973854
 40
0.2124183006535945
 40
0.2124183006535945
 40
0.2124183006535945
 40
0.2124183006535945
 40
0.2156862745098037
 40
0.2156862745098037
 40
0.2156862745098037
 40
0.2156862745098037
 40
0.2189542483660128
 40
0.2189542483660128
 40
0.2189542483660128
 40
0.2189542483660128
 40
0.2222222222222219
 40
0.2222222222222219
 40
0.2222222222222219
 40
0.2222222222222219
 40
0.2254901960784311
 40
0.2254901960784311
 40
0.2254901960784311
 40
0.2254901960784311
 40
0.2287581699346402
 40
0.2287581699346402
 40
0.2287581699346402
 40
0.2287581699346402
 40
0.2320261437908494
 40
0.2320261437908494
 40
0.2320261437908494
 40
0.2320261437908494
 40
0.2352941176470585
 40
0.2352941176470585
 40
0.2352941176470585
 40
0.2352941176470585
 40
0.2385620915032676
 40
0.2385620915032676
 40
0.2385620915032676
 40
0.2385620915032676
 40
0.2418300653594768
 40
0.2418300653594768
 40
0.2418300653594768
 40
0.2418300653594768
 40
0.2450980392156859
 40
0.2450980392156859
 40
0.2450980392156859
 40
0.2450980392156859
 40
0.248366013071895
 40
0.248366013071895
 40
0.248366013071895
 40
0.248366013071895
 40
0.2516339869281042
 40
0.2516339869281042
 40
0.2516339869281042
 40
0.2516339869281042
 40
0.2549019607843133
 40
0.2549019607843133
 40
0.2549019607843133
 40
0.2549019607843133
 40
0.2581699346405225
 40
0.2581699346405225
 40
0.2581699346405225
 40
0.2581699346405225
 40
0.2614379084967316
 40
0.2614379084967316
 40
0.2614379084967316
 40
0.2614379084967316
 40
0.2647058823529407
 40
0.2647058823529407
 40
0.2647058823529407
 40
0.2647058823529407
 40
0.2679738562091499
 40
0.2679738562091499
 40
0.2679738562091499
 40
0.2679738562091499
 40
0.271241830065359
 40
0.271241830065359
 40
0.271241830065359
 40
0.271241830065359
 40
0.2745098039215682
 40
0.2745098039215682
 40
0.2745098039215682
 40
0.2745098039215682
 40
0.2777777777777773
 40
0.2777777777777773
 40
0.2777777777777773
 40
0.2777777777777773
 40
0.2810457516339864
 40
0.2810457516339864
 40
0.2810457516339864
 40
0.2810457516339864
 40
0.2843137254901956
 40
0.2843137254901956
 40
0.2843137254901956
 40
0.2843137254901956
 40
0.2875816993464047
 40
0.2875816993464047
 40
0.2875816993464047
 40
0.2875816993464047
 40
0.2908496732026139
 40
0.2908496732026139
 40
0.2908496732026139
 40
0.2908496732026139
 40
0.294117647058823
 40
0.294117647058823
 40
0.294117647058823
 40
0.294117647058823
 40
0.2973856209150321
 40
0.2973856209150321
 40
0.2973856209150321
 40
0.2973856209150321
 40
0.3006535947712413
 40
0.3006535947712413
 40
0.3006535947712413
 40
0.3006535947712413
 40
0.3039215686274504
 40
0.3039215686274504
 40
0.3039215686274504
 40
0.3039215686274504
 40
0.3071895424836595
 40
0.3071895424836595
 40
0.3071895424836595
 40
0.3071895424836595
 40
0.3104575163398687
 40
0.3104575163398687
 40
0.3104575163398687
 40
0.3104575163398687
 40
0.3137254901960778
 40
0.3137254901960778
 40
0.3137254901960778
 40
0.3137254901960778
 40
0.316993464052287
 40
0.316993464052287
 40
0.316993464052287
 40
0.316993464052287
 40
0.3202614379084961
 40
0.3202614379084961
 40
0.3202614379084961
 40
0.3202614379084961
 40
0.3235294117647052
 40
0.3235294117647052
 40
0.3235294117647052
 40
0.3235294117647052
 40
0.3267973856209144
 40
0.3267973856209144
 40
0.3267973856209144
 40
0.3267973856209144
 40
0.3300653594771235
 40
0.3300653594771235
 40
0.3300653594771235
 40
0.3300653594771235
 40
0.3333333333333327
 40
0.3333333333333327
 40
0.3333333333333327
 40
0.3333333333333327
 40
0.3366013071895418
 40
0.3366013071895418
 40
0.3366013071895418
 40
0.3366013071895418
 40
0.3398692810457509
 40
0.3398692810457509
 40
0.3398692810457509
 40
0.3398692810457509
 40
0.3431372549019601
 40
0.3431372549019601
 40
0.3431372549019601
 40
0.3431372549019601
 40
0.3464052287581692
 40
0.3464052287581692
 40
0.3464052287581692
 40
0.3464052287581692
 40
0.3496732026143783
 40
0.3496732026143783
 40
0.3496732026143783
 40
0.3496732026143783
 40
0.3529411764705875
 40
0.3529411764705875
 40
0.3529411764705875
 40
0.3529411764705875
 40
0.3562091503267966
 40
0.3562091503267966
 40
0.3562091503267966
 40
0.3562091503267966
 40
0.3594771241830058
 40
0.3594771241830058
 40
0.3594771241830058
 40
0.3594771241830058
 40
0.3627450980392149
 40
0.3627450980392149
 40
0.3627450980392149
 40
0.3627450980392149
 40
0.366013071895424
 40
0.366013071895424
 40
0.366013071895424
 40
0.366013071895424
 40
0.3692810457516332
 40
0.3692810457516332
 40
0.3692810457516332
 40
0.3692810457516332
 40
0.3725490196078423
 40
0.3725490196078423
 40
0.3725490196078423
 40
0.3725490196078423
 40
0.3758169934640515
 40
0.3758169934640515
 40
0.3758169934640515
 40
0.3758169934640515
 40
0.3790849673202606
 40
0.3790849673202606
 40
0.3790849673202606
 40
0.3790849673202606
 40
0.3823529411764697
 40
0.3823529411764697
 40
0.3823529411764697
 40
0.3823529411764697
 40
0.3856209150326789
 40
0.3856209150326789
 40
0.3856209150326789
 40
0.3856209150326789
 40
0.388888888888888
 40
0.388888888888888
 40
0.388888888888888
 40
0.388888888888888
 40
0.3921568627450972
 40
0.3921568627450972
 40
0.3921568627450972
 40
0.3921568627450972
 40
0.3954248366013063
 40
0.3954248366013063
 40
0.3954248366013063
 40
0.3954248366013063
 40
0.3986928104575154
 40
0.3986928104575154
 40
0.3986928104575154
 40
0.3986928104575154
 40
0.4019607843137246
 40
0.4019607843137246
 40
0.4019607843137246
 40
0.4019607843137246
 40
0.4052287581699337
 40
0.4052287581699337
 40
0.4052287581699337
 40
0.4052287581699337
 40
0.4084967320261428
 40
0.4084967320261428
 40
0.4084967320261428
 40
0.4084967320261428
 40
0.411764705882352
 40
0.411764705882352
 40
0.411764705882352
 40
0.411764705882352
 40
0.4150326797385611
 40
0.4150326797385611
 40
0.4150326797385611
 40
0.4150326797385611
 40
0.4183006535947703
 40
0.4183006535947703
 40
0.4183006535947703
 40
0.4183006535947703
 40
0.4215686274509794
 40
0.4215686274509794
 40
0.4215686274509794
 40
0.4215686274509794
 40
0.4248366013071885
 40
0.4248366013071885
 40
0.4248366013071885
 40
0.4248366013071885
 40
0.4281045751633977
 40
0.4281045751633977
 40
0.4281045751633977
 40
0.4281045751633977
 40
0.4313725490196068
 40
0.4313725490196068
 40
0.4313725490196068
 40
0.4313725490196068
 40
0.434640522875816
 40
0.434640522875816
 40
0.434640522875816
 40
0.434640522875816
 40
0.4379084967320251
 40
0.4379084967320251
 40
0.4379084967320251
 40
0.4379084967320251
 40
0.4411764705882342
 40
0.4411764705882342
 40
0.4411764705882342
 40
0.4411764705882342
 40
0.4444444444444434
 40
0.4444444444444434
 40
0.4444444444444434
 40
0.4444444444444434
 40
0.4477124183006525
 40
0.4477124183006525
 40
0.4477124183006525
 40
0.4477124183006525
 40
0.4509803921568616
 40
0.4509803921568616
 40
0.4509803921568616
 40
0.4509803921568616
 40
0.4542483660130708
 40
0.4542483660130708
 40
0.4542483660130708
 40
0.4542483660130708
 40
0.4575163398692799
 40
0.4575163398692799
 40
0.4575163398692799
 40
0.4575163398692799
 40
0.4607843137254891
 40
0.4607843137254891
 40
0.4607843137254891
 40
0.4607843137254891
 40
0.4640522875816982
 40
0.4640522875816982
 40
0.4640522875816982
 40
0.4640522875816982
 40
0.4673202614379073
 40
0.4673202614379073
 40
0.4673202614379073
 40
0.4673202614379073
 40
0.4705882352941165
 40
0.4705882352941165
 40
0.4705882352941165
 40
0.4705882352941165
 40
0.4738562091503256
 40
0.4738562091503256
 40
0.4738562091503256
 40
0.4738562091503256
 40
0.4771241830065348
 40
0.4771241830065348
 40
0.4771241830065348
 40
0.4771241830065348
 40
0.4803921568627439
 40
0.4803921568627439
 40
0.4803921568627439
 40
0.4803921568627439
 40
0.483660130718953
 40
0.483660130718953
 40
0.483660130718953
 40
0.483660130718953
 40
0.4869281045751622
 40
0.4869281045751622
 40
0.4869281045751622
 40
0.4869281045751622
 40
0.4901960784313713
 40
0.4901960784313713
 40
0.4901960784313713
 40
0.4901960784313713
 40
0.4934640522875805
 40
0.4934640522875805
 40
0.4934640522875805
 40
0.4934640522875805
 40
0.4967320261437896
 40
0.4967320261437896
 40
0.4967320261437896
 40
0.4967320261437896
 40
0.4999999999999987
 40
0.4999999999999987
 40
0.4999999999999987
 40
0.4999999999999987
 40
0.5032679738562079
 40
0.5032679738562079
 40
0.5032679738562079
 40
0.5032679738562079
 40
0.5065359477124171
 40
0.5065359477124171
 40
0.5065359477124171
 40
0.5065359477124171
 40
0.5098039215686262
 40
0.5098039215686262
 40
0.5098039215686262
 40
0.5098039215686262
 40
0.5130718954248353
 40
0.5130718954248353
 40
0.5130718954248353
 40
0.5130718954248353
 40
0.5163398692810445
 40
0.5163398692810445
 40
0.5163398692810445
 40
0.5163398692810445
 40
0.5196078431372536
 40
0.5196078431372536
 40
0.5196078431372536
 40
0.5196078431372536
 40
0.5228758169934628
 40
0.5228758169934628
 40
0.5228758169934628
 40
0.5228758169934628
 40
0.5261437908496719
 40
0.5261437908496719
 40
0.5261437908496719
 40
0.5261437908496719
 40
0.529411764705881
 40
0.529411764705881
 40
0.529411764705881
 40
0.529411764705881
 40
0.5326797385620902
 40
0.5326797385620902
 40
0.5326797385620902
 40
0.5326797385620902
 40
0.5359477124182993
 40
0.5359477124182993
 40
0.5359477124182993
 40
0.5359477124182993
 40
0.5392156862745084
 40
0.5392156862745084
 40
0.5392156862745084
 40
0.5392156862745084
 40
0.5424836601307176
 40
0.5424836601307176
 40
0.5424836601307176
 40
0.5424836601307176
 40
0.5457516339869267
 40
0.5457516339869267
 40
0.5457516339869267
 40
0.5457516339869267
 40
0.5490196078431359
 40
0.5490196078431359
 40
0.5490196078431359
 40
0.5490196078431359
 40
0.552287581699345
 40
0.552287581699345
 40
0.552287581699345
 40
0.552287581699345
 40
0.5555555555555541
 40
0.5555555555555541
 40
0.5555555555555541
 40
0.5555555555555541
 40
0.5588235294117633
 40
0.5588235294117633
 40
0.5588235294117633
 40
0.5588235294117633
 40
0.5620915032679724
 40
0.5620915032679724
 40
0.5620915032679724
 40
0.5620915032679724
 40
0.5653594771241816
 40
0.5653594771241816
 40
0.5653594771241816
 40
0.5653594771241816
 40
0.5686274509803907
 40
0.5686274509803907
 40
0.5686274509803907
 40
0.5686274509803907
 40
0.5718954248365998
 40
0.5718954248365998
 40
0.5718954248365998
 40
0.5718954248365998
 40
0.575163398692809
 40
0.575163398692809
 40
0.575163398692809
 40
0.575163398692809
 40
0.5784313725490181
 40
0.5784313725490181
 40
0.5784313725490181
 40
0.5784313725490181
 40
0.5816993464052273
 40
0.5816993464052273
 40
0.5816993464052273
 40
0.5816993464052273
 40
0.5849673202614364
 40
0.5849673202614364
 40
0.5849673202614364
 40
0.5849673202614364
 40
0.5882352941176455
 40
0.5882352941176455
 40
0.5882352941176455
 40
0.5882352941176455
 40
0.5915032679738547
 40
0.5915032679738547
 40
0.5915032679738547
 40
0.5915032679738547
 40
0.5947712418300638
 40
0.5947712418300638
 40
0.5947712418300638
 40
0.5947712418300638
 40
0.5980392156862729
 40
0.5980392156862729
 40
0.5980392156862729
 40
0.5980392156862729
 40
0.6013071895424821
 40
0.6013071895424821
 40
0.6013071895424821
 40
0.6013071895424821
 40
0.6045751633986912
 40
0.6045751633986912
 40
0.6045751633986912
 40
0.6045751633986912
 40
0.6078431372549004
 40
0.6078431372549004
 40
0.6078431372549004
 40
0.6078431372549004
 40
0.6111111111111095
 40
0.6111111111111095
 40
0.6111111111111095
 40
0.6111111111111095
 40
0.6143790849673186
 40
0.6143790849673186
 40
0.6143790849673186
 40
0.6143790849673186
 40
0.6176470588235278
 40
0.6176470588235278
 40
0.6176470588235278
 40
0.6176470588235278
 40
0.6209150326797369
 40
0.6209150326797369
 40
0.6209150326797369
 40
0.6209150326797369
 40
0.6241830065359461
 40
0.6241830065359461
 40
0.6241830065359461
 40
0.6241830065359461
 40
0.6274509803921552
 40
0.6274509803921552
 40
0.6274509803921552
 40
0.6274509803921552
 40
0.6307189542483643
 40
0.6307189542483643
 40
0.6307189542483643
 40
0.6307189542483643
 40
0.6339869281045735
 40
0.6339869281045735
 40
0.6339869281045735
 40
0.6339869281045735
 40
0.6372549019607826
 40
0.6372549019607826
 40
0.6372549019607826
 40
0.6372549019607826
 40
0.6405228758169917
 40
0.6405228758169917
 40
0.6405228758169917
 40
0.6405228758169917
 40
0.6437908496732009
 40
0.6437908496732009
 40
0.6437908496732009
 40
0.6437908496732009
 40
0.64705882352941
 40
0.64705882352941
 40
0.64705882352941
 40
0.64705882352941
 40
0.6503267973856192
 40
0.6503267973856192
 40
0.6503267973856192
 40
0.6503267973856192
 40
0.6535947712418283
 40
0.6535947712418283
 40
0.6535947712418283
 40
0.6535947712418283
 40
0.6568627450980374
 40
0.6568627450980374
 40
0.6568627450980374
 40
0.6568627450980374
 40
0.6601307189542466
 40
0.6601307189542466
 40
0.6601307189542466
 40
0.6601307189542466
 40
0.6633986928104557
 40
0.6633986928104557
 40
0.6633986928104557
 40
0.6633986928104557
 40
0.6666666666666649
 40
0.6666666666666649
 40
0.6666666666666649
 40
0.6666666666666649
 40
0.669934640522874
 40
0.669934640522874
 40
0.669934640522874
 40
0.669934640522874
 40
0.6732026143790831
 40
0.6732026143790831
 40
0.6732026143790831
 40
0.6732026143790831
 40
0.6764705882352923
 40
0.6764705882352923
 40
0.6764705882352923
 40
0.6764705882352923
 40
0.6797385620915014
 40
0.6797385620915014
 40
0.6797385620915014
 40
0.6797385620915014
 40
0.6830065359477106
 40
0.6830065359477106
 40
0.6830065359477106
 40
0.6830065359477106
 40
0.6862745098039197
 40
0.6862745098039197
 40
0.6862745098039197
 40
0.6862745098039197
 40
0.6895424836601288
 40
0.6895424836601288
 40
0.6895424836601288
 40
0.6895424836601288
 40
0.692810457516338
 40
0.692810457516338
 40
0.692810457516338
 40
0.692810457516338
 40
0.6960784313725471
 40
0.6960784313725471
 40
0.6960784313725471
 40
0.6960784313725471
 40
0.6993464052287562
 40
0.6993464052287562
 40
0.6993464052287562
 40
0.6993464052287562
 40
0.7026143790849654
 40
0.7026143790849654
 40
0.7026143790849654
 40
0.7026143790849654
 40
0.7058823529411745
 40
0.7058823529411745
 40
0.7058823529411745
 40
0.7058823529411745
 40
0.7091503267973837
 40
0.7091503267973837
 40
0.7091503267973837
 40
0.7091503267973837
 40
0.7124183006535928
 40
0.7124183006535928
 40
0.7124183006535928
 40
0.7124183006535928
 40
0.7156862745098019
 40
0.7156862745098019
 40
0.7156862745098019
 40
0.7156862745098019
 40
0.7189542483660111
 40
0.7189542483660111
 40
0.7189542483660111
 40
0.7189542483660111
 40
0.7222222222222202
 40
0.7222222222222202
 40
0.7222222222222202
 40
0.7222222222222202
 40
0.7254901960784294
 40
0.7254901960784294
 40
0.7254901960784294
 40
0.7254901960784294
 40
0.7287581699346385
 40
0.7287581699346385
 40
0.7287581699346385
 40
0.7287581699346385
 40
0.7320261437908476
 40
0.7320261437908476
 40
0.7320261437908476
 40
0.7320261437908476
 40
0.7352941176470568
 40
0.7352941176470568
 40
0.7352941176470568
 40
0.7352941176470568
 40
0.7385620915032659
 40
0.7385620915032659
 40
0.7385620915032659
 40
0.7385620915032659
 40
0.741830065359475
 40
0.741830065359475
 40
0.741830065359475
 40
0.741830065359475
 40
0.7450980392156842
 40
0.7450980392156842
 40
0.7450980392156842
 40
0.7450980392156842
 40
0.7483660130718933
 40
0.7483660130718933
 40
0.7483660130718933
 40
0.7483660130718933
 40
0.7516339869281025
 40
0.7516339869281025
 40
0.7516339869281025
 40
0.7516339869281025
 40
0.7549019607843116
 40
0.7549019607843116
 40
0.7549019607843116
 40
0.7549019607843116
 40
0.7581699346405207
 40
0.7581699346405207
 40
0.7581699346405207
 40
0.7581699346405207
 40
0.7614379084967299
 40
0.7614379084967299
 40
0.7614379084967299
 40
0.7614379084967299
 40
0.764705882352939
 40
0.764705882352939
 40
0.764705882352939
 40
0.764705882352939
 40
0.7679738562091482
 40
0.7679738562091482
 40
0.7679738562091482
 40
0.7679738562091482
 40
0.7712418300653573
 40
0.7712418300653573
 40
0.7712418300653573
 40
0.7712418300653573
 40
0.7745098039215664
 40
0.7745098039215664
 40
0.7745098039215664
 40
0.7745098039215664
 40
0.7777777777777756
 40
0.7777777777777756
 40
0.7777777777777756
 40
0.7777777777777756
 40
0.7810457516339847
 40
0.7810457516339847
 40
0.7810457516339847
 40
0.7810457516339847
 40
0.7843137254901939
 40
0.7843137254901939
 40
0.7843137254901939
 40
0.7843137254901939
 40
0.787581699346403
 40
0.787581699346403
 40
0.787581699346403
 40
0.787581699346403
 40
0.7908496732026121
 40
0.7908496732026121
 40
0.7908496732026121
 40
0.7908496732026121
 40
0.7941176470588213
 40
0.7941176470588213
 40
0.7941176470588213
 40
0.7941176470588213
 40
0.7973856209150304
 40
0.7973856209150304
 40
0.7973856209150304
 40
0.7973856209150304
 40
0.8006535947712395
 40
0.8006535947712395
 40
0.8006535947712395
 40
0.8006535947712395
 40
0.8039215686274487
 40
0.8039215686274487
 40
0.8039215686274487
 40
0.8039215686274487
 40
0.8071895424836578
 40
0.8071895424836578
 40
0.8071895424836578
 40
0.8071895424836578
 40
0.810457516339867
 40
0.810457516339867
 40
0.810457516339867
 40
0.810457516339867
 40
0.8137254901960761
 40
0.8137254901960761
 40
0.8137254901960761
 40
0.8137254901960761
 40
0.8169934640522852
 40
0.8169934640522852
 40
0.8169934640522852
 40
0.8169934640522852
 40
0.8202614379084944
 40
0.8202614379084944
 40
0.8202614379084944
 40
0.8202614379084944
 40
0.8235294117647035
 40
0.8235294117647035
 40
0.8235294117647035
 40
0.8235294117647035
 40
0.8267973856209127
 40
0.8267973856209127
 40
0.8267973856209127
 40
0.8267973856209127
 40
0.8300653594771218
 40
0.8300653594771218
 40
0.8300653594771218
 40
0.8300653594771218
 40
0.8333333333333309
 40
0.8333333333333309
 40
0.8333333333333309
 40
0.8333333333333309
 40
0.8366013071895401
 40
0.8366013071895401
 40
0.8366013071895401
 40
0.8366013071895401
 40
0.8398692810457492
 40
0.8398692810457492
 40
0.8398692810457492
 40
0.8398692810457492
 40
0.8431372549019583
 40
0.8431372549019583
 40
0.8431372549019583
 40
0.8431372549019583
 40
0.8464052287581675
 40
0.8464052287581675
 40
0.8464052287581675
 40
0.8464052287581675
 40
0.8496732026143766
 40
0.8496732026143766
 40
0.8496732026143766
 40
0.8496732026143766
 40
0.8529411764705858
 40
0.8529411764705858
 40
0.8529411764705858
 40
0.8529411764705858
 40
0.8562091503267949
 40
0.8562091503267949
 40
0.8562091503267949
 40
0.8562091503267949
 40
0.859477124183004
 40
0.859477124183004
 40
0.859477124183004
 40
0.859477124183004
 40
0.8627450980392132
 40
0.8627450980392132
 40
0.8627450980392132
 40
0.8627450980392132
 40
0.8660130718954223
 40
0.8660130718954223
 40
0.8660130718954223
 40
0.8660130718954223
 40
0.8692810457516315
 40
0.8692810457516315
 40
0.8692810457516315
 40
0.8692810457516315
 40
0.8725490196078406
 40
0.8725490196078406
 40
0.8725490196078406
 40
0.8725490196078406
 40
0.8758169934640497
 40
0.8758169934640497
 40
0.8758169934640497
 40
0.8758169934640497
 40
0.8790849673202589
 40
0.8790849673202589
 40
0.8790849673202589
 40
0.8790849673202589
 40
0.882352941176468
 40
0.882352941176468
 40
0.882352941176468
 40
0.882352941176468
 40
0.8856209150326772
 40
0.8856209150326772
 40
0.8856209150326772
 40
0.8856209150326772
 40
0.8888888888888863
 40
0.8888888888888863
 40
0.8888888888888863
 40
0.8888888888888863
 40
0.8921568627450954
 40
0.8921568627450954
 40
0.8921568627450954
 40
0.8921568627450954
 40
0.8954248366013046
 40
0.8954248366013046
 40
0.8954248366013046
 40
0.8954248366013046
 40
0.8986928104575137
 40
0.8986928104575137
 40
0.8986928104575137
 40
0.8986928104575137
 40
0.9019607843137228
 40
0.9019607843137228
 40
0.9019607843137228
 40
0.9019607843137228
 40
0.905228758169932
 40
0.905228758169932
 40
0.905228758169932
 40
0.905228758169932
 40
0.9084967320261411
 40
0.9084967320261411
 40
0.9084967320261411
 40
0.9084967320261411
 40
0.9117647058823503
 40
0.9117647058823503
 40
0.9117647058823503
 40
0.9117647058823503
 40
0.9150326797385594
 40
0.9150326797385594
 40
0.9150326797385594
 40
0.9150326797385594
 40
0.9183006535947685
 40
0.9183006535947685
 40
0.9183006535947685
 40
0.9183006535947685
 40
0.9215686274509777
 40
0.9215686274509777
 40
0.9215686274509777
 40
0.9215686274509777
 40
0.9248366013071868
 40
0.9248366013071868
 40
0.9248366013071868
 40
0.9248366013071868
 40
0.928104575163396
 40
0.928104575163396
 40
0.928104575163396
 40
0.928104575163396
 40
0.9313725490196051
 40
0.9313725490196051
 40
0.9313725490196051
 40
0.9313725490196051
 40
0.9346405228758142
 40
0.9346405228758142
 40
0.9346405228758142
 40
0.9346405228758142
 40
0.9379084967320234
 40
0.9379084967320234
 40
0.9379084967320234
 40
0.9379084967320234
 40
0.9411764705882325
 40
0.9411764705882325
 40
0.9411764705882325
 40
0.9411764705882325
 40
0.9444444444444416
 40
0.9444444444444416
 40
0.9444444444444416
 40
0.9444444444444416
 40
0.9477124183006508
 40
0.9477124183006508
 40
0.9477124183006508
 40
0.9477124183006508
 40
0.9509803921568599
 40
0.9509803921568599
 40
0.9509803921568599
 40
0.9509803921568599
 40
0.9542483660130691
 40
0.9542483660130691
 40
0.9542483660130691
 40
0.9542483660130691
 40
0.9575163398692782
 40
0.9575163398692782
 40
0.9575163398692782
 40
0.9575163398692782
 40
0.9607843137254873
 40
0.9607843137254873
 40
0.9607843137254873
 40
0.9607843137254873
 40
0.9640522875816965
 40
0.9640522875816965
 40
0.9640522875816965
 40
0.9640522875816965
 40
0.9673202614379056
 40
0.9673202614379056
 40
0.9673202614379056
 40
0.9673202614379056
 40
0.9705882352941148
 40
0.9705882352941148
 40
0.9705882352941148
 40
0.9705882352941148
 40
0.9738562091503239
 40
0.9738562091503239
 40
0.9738562091503239
 40
0.9738562091503239
 40
0.977124183006533
 40
0.977124183006533
 40
0.977124183006533
 40
0.977124183006533
 40
0.9803921568627422
 40
0.9803921568627422
 40
0.9803921568627422
 40
0.9803921568627422
 40
0.9836601307189513
 40
0.9836601307189513
 40
0.9836601307189513
 40
0.9836601307189513
 40
0.9869281045751605
 40
0.9869281045751605
 40
0.9869281045751605
 40
0.9869281045751605
 40
0.9901960784313696
 40
0.9901960784313696
 40
0.9901960784313696
 40
0.9901960784313696
 40
0.9934640522875787
 40
0.9934640522875787
 40
0.9934640522875787
 40
0.9934640522875787
 40
0.9967320261437879
 40
0.9967320261437879
 40
0.9967320261437879
 40
0.9967320261437879
 40
1.0
 40
1.0
 40
1.0
 40
1.0
 10
-8.0
 20
-300.0
 30
0.0
 10
-8.0
 20
-300.0
 30
0.0
 10
7.0999999999999996
 20
-296.19999999999999
 30
0.0
 10
7.0999999999999996
 20
-296.19999999999999
 30
0.0
 10
7.0999999999999996
 20
-296.19999999999999
 30
0.0
 10
7.0999999999999996
 20
-296.19999999999999
 30
0.0
 10
21.0
 20
-289.0
 30
0.0
 10
21.0
 20
-289.0
 30
0.0
 10
21.0
 20
-289.0
 30
0.0
 10
21.0
 20
-289.0
 30
0.0
 10
24.0
 20
-286.0
 30
0.0
 10
24.0
 20
-286.0
 30
0.0
 10
24.0
 20
-286.0
 30
0.0
 10
24.0
 20
-286.0
 30
0.0
 10
32.799999999999997
 20
-273.89999999999998
 30
0.0
 10
32.799999999999997
 20
-273.89999999999998
 30
0.0
 10
32.799999999999997
 20
-273.89999999999998
 30
0.0
 10
32.799999999999997
 20
-273.89999999999998
 30
0.0
 10
33.200000000000003
 20
-273.10000000000002
 30
0.0
 10
33.200000000000003
 20
-273.10000000000002
 30
0.0
 10
33.200000000000003
 20
-273.10000000000002
 30
0.0
 10
33.200000000000003
 20
-273.10000000000002
 30
0.0
 10
39.0
 20
-258.0
 30
0.0
 10
39.0
 20
-258.0
 30
0.0
 10
39.0
 20
-258.0
 30
0.0
 10
39.0
 20
-258.0
 30
0.0
 10
39.0
 20
-242.0
 30
0.0
 10
39.0
 20
-242.0
 30
0.0
 10
39.0
 20
-242.0
 30
0.0
 10
39.0
 20
-242.0
 30
0.0
 10
34.799999999999997
 20
-230.09999999999999
 30
0.0
 10
34.799999999999997
 20
-230.09999999999999
 30
0.0
 10
34.799999999999997
 20
-230.09999999999999
 30
0.0
 10
34.799999999999997
 20
-230.09999999999999
 30
0.0
 10
34.0
 20
-229.0
 30
0.0
 10
34.0
 20
-229.0
 30
0.0
 10
34.0
 20
-229.0
 30
0.0
 10
34.0
 20
-229.0
 30
0.0
 10
43.799999999999997
 20
-214.90000000000001
 30
0.0
 10
43.799999999999997
 20
-214.90000000000001
 30
0.0
 10
43.799999999999997
 20
-214.90000000000001
 30
0.0
 10
43.799999999999997
 20
-214.90000000000001
 30
0.0
 10
44.200000000000003
 20
-214.09999999999999
 30
0.0
 10
44.200000000000003
 20
-214.09999999999999
 30
0.0
 10
44.200000000000003
 20
-214.09999999999999
 30
0.0
 10
44.200000000000003
 20
-214.09999999999999
 30
0.0
 10
47.646999999999998
 20
-205.9117
 30
0.0
 10
47.646999999999998
 20
-205.9117
 30
0.0
 10
47.646999999999998
 20
-205.9117
 30
0.0
 10
47.646999999999998
 20
-205.9117
 30
0.0
 10
48.799999999999997
 20
-201.90000000000001
 30
0.0
 10
48.799999999999997
 20
-201.90000000000001
 30
0.0
 10
48.799999999999997
 20
-201.90000000000001
 30
0.0
 10
48.799999999999997
 20
-201.90000000000001
 30
0.0
 10
59.759999999999998
 20
-189.81999999999999
 30
0.0
 10
59.759999999999998
 20
-189.81999999999999
 30
0.0
 10
59.759999999999998
 20
-189.81999999999999
 30
0.0
 10
59.759999999999998
 20
-189.81999999999999
 30
0.0
 10
62.200000000000003
 20
-186.09999999999999
 30
0.0
 10
62.200000000000003
 20
-186.09999999999999
 30
0.0
 10
62.200000000000003
 20
-186.09999999999999
 30
0.0
 10
62.200000000000003
 20
-186.09999999999999
 30
0.0
 10
64.615300000000005
 20
-180.923
 30
0.0
 10
64.615300000000005
 20
-180.923
 30
0.0
 10
64.615300000000005
 20
-180.923
 30
0.0
 10
64.615300000000005
 20
-180.923
 30
0.0
 10
66.0
 20
-169.0
 30
0.0
 10
66.0
 20
-169.0
 30
0.0
 10
66.0
 20
-169.0
 30
0.0
 10
66.0
 20
-169.0
 30
0.0
 10
74.751300000000001
 20
-159.77619999999999
 30
0.0
 10
74.751300000000001
 20
-159.77619999999999
 30
0.0
 10
74.751300000000001
 20
-159.77619999999999
 30
0.0
 10
74.751300000000001
 20
-159.77619999999999
 30
0.0
 10
78.799999999999997
 20
-151.90000000000001
 30
0.0
 10
78.799999999999997
 20
-151.90000000000001
 30
0.0
 10
78.799999999999997
 20
-151.90000000000001
 30
0.0
 10
78.799999999999997
 20
-151.90000000000001
 30
0.0
 10
81.0
 20
-149.0
 30
0.0
 10
81.0
 20
-149.0
 30
0.0
 10
81.0
 20
-149.0
 30
0.0
 10
81.0
 20
-149.0
 30
0.0
 10
84.911699999999996
 20
-150.35290000000001
 30
0.0
 10
84.911699999999996
 20
-150.35290000000001
 30
0.0
 10
84.911699999999996
 20
-150.35290000000001
 30
0.0
 10
84.911699999999996
 20
-150.35290000000001
 30
0.0
 10
86.0
 20
-151.0
 30
0.0
 10
86.0
 20
-151.0
 30
0.0
 10
86.0
 20
-151.0
 30
0.0
 10
86.0
 20
-151.0
 30
0.0
 10
91.088200000000001
 20
-150.35290000000001
 30
0.0
 10
91.088200000000001
 20
-150.35290000000001
 30
0.0
 10
91.088200000000001
 20
-150.35290000000001
 30
0.0
 10
91.088200000000001
 20
-150.35290000000001
 30
0.0
 10
93.911699999999996
 20
-149.64699999999999
 30
0.0
 10
93.911699999999996
 20
-149.64699999999999
 30
0.0
 10
93.911699999999996
 20
-149.64699999999999
 30
0.0
 10
93.911699999999996
 20
-149.64699999999999
 30
0.0
 10
105.0
 20
-148.0
 30
0.0
 10
105.0
 20
-148.0
 30
0.0
 10
105.0
 20
-148.0
 30
0.0
 10
105.0
 20
-148.0
 30
0.0
 10
107.90000000000001
 20
-149.30000000000001
 30
0.0
 10
107.90000000000001
 20
-149.30000000000001
 30
0.0
 10
107.90000000000001
 20
-149.30000000000001
 30
0.0
 10
107.90000000000001
 20
-149.30000000000001
 30
0.0
 10
117.0
 20
-153.0
 30
0.0
 10
117.0
 20
-153.0
 30
0.0
 10
117.0
 20
-153.0
 30
0.0
 10
117.0
 20
-153.0
 30
0.0
 10
132.0
 20
-153.0
 30
0.0
 10
132.0
 20
-153.0
 30
0.0
 10
132.0
 20
-153.0
 30
0.0
 10
132.0
 20
-153.0
 30
0.0
 10
137.9324
 20
-151.59450000000001
 30
0.0
 10
137.9324
 20
-151.59450000000001
 30
0.0
 10
137.9324
 20
-151.59450000000001
 30
0.0
 10
137.9324
 20
-151.59450000000001
 30
0.0
 10
141.90000000000001
 20
-149.80000000000001
 30
0.0
 10
141.90000000000001
 20
-149.80000000000001
 30
0.0
 10
141.90000000000001
 20
-149.80000000000001
 30
0.0
 10
141.90000000000001
 20
-149.80000000000001
 30
0.0
 10
143.0
 20
-149.0
 30
0.0
 10
143.0
 20
-149.0
 30
0.0
 10
143.0
 20
-149.0
 30
0.0
 10
143.0
 20
-149.0
 30
0.0
 10
145.09999999999999
 20
-149.80000000000001
 30
0.0
 10
145.09999999999999
 20
-149.80000000000001
 30
0.0
 10
145.09999999999999
 20
-149.80000000000001
 30
0.0
 10
145.09999999999999
 20
-149.80000000000001
 30
0.0
 10
145.90000000000001
 20
-150.19999999999999
 30
0.0
 10
145.90000000000001
 20
-150.19999999999999
 30
0.0
 10
145.90000000000001
 20
-150.19999999999999
 30
0.0
 10
145.90000000000001
 20
-150.19999999999999
 30
0.0
 10
151.0538
 20
-152.5692
 30
0.0
 10
151.0538
 20
-152.5692
 30
0.0
 10
151.0538
 20
-152.5692
 30
0.0
 10
151.0538
 20
-152.5692
 30
0.0
 10
157.9461
 20
-153.4307
 30
0.0
 10
157.9461
 20
-153.4307
 30
0.0
 10
157.9461
 20
-153.4307
 30
0.0
 10
157.9461
 20
-153.4307
 30
0.0
 10
166.0
 20
-154.0
 30
0.0
 10
166.0
 20
-154.0
 30
0.0
 10
166.0
 20
-154.0
 30
0.0
 10
166.0
 20
-154.0
 30
0.0
 10
167.0882
 20
-153.35290000000001
 30
0.0
 10
167.0882
 20
-153.35290000000001
 30
0.0
 10
167.0882
 20
-153.35290000000001
 30
0.0
 10
167.0882
 20
-153.35290000000001
 30
0.0
 10
173.0
 20
-152.0
 30
0.0
 10
173.0
 20
-152.0
 30
0.0
 10
173.0
 20
-152.0
 30
0.0
 10
173.0
 20
-152.0
 30
0.0
 10
175.0
 20
-154.0
 30
0.0
 10
175.0
 20
-154.0
 30
0.0
 10
175.0
 20
-154.0
 30
0.0
 10
175.0
 20
-154.0
 30
0.0
 10
175.0
 20
-155.0
 30
0.0
 10
175.0
 20
-155.0
 30
0.0
 10
175.0
 20
-155.0
 30
0.0
 10
175.0
 20
-155.0
 30
0.0
 10
183.84610000000001
 20
-163.23070000000001
 30
0.0
 10
183.84610000000001
 20
-163.23070000000001
 30
0.0
 10
183.84610000000001
 20
-163.23070000000001
 30
0.0
 10
183.84610000000001
 20
-163.23070000000001
 30
0.0
 10
186.90000000000001
 20
-165.19999999999999
 30
0.0
 10
186.90000000000001
 20
-165.19999999999999
 30
0.0
 10
186.90000000000001
 20
-165.19999999999999
 30
0.0
 10
186.90000000000001
 20
-165.19999999999999
 30
0.0
 10
200.90000000000001
 20
-171.30000000000001
 30
0.0
 10
200.90000000000001
 20
-171.30000000000001
 30
0.0
 10
200.90000000000001
 20
-171.30000000000001
 30
0.0
 10
200.90000000000001
 20
-171.30000000000001
 30
0.0
 10
204.9117
 20
-172.35290000000001
 30
0.0
 10
204.9117
 20
-172.35290000000001
 30
0.0
 10
204.9117
 20
-172.35290000000001
 30
0.0
 10
204.9117
 20
-172.35290000000001
 30
0.0
 10
206.0
 20
-173.0
 30
0.0
 10
206.0
 20
-173.0
 30
0.0
 10
206.0
 20
-173.0
 30
0.0
 10
206.0
 20
-173.0
 30
0.0
 10
221.0
 20
-173.0
 30
0.0
 10
221.0
 20
-173.0
 30
0.0
 10
221.0
 20
-173.0
 30
0.0
 10
221.0
 20
-173.0
 30
0.0
 10
224.9117
 20
-171.64699999999999
 30
0.0
 10
224.9117
 20
-171.64699999999999
 30
0.0
 10
224.9117
 20
-171.64699999999999
 30
0.0
 10
224.9117
 20
-171.64699999999999
 30
0.0
 10
239.09999999999999
 20
-166.19999999999999
 30
0.0
 10
239.09999999999999
 20
-166.19999999999999
 30
0.0
 10
239.09999999999999
 20
-166.19999999999999
 30
0.0
 10
239.09999999999999
 20
-166.19999999999999
 30
0.0
 10
244.0
 20
-163.0
 30
0.0
 10
244.0
 20
-163.0
 30
0.0
 10
244.0
 20
-163.0
 30
0.0
 10
244.0
 20
-163.0
 30
0.0
 10
252.23070000000001
 20
-154.15379999999999
 30
0.0
 10
252.23070000000001
 20
-154.15379999999999
 30
0.0
 10
252.23070000000001
 20
-154.15379999999999
 30
0.0
 10
252.23070000000001
 20
-154.15379999999999
 30
0.0
 10
257.76920000000001
 20
-145.84610000000001
 30
0.0
 10
257.76920000000001
 20
-145.84610000000001
 30
0.0
 10
257.76920000000001
 20
-145.84610000000001
 30
0.0
 10
257.76920000000001
 20
-145.84610000000001
 30
0.0
 10
260.69999999999999
 20
-137.90000000000001
 30
0.0
 10
260.69999999999999
 20
-137.90000000000001
 30
0.0
 10
260.69999999999999
 20
-137.90000000000001
 30
0.0
 10
260.69999999999999
 20
-137.90000000000001
 30
0.0
 10
261.30000000000001
 20
-136.09999999999999
 30
0.0
 10
261.30000000000001
 20
-136.09999999999999
 30
0.0
 10
261.30000000000001
 20
-136.09999999999999
 30
0.0
 10
261.30000000000001
 20
-136.09999999999999
 30
0.0
 10
263.0
 20
-131.0
 30
0.0
 10
263.0
 20
-131.0
 30
0.0
 10
263.0
 20
-131.0
 30
0.0
 10
263.0
 20
-131.0
 30
0.0
 10
263.0
 20
-121.0
 30
0.0
 10
263.0
 20
-121.0
 30
0.0
 10
263.0
 20
-121.0
 30
0.0
 10
263.0
 20
-121.0
 30
0.0
 10
261.57999999999998
 20
-114.06
 30
0.0
 10
261.57999999999998
 20
-114.06
 30
0.0
 10
261.57999999999998
 20
-114.06
 30
0.0
 10
261.57999999999998
 20
-114.06
 30
0.0
 10
260.61529999999999
 20
-109.07689999999999
 30
0.0
 10
260.61529999999999
 20
-109.07689999999999
 30
0.0
 10
260.61529999999999
 20
-109.07689999999999
 30
0.0
 10
260.61529999999999
 20
-109.07689999999999
 30
0.0
 10
254.75999999999999
 20
-96.180000000000007
 30
0.0
 10
254.75999999999999
 20
-96.180000000000007
 30
0.0
 10
254.75999999999999
 20
-96.180000000000007
 30
0.0
 10
254.75999999999999
 20
-96.180000000000007
 30
0.0
 10
252.24000000000001
 20
-92.819999999999993
 30
0.0
 10
252.24000000000001
 20
-92.819999999999993
 30
0.0
 10
252.24000000000001
 20
-92.819999999999993
 30
0.0
 10
252.24000000000001
 20
-92.819999999999993
 30
0.0
 10
247.0
 20
-87.0
 30
0.0
 10
247.0
 20
-87.0
 30
0.0
 10
247.0
 20
-87.0
 30
0.0
 10
247.0
 20
-87.0
 30
0.0
 10
242.81999999999999
 20
-84.239999999999995
 30
0.0
 10
242.81999999999999
 20
-84.239999999999995
 30
0.0
 10
242.81999999999999
 20
-84.239999999999995
 30
0.0
 10
242.81999999999999
 20
-84.239999999999995
 30
0.0
 10
231.90000000000001
 20
-78.299999999999997
 30
0.0
 10
231.90000000000001
 20
-78.299999999999997
 30
0.0
 10
231.90000000000001
 20
-78.299999999999997
 30
0.0
 10
231.90000000000001
 20
-78.299999999999997
 30
0.0
 10
228.9117
 20
-77.352900000000005
 30
0.0
 10
228.9117
 20
-77.352900000000005
 30
0.0
 10
228.9117
 20
-77.352900000000005
 30
0.0
 10
228.9117
 20
-77.352900000000005
 30
0.0
 10
218.0
 20
-75.0
 30
0.0
 10
218.0
 20
-75.0
 30
0.0
 10
218.0
 20
-75.0
 30
0.0
 10
218.0
 20
-75.0
 30
0.0
 10
216.0
 20
-73.0
 30
0.0
 10
216.0
 20
-73.0
 30
0.0
 10
216.0
 20
-73.0
 30
0.0
 10
216.0
 20
-73.0
 30
0.0
 10
215.19999999999999
 20
-68.900000000000006
 30
0.0
 10
215.19999999999999
 20
-68.900000000000006
 30
0.0
 10
215.19999999999999
 20
-68.900000000000006
 30
0.0
 10
215.19999999999999
 20
-68.900000000000006
 30
0.0
 10
211.0
 20
-61.0
 30
0.0
 10
211.0
 20
-61.0
 30
0.0
 10
211.0
 20
-61.0
 30
0.0
 10
211.0
 20
-61.0
 30
0.0
 10
202.0
 20
-53.0
 30
0.0
 10
202.0
 20
-53.0
 30
0.0
 10
202.0
 20
-53.0
 30
0.0
 10
202.0
 20
-53.0
 30
0.0
 10
201.54480000000001
 20
-42.0379
 30
0.0
 10
201.54480000000001
 20
-42.0379
 30
0.0
 10
201.54480000000001
 20
-42.0379
 30
0.0
 10
201.54480000000001
 20
-42.0379
 30
0.0
 10
200.80000000000001
 20
-40.100000000000001
 30
0.0
 10
200.80000000000001
 20
-40.100000000000001
 30
0.0
 10
200.80000000000001
 20
-40.100000000000001
 30
0.0
 10
200.80000000000001
 20
-40.100000000000001
 30
0.0
 10
199.19999999999999
 20
-36.899999999999999
 30
0.0
 10
199.19999999999999
 20
-36.899999999999999
 30
0.0
 10
199.19999999999999
 20
-36.899999999999999
 30
0.0
 10
199.19999999999999
 20
-36.899999999999999
 30
0.0
 10
194.0
 20
-27.0
 30
0.0
 10
194.0
 20
-27.0
 30
0.0
 10
194.0
 20
-27.0
 30
0.0
 10
194.0
 20
-27.0
 30
0.0
 10
185.0
 20
-20.0
 30
0.0
 10
185.0
 20
-20.0
 30
0.0
 10
185.0
 20
-20.0
 30
0.0
 10
185.0
 20
-20.0
 30
0.0
 10
183.0
 20
-18.0
 30
0.0
 10
183.0
 20
-18.0
 30
0.0
 10
183.0
 20
-18.0
 30
0.0
 10
183.0
 20
-18.0
 30
0.0
 10
181.64699999999999
 20
-12.088200000000001
 30
0.0
 10
181.64699999999999
 20
-12.088200000000001
 30
0.0
 10
181.64699999999999
 20
-12.088200000000001
 30
0.0
 10
181.64699999999999
 20
-12.088200000000001
 30
0.0
 10
176.75999999999999
 20
-1.1799999999999999
 30
0.0
 10
176.75999999999999
 20
-1.1799999999999999
 30
0.0
 10
176.75999999999999
 20
-1.1799999999999999
 30
0.0
 10
176.75999999999999
 20
-1.1799999999999999
 30
0.0
 10
173.5
 20
3.9998999999999998
 30
0.0
 10
173.5
 20
3.9998999999999998
 30
0.0
 10
173.5
 20
3.9998999999999998
 30
0.0
 10
173.5
 20
3.9998999999999998
 30
0.0
 10
177.19999999999999
 20
9.8999000000000006
 30
0.0
 10
177.19999999999999
 20
9.8999000000000006
 30
0.0
 10
177.19999999999999
 20
9.8999000000000006
 30
0.0
 10
177.19999999999999
 20
9.8999000000000006
 30
0.0
 10
178.19999999999999
 20
11.899900000000001
 30
0.0
 10
178.19999999999999
 20
11.899900000000001
 30
0.0
 10
178.19999999999999
 20
11.899900000000001
 30
0.0
 10
178.19999999999999
 20
11.899900000000001
 30
0.0
 10
182.5692
 20
22.053799999999999
 30
0.0
 10
182.5692
 20
22.053799999999999
 30
0.0
 10
182.5692
 20
22.053799999999999
 30
0.0
 10
182.5692
 20
22.053799999999999
 30
0.0
 10
183.0
 20
28.9999
 30
0.0
 10
183.0
 20
28.9999
 30
0.0
 10
183.0
 20
28.9999
 30
0.0
 10
183.0
 20
28.9999
 30
0.0
 10
185.0
 20
30.9999
 30
0.0
 10
185.0
 20
30.9999
 30
0.0
 10
185.0
 20
30.9999
 30
0.0
 10
185.0
 20
30.9999
 30
0.0
 10
186.0
 20
30.9999
 30
0.0
 10
186.0
 20
30.9999
 30
0.0
 10
186.0
 20
30.9999
 30
0.0
 10
186.0
 20
30.9999
 30
0.0
 10
194.19999999999999
 20
40.899900000000002
 30
0.0
 10
194.19999999999999
 20
40.899900000000002
 30
0.0
 10
194.19999999999999
 20
40.899900000000002
 30
0.0
 10
194.19999999999999
 20
40.899900000000002
 30
0.0
 10
196.19999999999999
 20
44.899900000000002
 30
0.0
 10
196.19999999999999
 20
44.899900000000002
 30
0.0
 10
196.19999999999999
 20
44.899900000000002
 30
0.0
 10
196.19999999999999
 20
44.899900000000002
 30
0.0
 10
198.64699999999999
 20
50.088200000000001
 30
0.0
 10
198.64699999999999
 20
50.088200000000001
 30
0.0
 10
198.64699999999999
 20
50.088200000000001
 30
0.0
 10
198.64699999999999
 20
50.088200000000001
 30
0.0
 10
199.0
 20
52.999899999999997
 30
0.0
 10
199.0
 20
52.999899999999997
 30
0.0
 10
199.0
 20
52.999899999999997
 30
0.0
 10
199.0
 20
52.999899999999997
 30
0.0
 10
203.0
 20
56.999899999999997
 30
0.0
 10
203.0
 20
56.999899999999997
 30
0.0
 10
203.0
 20
56.999899999999997
 30
0.0
 10
203.0
 20
56.999899999999997
 30
0.0
 10
204.0
 20
56.999899999999997
 30
0.0
 10
204.0
 20
56.999899999999997
 30
0.0
 10
204.0
 20
56.999899999999997
 30
0.0
 10
204.0
 20
56.999899999999997
 30
0.0
 10
208.0
 20
60.999899999999997
 30
0.0
 10
208.0
 20
60.999899999999997
 30
0.0
 10
208.0
 20
60.999899999999997
 30
0.0
 10
208.0
 20
60.999899999999997
 30
0.0
 10
212.80000000000001
 20
69.099900000000005
 30
0.0
 10
212.80000000000001
 20
69.099900000000005
 30
0.0
 10
212.80000000000001
 20
69.099900000000005
 30
0.0
 10
212.80000000000001
 20
69.099900000000005
 30
0.0
 10
213.19999999999999
 20
69.899900000000002
 30
0.0
 10
213.19999999999999
 20
69.899900000000002
 30
0.0
 10
213.19999999999999
 20
69.899900000000002
 30
0.0
 10
213.19999999999999
 20
69.899900000000002
 30
0.0
 10
217.80000000000001
 20
81.099900000000005
 30
0.0
 10
217.80000000000001
 20
81.099900000000005
 30
0.0
 10
217.80000000000001
 20
81.099900000000005
 30
0.0
 10
217.80000000000001
 20
81.099900000000005
 30
0.0
 10
218.0
 20
81.999899999999997
 30
0.0
 10
218.0
 20
81.999899999999997
 30
0.0
 10
218.0
 20
81.999899999999997
 30
0.0
 10
218.0
 20
81.999899999999997
 30
0.0
 10
234.09999999999999
 20
85.799899999999994
 30
0.0
 10
234.09999999999999
 20
85.799899999999994
 30
0.0
 10
234.09999999999999
 20
85.799899999999994
 30
0.0
 10
234.09999999999999
 20
85.799899999999994
 30
0.0
 10
245.0
 20
90.999899999999997
 30
0.0
 10
245.0
 20
90.999899999999997
 30
0.0
 10
245.0
 20
90.999899999999997
 30
0.0
 10
245.0
 20
90.999899999999997
 30
0.0
 10
254.2439
 20
100.8048
 30
0.0
 10
254.2439
 20
100.8048
 30
0.0
 10
254.2439
 20
100.8048
 30
0.0
 10
254.2439
 20
100.8048
 30
0.0
 10
259.76920000000001
 20
108.1538
 30
0.0
 10
259.76920000000001
 20
108.1538
 30
0.0
 10
259.76920000000001
 20
108.1538
 30
0.0
 10
259.76920000000001
 20
108.1538
 30
0.0
 10
263.64699999999999
 20
120.0882
 30
0.0
 10
263.64699999999999
 20
120.0882
 30
0.0
 10
263.64699999999999
 20
120.0882
 30
0.0
 10
263.64699999999999
 20
120.0882
 30
0.0
 10
265.38459999999998
 20
127.923
 30
0.0
 10
265.38459999999998
 20
127.923
 30
0.0
 10
265.38459999999998
 20
127.923
 30
0.0
 10
265.38459999999998
 20
127.923
 30
0.0
 10
266.0
 20
134.9999
 30
0.0
 10
266.0
 20
134.9999
 30
0.0
 10
266.0
 20
134.9999
 30
0.0
 10
266.0
 20
134.9999
 30
0.0
 10
264.35289999999998
 20
141.0882
 30
0.0
 10
264.35289999999998
 20
141.0882
 30
0.0
 10
264.35289999999998
 20
141.0882
 30
0.0
 10
264.35289999999998
 20
141.0882
 30
0.0
 10
260.80000000000001
 20
150.8999
 30
0.0
 10
260.80000000000001
 20
150.8999
 30
0.0
 10
260.80000000000001
 20
150.8999
 30
0.0
 10
260.80000000000001
 20
150.8999
 30
0.0
 10
259.19999999999999
 20
154.09989999999999
 30
0.0
 10
259.19999999999999
 20
154.09989999999999
 30
0.0
 10
259.19999999999999
 20
154.09989999999999
 30
0.0
 10
259.19999999999999
 20
154.09989999999999
 30
0.0
 10
252.0
 20
165.9999
 30
0.0
 10
252.0
 20
165.9999
 30
0.0
 10
252.0
 20
165.9999
 30
0.0
 10
252.0
 20
165.9999
 30
0.0
 10
248.0
 20
169.9999
 30
0.0
 10
248.0
 20
169.9999
 30
0.0
 10
248.0
 20
169.9999
 30
0.0
 10
248.0
 20
169.9999
 30
0.0
 10
235.90000000000001
 20
176.79990000000001
 30
0.0
 10
235.90000000000001
 20
176.79990000000001
 30
0.0
 10
235.90000000000001
 20
176.79990000000001
 30
0.0
 10
235.90000000000001
 20
176.79990000000001
 30
0.0
 10
235.09999999999999
 20
177.19990000000001
 30
0.0
 10
235.09999999999999
 20
177.19990000000001
 30
0.0
 10
235.09999999999999
 20
177.19990000000001
 30
0.0
 10
235.09999999999999
 20
177.19990000000001
 30
0.0
 10
226.9461
 20
179.5692
 30
0.0
 10
226.9461
 20
179.5692
 30
0.0
 10
226.9461
 20
179.5692
 30
0.0
 10
226.9461
 20
179.5692
 30
0.0
 10
213.0
 20
180.9999
 30
0.0
 10
213.0
 20
180.9999
 30
0.0
 10
213.0
 20
180.9999
 30
0.0
 10
213.0
 20
180.9999
 30
0.0
 10
198.0882
 20
177.64699999999999
 30
0.0
 10
198.0882
 20
177.64699999999999
 30
0.0
 10
198.0882
 20
177.64699999999999
 30
0.0
 10
198.0882
 20
177.64699999999999
 30
0.0
 10
194.90000000000001
 20
176.19990000000001
 30
0.0
 10
194.90000000000001
 20
176.19990000000001
 30
0.0
 10
194.90000000000001
 20
176.19990000000001
 30
0.0
 10
194.90000000000001
 20
176.19990000000001
 30
0.0
 10
185.0
 20
169.9999
 30
0.0
 10
185.0
 20
169.9999
 30
0.0
 10
185.0
 20
169.9999
 30
0.0
 10
185.0
 20
169.9999
 30
0.0
 10
178.0
 20
162.9999
 30
0.0
 10
178.0
 20
162.9999
 30
0.0
 10
178.0
 20
162.9999
 30
0.0
 10
178.0
 20
162.9999
 30
0.0
 10
175.0
 20
157.9999
 30
0.0
 10
175.0
 20
157.9999
 30
0.0
 10
175.0
 20
157.9999
 30
0.0
 10
175.0
 20
157.9999
 30
0.0
 10
170.0
 20
159.9999
 30
0.0
 10
170.0
 20
159.9999
 30
0.0
 10
170.0
 20
159.9999
 30
0.0
 10
170.0
 20
159.9999
 30
0.0
 10
153.0
 20
159.9999
 30
0.0
 10
153.0
 20
159.9999
 30
0.0
 10
153.0
 20
159.9999
 30
0.0
 10
153.0
 20
159.9999
 30
0.0
 10
148.0
 20
157.9999
 30
0.0
 10
148.0
 20
157.9999
 30
0.0
 10
148.0
 20
157.9999
 30
0.0
 10
148.0
 20
157.9999
 30
0.0
 10
145.0
 20
157.9999
 30
0.0
 10
145.0
 20
157.9999
 30
0.0
 10
145.0
 20
157.9999
 30
0.0
 10
145.0
 20
157.9999
 30
0.0
 10
143.09999999999999
 20
159.19990000000001
 30
0.0
 10
143.09999999999999
 20
159.19990000000001
 30
0.0
 10
143.09999999999999
 20
159.19990000000001
 30
0.0
 10
143.09999999999999
 20
159.19990000000001
 30
0.0
 10
133.94
 20
161.57990000000001
 30
0.0
 10
133.94
 20
161.57990000000001
 30
0.0
 10
133.94
 20
161.57990000000001
 30
0.0
 10
133.94
 20
161.57990000000001
 30
0.0
 10
128.06
 20
162.41990000000001
 30
0.0
 10
128.06
 20
162.41990000000001
 30
0.0
 10
128.06
 20
162.41990000000001
 30
0.0
 10
128.06
 20
162.41990000000001
 30
0.0
 10
121.0
 20
162.9999
 30
0.0
 10
121.0
 20
162.9999
 30
0.0
 10
121.0
 20
162.9999
 30
0.0
 10
121.0
 20
162.9999
 30
0.0
 10
113.0
 20
159.9999
 30
0.0
 10
113.0
 20
159.9999
 30
0.0
 10
113.0
 20
159.9999
 30
0.0
 10
113.0
 20
159.9999
 30
0.0
 10
100.9708
 20
163.53299999999999
 30
0.0
 10
100.9708
 20
163.53299999999999
 30
0.0
 10
100.9708
 20
163.53299999999999
 30
0.0
 10
100.9708
 20
163.53299999999999
 30
0.0
 10
86.0
 20
163.9999
 30
0.0
 10
86.0
 20
163.9999
 30
0.0
 10
86.0
 20
163.9999
 30
0.0
 10
86.0
 20
163.9999
 30
0.0
 10
84.0
 20
165.9999
 30
0.0
 10
84.0
 20
165.9999
 30
0.0
 10
84.0
 20
165.9999
 30
0.0
 10
84.0
 20
165.9999
 30
0.0
 10
80.0
 20
174.9999
 30
0.0
 10
80.0
 20
174.9999
 30
0.0
 10
80.0
 20
174.9999
 30
0.0
 10
80.0
 20
174.9999
 30
0.0
 10
71.0
 20
183.9999
 30
0.0
 10
71.0
 20
183.9999
 30
0.0
 10
71.0
 20
183.9999
 30
0.0
 10
71.0
 20
183.9999
 30
0.0
 10
70.0
 20
183.9999
 30
0.0
 10
70.0
 20
183.9999
 30
0.0
 10
70.0
 20
183.9999
 30
0.0
 10
70.0
 20
183.9999
 30
0.0
 10
66.200000000000003
 20
199.09989999999999
 30
0.0
 10
66.200000000000003
 20
199.09989999999999
 30
0.0
 10
66.200000000000003
 20
199.09989999999999
 30
0.0
 10
66.200000000000003
 20
199.09989999999999
 30
0.0
 10
65.200000000000003
 20
201.09989999999999
 30
0.0
 10
65.200000000000003
 20
201.09989999999999
 30
0.0
 10
65.200000000000003
 20
201.09989999999999
 30
0.0
 10
65.200000000000003
 20
201.09989999999999
 30
0.0
 10
60.0
 20
209.9999
 30
0.0
 10
60.0
 20
209.9999
 30
0.0
 10
60.0
 20
209.9999
 30
0.0
 10
60.0
 20
209.9999
 30
0.0
 10
56.18
 20
213.23990000000001
 30
0.0
 10
56.18
 20
213.23990000000001
 30
0.0
 10
56.18
 20
213.23990000000001
 30
0.0
 10
56.18
 20
213.23990000000001
 30
0.0
 10
50.0
 20
217.9999
 30
0.0
 10
50.0
 20
217.9999
 30
0.0
 10
50.0
 20
217.9999
 30
0.0
 10
50.0
 20
217.9999
 30
0.0
 10
49.200000000000003
 20
224.09989999999999
 30
0.0
 10
49.200000000000003
 20
224.09989999999999
 30
0.0
 10
49.200000000000003
 20
224.09989999999999
 30
0.0
 10
49.200000000000003
 20
224.09989999999999
 30
0.0
 10
44.759999999999998
 20
232.81989999999999
 30
0.0
 10
44.759999999999998
 20
232.81989999999999
 30
0.0
 10
44.759999999999998
 20
232.81989999999999
 30
0.0
 10
44.759999999999998
 20
232.81989999999999
 30
0.0
 10
38.0
 20
240.9999
 30
0.0
 10
38.0
 20
240.9999
 30
0.0
 10
38.0
 20
240.9999
 30
0.0
 10
38.0
 20
240.9999
 30
0.0
 10
38.700000000000003
 20
243.09989999999999
 30
0.0
 10
38.700000000000003
 20
243.09989999999999
 30
0.0
 10
38.700000000000003
 20
243.09989999999999
 30
0.0
 10
38.700000000000003
 20
243.09989999999999
 30
0.0
 10
40.299999999999997
 20
247.8999
 30
0.0
 10
40.299999999999997
 20
247.8999
 30
0.0
 10
40.299999999999997
 20
247.8999
 30
0.0
 10
40.299999999999997
 20
247.8999
 30
0.0
 10
44.0
 20
257.99990000000003
 30
0.0
 10
44.0
 20
257.99990000000003
 30
0.0
 10
44.0
 20
257.99990000000003
 30
0.0
 10
44.0
 20
257.99990000000003
 30
0.0
 10
44.0
 20
272.99990000000003
 30
0.0
 10
44.0
 20
272.99990000000003
 30
0.0
 10
44.0
 20
272.99990000000003
 30
0.0
 10
44.0
 20
272.99990000000003
 30
0.0
 10
42.646999999999998
 20
276.9117
 30
0.0
 10
42.646999999999998
 20
276.9117
 30
0.0
 10
42.646999999999998
 20
276.9117
 30
0.0
 10
42.646999999999998
 20
276.9117
 30
0.0
 10
42.299999999999997
 20
278.09989999999999
 30
0.0
 10
42.299999999999997
 20
278.09989999999999
 30
0.0
 10
42.299999999999997
 20
278.09989999999999
 30
0.0
 10
42.299999999999997
 20
278.09989999999999
 30
0.0
 10
38.769199999999998
 20
287.84609999999998
 30
0.0
 10
38.769199999999998
 20
287.84609999999998
 30
0.0
 10
38.769199999999998
 20
287.84609999999998
 30
0.0
 10
38.769199999999998
 20
287.84609999999998
 30
0.0
 10
33.230699999999999
 20
296.15379999999999
 30
0.0
 10
33.230699999999999
 20
296.15379999999999
 30
0.0
 10
33.230699999999999
 20
296.15379999999999
 30
0.0
 10
33.230699999999999
 20
296.15379999999999
 30
0.0
 10
29.0
 20
300.99990000000003
 30
0.0
 10
29.0
 20
300.99990000000003
 30
0.0
 10
29.0
 20
300.99990000000003
 30
0.0
 10
29.0
 20
300.99990000000003
 30
0.0
 10
20.100000000000001
 20
307.19990000000001
 30
0.0
 10
20.100000000000001
 20
307.19990000000001
 30
0.0
 10
20.100000000000001
 20
307.19990000000001
 30
0.0
 10
20.100000000000001
 20
307.19990000000001
 30
0.0
 10
14.0
 20
310.99990000000003
 30
0.0
 10
14.0
 20
310.99990000000003
 30
0.0
 10
14.0
 20
310.99990000000003
 30
0.0
 10
14.0
 20
310.99990000000003
 30
0.0
 10
15.0
 20
311.99990000000003
 30
0.0
 10
15.0
 20
311.99990000000003
 30
0.0
 10
15.0
 20
311.99990000000003
 30
0.0
 10
15.0
 20
311.99990000000003
 30
0.0
 10
15.0
 20
317.99990000000003
 30
0.0
 10
15.0
 20
317.99990000000003
 30
0.0
 10
15.0
 20
317.99990000000003
 30
0.0
 10
15.0
 20
317.99990000000003
 30
0.0
 10
8.0
 20
330.99990000000003
 30
0.0
 10
8.0
 20
330.99990000000003
 30
0.0
 10
8.0
 20
330.99990000000003
 30
0.0
 10
8.0
 20
330.99990000000003
 30
0.0
 10
6.0
 20
332.99990000000003
 30
0.0
 10
6.0
 20
332.99990000000003
 30
0.0
 10
6.0
 20
332.99990000000003
 30
0.0
 10
6.0
 20
332.99990000000003
 30
0.0
 10
-4.0
 20
336.99990000000003
 30
0.0
 10
-4.0
 20
336.99990000000003
 30
0.0
 10
-4.0
 20
336.99990000000003
 30
0.0
 10
-4.0
 20
336.99990000000003
 30
0.0
 10
-12.0
 20
336.99990000000003
 30
0.0
 10
-12.0
 20
336.99990000000003
 30
0.0
 10
-12.0
 20
336.99990000000003
 30
0.0
 10
-12.0
 20
336.99990000000003
 30
0.0
 10
-22.0
 20
332.99990000000003
 30
0.0
 10
-22.0
 20
332.99990000000003
 30
0.0
 10
-22.0
 20
332.99990000000003
 30
0.0
 10
-22.0
 20
332.99990000000003
 30
0.0
 10
-24.0
 20
330.99990000000003
 30
0.0
 10
-24.0
 20
330.99990000000003
 30
0.0
 10
-24.0
 20
330.99990000000003
 30
0.0
 10
-24.0
 20
330.99990000000003
 30
0.0
 10
-31.0
 20
317.99990000000003
 30
0.0
 10
-31.0
 20
317.99990000000003
 30
0.0
 10
-31.0
 20
317.99990000000003
 30
0.0
 10
-31.0
 20
317.99990000000003
 30
0.0
 10
-31.0
 20
308.99990000000003
 30
0.0
 10
-31.0
 20
308.99990000000003
 30
0.0
 10
-31.0
 20
308.99990000000003
 30
0.0
 10
-31.0
 20
308.99990000000003
 30
0.0
 10
-30.0
 20
306.99990000000003
 30
0.0
 10
-30.0
 20
306.99990000000003
 30
0.0
 10
-30.0
 20
306.99990000000003
 30
0.0
 10
-30.0
 20
306.99990000000003
 30
0.0
 10
-34.82
 20
303.75990000000002
 30
0.0
 10
-34.82
 20
303.75990000000002
 30
0.0
 10
-34.82
 20
303.75990000000002
 30
0.0
 10
-34.82
 20
303.75990000000002
 30
0.0
 10
-38.18
 20
301.23989999999998
 30
0.0
 10
-38.18
 20
301.23989999999998
 30
0.0
 10
-38.18
 20
301.23989999999998
 30
0.0
 10
-38.18
 20
301.23989999999998
 30
0.0
 10
-44.0
 20
295.99990000000003
 30
0.0
 10
-44.0
 20
295.99990000000003
 30
0.0
 10
-44.0
 20
295.99990000000003
 30
0.0
 10
-44.0
 20
295.99990000000003
 30
0.0
 10
-46.759999999999998
 20
291.81990000000002
 30
0.0
 10
-46.759999999999998
 20
291.81990000000002
 30
0.0
 10
-46.759999999999998
 20
291.81990000000002
 30
0.0
 10
-46.759999999999998
 20
291.81990000000002
 30
0.0
 10
-47.799999999999997
 20
289.8999
 30
0.0
 10
-47.799999999999997
 20
289.8999
 30
0.0
 10
-47.799999999999997
 20
289.8999
 30
0.0
 10
-47.799999999999997
 20
289.8999
 30
0.0
 10
-52.299999999999997
 20
278.09989999999999
 30
0.0
 10
-52.299999999999997
 20
278.09989999999999
 30
0.0
 10
-52.299999999999997
 20
278.09989999999999
 30
0.0
 10
-52.299999999999997
 20
278.09989999999999
 30
0.0
 10
-54.0
 20
272.99990000000003
 30
0.0
 10
-54.0
 20
272.99990000000003
 30
0.0
 10
-54.0
 20
272.99990000000003
 30
0.0
 10
-54.0
 20
272.99990000000003
 30
0.0
 10
-54.0
 20
255.9999
 30
0.0
 10
-54.0
 20
255.9999
 30
0.0
 10
-54.0
 20
255.9999
 30
0.0
 10
-54.0
 20
255.9999
 30
0.0
 10
-52.299999999999997
 20
250.8999
 30
0.0
 10
-52.299999999999997
 20
250.8999
 30
0.0
 10
-52.299999999999997
 20
250.8999
 30
0.0
 10
-52.299999999999997
 20
250.8999
 30
0.0
 10
-49.0
 20
242.9999
 30
0.0
 10
-49.0
 20
242.9999
 30
0.0
 10
-49.0
 20
242.9999
 30
0.0
 10
-49.0
 20
242.9999
 30
0.0
 10
-54.0
 20
238.9999
 30
0.0
 10
-54.0
 20
238.9999
 30
0.0
 10
-54.0
 20
238.9999
 30
0.0
 10
-54.0
 20
238.9999
 30
0.0
 10
-54.200000000000003
 20
238.09989999999999
 30
0.0
 10
-54.200000000000003
 20
238.09989999999999
 30
0.0
 10
-54.200000000000003
 20
238.09989999999999
 30
0.0
 10
-54.200000000000003
 20
238.09989999999999
 30
0.0
 10
-60.646999999999998
 20
223.9117
 30
0.0
 10
-60.646999999999998
 20
223.9117
 30
0.0
 10
-60.646999999999998
 20
223.9117
 30
0.0
 10
-60.646999999999998
 20
223.9117
 30
0.0
 10
-62.0
 20
214.9999
 30
0.0
 10
-62.0
 20
214.9999
 30
0.0
 10
-62.0
 20
214.9999
 30
0.0
 10
-62.0
 20
214.9999
 30
0.0
 10
-66.0
 20
212.9999
 30
0.0
 10
-66.0
 20
212.9999
 30
0.0
 10
-66.0
 20
212.9999
 30
0.0
 10
-66.0
 20
212.9999
 30
0.0
 10
-73.756
 20
203.8048
 30
0.0
 10
-73.756
 20
203.8048
 30
0.0
 10
-73.756
 20
203.8048
 30
0.0
 10
-73.756
 20
203.8048
 30
0.0
 10
-78.647000000000006
 20
194.9117
 30
0.0
 10
-78.647000000000006
 20
194.9117
 30
0.0
 10
-78.647000000000006
 20
194.9117
 30
0.0
 10
-78.647000000000006
 20
194.9117
 30
0.0
 10
-80.799999999999997
 20
186.8999
 30
0.0
 10
-80.799999999999997
 20
186.8999
 30
0.0
 10
-80.799999999999997
 20
186.8999
 30
0.0
 10
-80.799999999999997
 20
186.8999
 30
0.0
 10
-83.0
 20
183.9999
 30
0.0
 10
-83.0
 20
183.9999
 30
0.0
 10
-83.0
 20
183.9999
 30
0.0
 10
-83.0
 20
183.9999
 30
0.0
 10
-84.0
 20
183.9999
 30
0.0
 10
-84.0
 20
183.9999
 30
0.0
 10
-84.0
 20
183.9999
 30
0.0
 10
-84.0
 20
183.9999
 30
0.0
 10
-93.200000000000003
 20
174.09989999999999
 30
0.0
 10
-93.200000000000003
 20
174.09989999999999
 30
0.0
 10
-93.200000000000003
 20
174.09989999999999
 30
0.0
 10
-93.200000000000003
 20
174.09989999999999
 30
0.0
 10
-99.0
 20
164.9999
 30
0.0
 10
-99.0
 20
164.9999
 30
0.0
 10
-99.0
 20
164.9999
 30
0.0
 10
-99.0
 20
164.9999
 30
0.0
 10
-109.962
 20
164.54480000000001
 30
0.0
 10
-109.962
 20
164.54480000000001
 30
0.0
 10
-109.962
 20
164.54480000000001
 30
0.0
 10
-109.962
 20
164.54480000000001
 30
0.0
 10
-114.923
 20
163.61529999999999
 30
0.0
 10
-114.923
 20
163.61529999999999
 30
0.0
 10
-114.923
 20
163.61529999999999
 30
0.0
 10
-114.923
 20
163.61529999999999
 30
0.0
 10
-116.09999999999999
 20
163.29990000000001
 30
0.0
 10
-116.09999999999999
 20
163.29990000000001
 30
0.0
 10
-116.09999999999999
 20
163.29990000000001
 30
0.0
 10
-116.09999999999999
 20
163.29990000000001
 30
0.0
 10
-125.0
 20
160.9999
 30
0.0
 10
-125.0
 20
160.9999
 30
0.0
 10
-125.0
 20
160.9999
 30
0.0
 10
-125.0
 20
160.9999
 30
0.0
 10
-133.923
 20
163.38460000000001
 30
0.0
 10
-133.923
 20
163.38460000000001
 30
0.0
 10
-133.923
 20
163.38460000000001
 30
0.0
 10
-133.923
 20
163.38460000000001
 30
0.0
 10
-140.0
 20
163.9999
 30
0.0
 10
-140.0
 20
163.9999
 30
0.0
 10
-140.0
 20
163.9999
 30
0.0
 10
-140.0
 20
163.9999
 30
0.0
 10
-153.9117
 20
160.64699999999999
 30
0.0
 10
-153.9117
 20
160.64699999999999
 30
0.0
 10
-153.9117
 20
160.64699999999999
 30
0.0
 10
-153.9117
 20
160.64699999999999
 30
0.0
 10
-156.09999999999999
 20
160.79990000000001
 30
0.0
 10
-156.09999999999999
 20
160.79990000000001
 30
0.0
 10
-156.09999999999999
 20
160.79990000000001
 30
0.0
 10
-156.09999999999999
 20
160.79990000000001
 30
0.0
 10
-160.90000000000001
 20
163.19990000000001
 30
0.0
 10
-160.90000000000001
 20
163.19990000000001
 30
0.0
 10
-160.90000000000001
 20
163.19990000000001
 30
0.0
 10
-160.90000000000001
 20
163.19990000000001
 30
0.0
 10
-173.0
 20
166.9999
 30
0.0
 10
-173.0
 20
166.9999
 30
0.0
 10
-173.0
 20
166.9999
 30
0.0
 10
-173.0
 20
166.9999
 30
0.0
 10
-178.0
 20
166.9999
 30
0.0
 10
-178.0
 20
166.9999
 30
0.0
 10
-178.0
 20
166.9999
 30
0.0
 10
-178.0
 20
166.9999
 30
0.0
 10
-182.923
 20
165.61529999999999
 30
0.0
 10
-182.923
 20
165.61529999999999
 30
0.0
 10
-182.923
 20
165.61529999999999
 30
0.0
 10
-182.923
 20
165.61529999999999
 30
0.0
 10
-184.0882
 20
165.35290000000001
 30
0.0
 10
-184.0882
 20
165.35290000000001
 30
0.0
 10
-184.0882
 20
165.35290000000001
 30
0.0
 10
-184.0882
 20
165.35290000000001
 30
0.0
 10
-189.0
 20
163.9999
 30
0.0
 10
-189.0
 20
163.9999
 30
0.0
 10
-189.0
 20
163.9999
 30
0.0
 10
-189.0
 20
163.9999
 30
0.0
 10
-190.0
 20
164.9999
 30
0.0
 10
-190.0
 20
164.9999
 30
0.0
 10
-190.0
 20
164.9999
 30
0.0
 10
-190.0
 20
164.9999
 30
0.0
 10
-192.0
 20
168.9999
 30
0.0
 10
-192.0
 20
168.9999
 30
0.0
 10
-192.0
 20
168.9999
 30
0.0
 10
-192.0
 20
168.9999
 30
0.0
 10
-199.0
 20
175.9999
 30
0.0
 10
-199.0
 20
175.9999
 30
0.0
 10
-199.0
 20
175.9999
 30
0.0
 10
-199.0
 20
175.9999
 30
0.0
 10
-210.09999999999999
 20
182.79990000000001
 30
0.0
 10
-210.09999999999999
 20
182.79990000000001
 30
0.0
 10
-210.09999999999999
 20
182.79990000000001
 30
0.0
 10
-210.09999999999999
 20
182.79990000000001
 30
0.0
 10
-214.9117
 20
184.35290000000001
 30
0.0
 10
-214.9117
 20
184.35290000000001
 30
0.0
 10
-214.9117
 20
184.35290000000001
 30
0.0
 10
-214.9117
 20
184.35290000000001
 30
0.0
 10
-223.0
 20
186.9999
 30
0.0
 10
-223.0
 20
186.9999
 30
0.0
 10
-223.0
 20
186.9999
 30
0.0
 10
-223.0
 20
186.9999
 30
0.0
 10
-234.0
 20
186.9999
 30
0.0
 10
-234.0
 20
186.9999
 30
0.0
 10
-234.0
 20
186.9999
 30
0.0
 10
-234.0
 20
186.9999
 30
0.0
 10
-240.94
 20
185.57990000000001
 30
0.0
 10
-240.94
 20
185.57990000000001
 30
0.0
 10
-240.94
 20
185.57990000000001
 30
0.0
 10
-240.94
 20
185.57990000000001
 30
0.0
 10
-249.09999999999999
 20
183.19990000000001
 30
0.0
 10
-249.09999999999999
 20
183.19990000000001
 30
0.0
 10
-249.09999999999999
 20
183.19990000000001
 30
0.0
 10
-249.09999999999999
 20
183.19990000000001
 30
0.0
 10
-262.0
 20
175.9999
 30
0.0
 10
-262.0
 20
175.9999
 30
0.0
 10
-262.0
 20
175.9999
 30
0.0
 10
-262.0
 20
175.9999
 30
0.0
 10
-268.0
 20
169.9999
 30
0.0
 10
-268.0
 20
169.9999
 30
0.0
 10
-268.0
 20
169.9999
 30
0.0
 10
-268.0
 20
169.9999
 30
0.0
 10
-274.80000000000001
 20
158.8999
 30
0.0
 10
-274.80000000000001
 20
158.8999
 30
0.0
 10
-274.80000000000001
 20
158.8999
 30
0.0
 10
-274.80000000000001
 20
158.8999
 30
0.0
 10
-276.19999999999999
 20
156.09989999999999
 30
0.0
 10
-276.19999999999999
 20
156.09989999999999
 30
0.0
 10
-276.19999999999999
 20
156.09989999999999
 30
0.0
 10
-276.19999999999999
 20
156.09989999999999
 30
0.0
 10
-278.57999999999998
 20
147.93989999999999
 30
0.0
 10
-278.57999999999998
 20
147.93989999999999
 30
0.0
 10
-278.57999999999998
 20
147.93989999999999
 30
0.0
 10
-278.57999999999998
 20
147.93989999999999
 30
0.0
 10
-279.42000000000002
 20
142.0599
 30
0.0
 10
-279.42000000000002
 20
142.0599
 30
0.0
 10
-279.42000000000002
 20
142.0599
 30
0.0
 10
-279.42000000000002
 20
142.0599
 30
0.0
 10
-280.0
 20
134.9999
 30
0.0
 10
-280.0
 20
134.9999
 30
0.0
 10
-280.0
 20
134.9999
 30
0.0
 10
-280.0
 20
134.9999
 30
0.0
 10
-277.61529999999999
 20
123.07689999999999
 30
0.0
 10
-277.61529999999999
 20
123.07689999999999
 30
0.0
 10
-277.61529999999999
 20
123.07689999999999
 30
0.0
 10
-277.61529999999999
 20
123.07689999999999
 30
0.0
 10
-277.19999999999999
 20
121.8999
 30
0.0
 10
-277.19999999999999
 20
121.8999
 30
0.0
 10
-277.19999999999999
 20
121.8999
 30
0.0
 10
-277.19999999999999
 20
121.8999
 30
0.0
 10
-271.75999999999999
 20
111.1799
 30
0.0
 10
-271.75999999999999
 20
111.1799
 30
0.0
 10
-271.75999999999999
 20
111.1799
 30
0.0
 10
-271.75999999999999
 20
111.1799
 30
0.0
 10
-269.0
 20
106.9999
 30
0.0
 10
-269.0
 20
106.9999
 30
0.0
 10
-269.0
 20
106.9999
 30
0.0
 10
-269.0
 20
106.9999
 30
0.0
 10
-257.18000000000001
 20
96.759900000000002
 30
0.0
 10
-257.18000000000001
 20
96.759900000000002
 30
0.0
 10
-257.18000000000001
 20
96.759900000000002
 30
0.0
 10
-257.18000000000001
 20
96.759900000000002
 30
0.0
 10
-251.90000000000001
 20
93.1999
 30
0.0
 10
-251.90000000000001
 20
93.1999
 30
0.0
 10
-251.90000000000001
 20
93.1999
 30
0.0
 10
-251.90000000000001
 20
93.1999
 30
0.0
 10
-242.0882
 20
89.647000000000006
 30
0.0
 10
-242.0882
 20
89.647000000000006
 30
0.0
 10
-242.0882
 20
89.647000000000006
 30
0.0
 10
-242.0882
 20
89.647000000000006
 30
0.0
 10
-240.9461
 20
89.430700000000002
 30
0.0
 10
-240.9461
 20
89.430700000000002
 30
0.0
 10
-240.9461
 20
89.430700000000002
 30
0.0
 10
-240.9461
 20
89.430700000000002
 30
0.0
 10
-234.0
 20
88.999899999999997
 30
0.0
 10
-234.0
 20
88.999899999999997
 30
0.0
 10
-234.0
 20
88.999899999999997
 30
0.0
 10
-234.0
 20
88.999899999999997
 30
0.0
 10
-232.0
 20
86.999899999999997
 30
0.0
 10
-232.0
 20
86.999899999999997
 30
0.0
 10
-232.0
 20
86.999899999999997
 30
0.0
 10
-232.0
 20
86.999899999999997
 30
0.0
 10
-230.19999999999999
 20
80.899900000000002
 30
0.0
 10
-230.19999999999999
 20
80.899900000000002
 30
0.0
 10
-230.19999999999999
 20
80.899900000000002
 30
0.0
 10
-230.19999999999999
 20
80.899900000000002
 30
0.0
 10
-227.23070000000001
 20
75.846100000000007
 30
0.0
 10
-227.23070000000001
 20
75.846100000000007
 30
0.0
 10
-227.23070000000001
 20
75.846100000000007
 30
0.0
 10
-227.23070000000001
 20
75.846100000000007
 30
0.0
 10
-223.0
 20
68.999899999999997
 30
0.0
 10
-223.0
 20
68.999899999999997
 30
0.0
 10
-223.0
 20
68.999899999999997
 30
0.0
 10
-223.0
 20
68.999899999999997
 30
0.0
 10
-216.0
 20
62.999899999999997
 30
0.0
 10
-216.0
 20
62.999899999999997
 30
0.0
 10
-216.0
 20
62.999899999999997
 30
0.0
 10
-216.0
 20
62.999899999999997
 30
0.0
 10
-215.55439999999999
 20
54.044499999999999
 30
0.0
 10
-215.55439999999999
 20
54.044499999999999
 30
0.0
 10
-215.55439999999999
 20
54.044499999999999
 30
0.0
 10
-215.55439999999999
 20
54.044499999999999
 30
0.0
 10
-212.80000000000001
 20
47.099899999999998
 30
0.0
 10
-212.80000000000001
 20
47.099899999999998
 30
0.0
 10
-212.80000000000001
 20
47.099899999999998
 30
0.0
 10
-212.80000000000001
 20
47.099899999999998
 30
0.0
 10
-211.19999999999999
 20
43.899900000000002
 30
0.0
 10
-211.19999999999999
 20
43.899900000000002
 30
0.0
 10
-211.19999999999999
 20
43.899900000000002
 30
0.0
 10
-211.19999999999999
 20
43.899900000000002
 30
0.0
 10
-203.0
 20
32.999899999999997
 30
0.0
 10
-203.0
 20
32.999899999999997
 30
0.0
 10
-203.0
 20
32.999899999999997
 30
0.0
 10
-203.0
 20
32.999899999999997
 30
0.0
 10
-199.0
 20
30.9999
 30
0.0
 10
-199.0
 20
30.9999
 30
0.0
 10
-199.0
 20
30.9999
 30
0.0
 10
-199.0
 20
30.9999
 30
0.0
 10
-197.35290000000001
 20
27.9117
 30
0.0
 10
-197.35290000000001
 20
27.9117
 30
0.0
 10
-197.35290000000001
 20
27.9117
 30
0.0
 10
-197.35290000000001
 20
27.9117
 30
0.0
 10
-195.64699999999999
 20
21.088200000000001
 30
0.0
 10
-195.64699999999999
 20
21.088200000000001
 30
0.0
 10
-195.64699999999999
 20
21.088200000000001
 30
0.0
 10
-195.64699999999999
 20
21.088200000000001
 30
0.0
 10
-190.76920000000001
 20
12.1538
 30
0.0
 10
-190.76920000000001
 20
12.1538
 30
0.0
 10
-190.76920000000001
 20
12.1538
 30
0.0
 10
-190.76920000000001
 20
12.1538
 30
0.0
 10
-188.80000000000001
 20
9.0998999999999999
 30
0.0
 10
-188.80000000000001
 20
9.0998999999999999
 30
0.0
 10
-188.80000000000001
 20
9.0998999999999999
 30
0.0
 10
-188.80000000000001
 20
9.0998999999999999
 30
0.0
 10
-189.2439
 20
6.1951000000000001
 30
0.0
 10
-189.2439
 20
6.1951000000000001
 30
0.0
 10
-189.2439
 20
6.1951000000000001
 30
0.0
 10
-189.2439
 20
6.1951000000000001
 30
0.0
 10
-196.19999999999999
 20
-2.8999999999999999
 30
0.0
 10
-196.19999999999999
 20
-2.8999999999999999
 30
0.0
 10
-196.19999999999999
 20
-2.8999999999999999
 30
0.0
 10
-196.19999999999999
 20
-2.8999999999999999
 30
0.0
 10
-199.35290000000001
 20
-11.9117
 30
0.0
 10
-199.35290000000001
 20
-11.9117
 30
0.0
 10
-199.35290000000001
 20
-11.9117
 30
0.0
 10
-199.35290000000001
 20
-11.9117
 30
0.0
 10
-201.0
 20
-16.0
 30
0.0
 10
-201.0
 20
-16.0
 30
0.0
 10
-201.0
 20
-16.0
 30
0.0
 10
-201.0
 20
-16.0
 30
0.0
 10
-201.90000000000001
 20
-16.199999999999999
 30
0.0
 10
-201.90000000000001
 20
-16.199999999999999
 30
0.0
 10
-201.90000000000001
 20
-16.199999999999999
 30
0.0
 10
-201.90000000000001
 20
-16.199999999999999
 30
0.0
 10
-209.0
 20
-21.0
 30
0.0
 10
-209.0
 20
-21.0
 30
0.0
 10
-209.0
 20
-21.0
 30
0.0
 10
-209.0
 20
-21.0
 30
0.0
 10
-211.75999999999999
 20
-25.18
 30
0.0
 10
-211.75999999999999
 20
-25.18
 30
0.0
 10
-211.75999999999999
 20
-25.18
 30
0.0
 10
-211.75999999999999
 20
-25.18
 30
0.0
 10
-217.61529999999999
 20
-36.076900000000002
 30
0.0
 10
-217.61529999999999
 20
-36.076900000000002
 30
0.0
 10
-217.61529999999999
 20
-36.076900000000002
 30
0.0
 10
-217.61529999999999
 20
-36.076900000000002
 30
0.0
 10
-218.59450000000001
 20
-41.067500000000003
 30
0.0
 10
-218.59450000000001
 20
-41.067500000000003
 30
0.0
 10
-218.59450000000001
 20
-41.067500000000003
 30
0.0
 10
-218.59450000000001
 20
-41.067500000000003
 30
0.0
 10
-220.05090000000001
 20
-45.426699999999997
 30
0.0
 10
-220.05090000000001
 20
-45.426699999999997
 30
0.0
 10
-220.05090000000001
 20
-45.426699999999997
 30
0.0
 10
-220.05090000000001
 20
-45.426699999999997
 30
0.0
 10
-225.2439
 20
-52.8048
 30
0.0
 10
-225.2439
 20
-52.8048
 30
0.0
 10
-225.2439
 20
-52.8048
 30
0.0
 10
-225.2439
 20
-52.8048
 30
0.0
 10
-237.0
 20
-70.0
 30
0.0
 10
-237.0
 20
-70.0
 30
0.0
 10
-237.0
 20
-70.0
 30
0.0
 10
-237.0
 20
-70.0
 30
0.0
 10
-240.0882
 20
-70.647000000000006
 30
0.0
 10
-240.0882
 20
-70.647000000000006
 30
0.0
 10
-240.0882
 20
-70.647000000000006
 30
0.0
 10
-240.0882
 20
-70.647000000000006
 30
0.0
 10
-251.90000000000001
 20
-74.200000000000003
 30
0.0
 10
-251.90000000000001
 20
-74.200000000000003
 30
0.0
 10
-251.90000000000001
 20
-74.200000000000003
 30
0.0
 10
-251.90000000000001
 20
-74.200000000000003
 30
0.0
 10
-258.15379999999999
 20
-77.769199999999998
 30
0.0
 10
-258.15379999999999
 20
-77.769199999999998
 30
0.0
 10
-258.15379999999999
 20
-77.769199999999998
 30
0.0
 10
-258.15379999999999
 20
-77.769199999999998
 30
0.0
 10
-270.0
 20
-89.0
 30
0.0
 10
-270.0
 20
-89.0
 30
0.0
 10
-270.0
 20
-89.0
 30
0.0
 10
-270.0
 20
-89.0
 30
0.0
 10
-274.76920000000001
 20
-96.153800000000004
 30
0.0
 10
-274.76920000000001
 20
-96.153800000000004
 30
0.0
 10
-274.76920000000001
 20
-96.153800000000004
 30
0.0
 10
-274.76920000000001
 20
-96.153800000000004
 30
0.0
 10
-278.64699999999999
 20
-107.0882
 30
0.0
 10
-278.64699999999999
 20
-107.0882
 30
0.0
 10
-278.64699999999999
 20
-107.0882
 30
0.0
 10
-278.64699999999999
 20
-107.0882
 30
0.0
 10
-279.35289999999998
 20
-109.9117
 30
0.0
 10
-279.35289999999998
 20
-109.9117
 30
0.0
 10
-279.35289999999998
 20
-109.9117
 30
0.0
 10
-279.35289999999998
 20
-109.9117
 30
0.0
 10
-280.0
 20
-111.0
 30
0.0
 10
-280.0
 20
-111.0
 30
0.0
 10
-280.0
 20
-111.0
 30
0.0
 10
-280.0
 20
-111.0
 30
0.0
 10
-280.0
 20
-126.0
 30
0.0
 10
-280.0
 20
-126.0
 30
0.0
 10
-280.0
 20
-126.0
 30
0.0
 10
-280.0
 20
-126.0
 30
0.0
 10
-276.64699999999999
 20
-136.9117
 30
0.0
 10
-276.64699999999999
 20
-136.9117
 30
0.0
 10
-276.64699999999999
 20
-136.9117
 30
0.0
 10
-276.64699999999999
 20
-136.9117
 30
0.0
 10
-275.69999999999999
 20
-139.90000000000001
 30
0.0
 10
-275.69999999999999
 20
-139.90000000000001
 30
0.0
 10
-275.69999999999999
 20
-139.90000000000001
 30
0.0
 10
-275.69999999999999
 20
-139.90000000000001
 30
0.0
 10
-271.0
 20
-148.0
 30
0.0
 10
-271.0
 20
-148.0
 30
0.0
 10
-271.0
 20
-148.0
 30
0.0
 10
-271.0
 20
-148.0
 30
0.0
 10
-261.0
 20
-158.0
 30
0.0
 10
-261.0
 20
-158.0
 30
0.0
 10
-261.0
 20
-158.0
 30
0.0
 10
-261.0
 20
-158.0
 30
0.0
 10
-248.9117
 20
-164.64699999999999
 30
0.0
 10
-248.9117
 20
-164.64699999999999
 30
0.0
 10
-248.9117
 20
-164.64699999999999
 30
0.0
 10
-248.9117
 20
-164.64699999999999
 30
0.0
 10
-246.0882
 20
-165.35290000000001
 30
0.0
 10
-246.0882
 20
-165.35290000000001
 30
0.0
 10
-246.0882
 20
-165.35290000000001
 30
0.0
 10
-246.0882
 20
-165.35290000000001
 30
0.0
 10
-239.0
 20
-168.0
 30
0.0
 10
-239.0
 20
-168.0
 30
0.0
 10
-239.0
 20
-168.0
 30
0.0
 10
-239.0
 20
-168.0
 30
0.0
 10
-223.0
 20
-168.0
 30
0.0
 10
-223.0
 20
-168.0
 30
0.0
 10
-223.0
 20
-168.0
 30
0.0
 10
-223.0
 20
-168.0
 30
0.0
 10
-209.09999999999999
 20
-162.80000000000001
 30
0.0
 10
-209.09999999999999
 20
-162.80000000000001
 30
0.0
 10
-209.09999999999999
 20
-162.80000000000001
 30
0.0
 10
-209.09999999999999
 20
-162.80000000000001
 30
0.0
 10
-207.90000000000001
 20
-162.19999999999999
 30
0.0
 10
-207.90000000000001
 20
-162.19999999999999
 30
0.0
 10
-207.90000000000001
 20
-162.19999999999999
 30
0.0
 10
-207.90000000000001
 20
-162.19999999999999
 30
0.0
 10
-202.0
 20
-159.0
 30
0.0
 10
-202.0
 20
-159.0
 30
0.0
 10
-202.0
 20
-159.0
 30
0.0
 10
-202.0
 20
-159.0
 30
0.0
 10
-193.0
 20
-150.0
 30
0.0
 10
-193.0
 20
-150.0
 30
0.0
 10
-193.0
 20
-150.0
 30
0.0
 10
-193.0
 20
-150.0
 30
0.0
 10
-193.0
 20
-149.0
 30
0.0
 10
-193.0
 20
-149.0
 30
0.0
 10
-193.0
 20
-149.0
 30
0.0
 10
-193.0
 20
-149.0
 30
0.0
 10
-191.0
 20
-147.0
 30
0.0
 10
-191.0
 20
-147.0
 30
0.0
 10
-191.0
 20
-147.0
 30
0.0
 10
-191.0
 20
-147.0
 30
0.0
 10
-182.06
 20
-148.41999999999999
 30
0.0
 10
-182.06
 20
-148.41999999999999
 30
0.0
 10
-182.06
 20
-148.41999999999999
 30
0.0
 10
-182.06
 20
-148.41999999999999
 30
0.0
 10
-173.0
 20
-149.0
 30
0.0
 10
-173.0
 20
-149.0
 30
0.0
 10
-173.0
 20
-149.0
 30
0.0
 10
-173.0
 20
-149.0
 30
0.0
 10
-163.0
 20
-146.0
 30
0.0
 10
-163.0
 20
-146.0
 30
0.0
 10
-163.0
 20
-146.0
 30
0.0
 10
-163.0
 20
-146.0
 30
0.0
 10
-156.90000000000001
 20
-147.69999999999999
 30
0.0
 10
-156.90000000000001
 20
-147.69999999999999
 30
0.0
 10
-156.90000000000001
 20
-147.69999999999999
 30
0.0
 10
-156.90000000000001
 20
-147.69999999999999
 30
0.0
 10
-155.09999999999999
 20
-148.30000000000001
 30
0.0
 10
-155.09999999999999
 20
-148.30000000000001
 30
0.0
 10
-155.09999999999999
 20
-148.30000000000001
 30
0.0
 10
-155.09999999999999
 20
-148.30000000000001
 30
0.0
 10
-151.0
 20
-150.0
 30
0.0
 10
-151.0
 20
-150.0
 30
0.0
 10
-151.0
 20
-150.0
 30
0.0
 10
-151.0
 20
-150.0
 30
0.0
 10
-138.0
 20
-150.0
 30
0.0
 10
-138.0
 20
-150.0
 30
0.0
 10
-138.0
 20
-150.0
 30
0.0
 10
-138.0
 20
-150.0
 30
0.0
 10
-131.06
 20
-148.58000000000001
 30
0.0
 10
-131.06
 20
-148.58000000000001
 30
0.0
 10
-131.06
 20
-148.58000000000001
 30
0.0
 10
-131.06
 20
-148.58000000000001
 30
0.0
 10
-129.9117
 20
-148.35290000000001
 30
0.0
 10
-129.9117
 20
-148.35290000000001
 30
0.0
 10
-129.9117
 20
-148.35290000000001
 30
0.0
 10
-129.9117
 20
-148.35290000000001
 30
0.0
 10
-125.09999999999999
 20
-146.80000000000001
 30
0.0
 10
-125.09999999999999
 20
-146.80000000000001
 30
0.0
 10
-125.09999999999999
 20
-146.80000000000001
 30
0.0
 10
-125.09999999999999
 20
-146.80000000000001
 30
0.0
 10
-124.0
 20
-146.0
 30
0.0
 10
-124.0
 20
-146.0
 30
0.0
 10
-124.0
 20
-146.0
 30
0.0
 10
-124.0
 20
-146.0
 30
0.0
 10
-110.0
 20
-150.0
 30
0.0
 10
-110.0
 20
-150.0
 30
0.0
 10
-110.0
 20
-150.0
 30
0.0
 10
-110.0
 20
-150.0
 30
0.0
 10
-102.0
 20
-149.0
 30
0.0
 10
-102.0
 20
-149.0
 30
0.0
 10
-102.0
 20
-149.0
 30
0.0
 10
-102.0
 20
-149.0
 30
0.0
 10
-93.769199999999998
 20
-159.84610000000001
 30
0.0
 10
-93.769199999999998
 20
-159.84610000000001
 30
0.0
 10
-93.769199999999998
 20
-159.84610000000001
 30
0.0
 10
-93.769199999999998
 20
-159.84610000000001
 30
0.0
 10
-87.472899999999996
 20
-168.33779999999999
 30
0.0
 10
-87.472899999999996
 20
-168.33779999999999
 30
0.0
 10
-87.472899999999996
 20
-168.33779999999999
 30
0.0
 10
-87.472899999999996
 20
-168.33779999999999
 30
0.0
 10
-84.299999999999997
 20
-179.09999999999999
 30
0.0
 10
-84.299999999999997
 20
-179.09999999999999
 30
0.0
 10
-84.299999999999997
 20
-179.09999999999999
 30
0.0
 10
-84.299999999999997
 20
-179.09999999999999
 30
0.0
 10
-83.700000000000003
 20
-180.90000000000001
 30
0.0
 10
-83.700000000000003
 20
-180.90000000000001
 30
0.0
 10
-83.700000000000003
 20
-180.90000000000001
 30
0.0
 10
-83.700000000000003
 20
-180.90000000000001
 30
0.0
 10
-76.799999999999997
 20
-192.90000000000001
 30
0.0
 10
-76.799999999999997
 20
-192.90000000000001
 30
0.0
 10
-76.799999999999997
 20
-192.90000000000001
 30
0.0
 10
-76.799999999999997
 20
-192.90000000000001
 30
0.0
 10
-73.0
 20
-199.0
 30
0.0
 10
-73.0
 20
-199.0
 30
0.0
 10
-73.0
 20
-199.0
 30
0.0
 10
-73.0
 20
-199.0
 30
0.0
 10
-72.0
 20
-199.0
 30
0.0
 10
-72.0
 20
-199.0
 30
0.0
 10
-72.0
 20
-199.0
 30
0.0
 10
-72.0
 20
-199.0
 30
0.0
 10
-67.0
 20
-204.0
 30
0.0
 10
-67.0
 20
-204.0
 30
0.0
 10
-67.0
 20
-204.0
 30
0.0
 10
-67.0
 20
-204.0
 30
0.0
 10
-66.615300000000005
 20
-207.923
 30
0.0
 10
-66.615300000000005
 20
-207.923
 30
0.0
 10
-66.615300000000005
 20
-207.923
 30
0.0
 10
-66.615300000000005
 20
-207.923
 30
0.0
 10
-62.799999999999997
 20
-217.90000000000001
 30
0.0
 10
-62.799999999999997
 20
-217.90000000000001
 30
0.0
 10
-62.799999999999997
 20
-217.90000000000001
 30
0.0
 10
-62.799999999999997
 20
-217.90000000000001
 30
0.0
 10
-61.200000000000003
 20
-221.09999999999999
 30
0.0
 10
-61.200000000000003
 20
-221.09999999999999
 30
0.0
 10
-61.200000000000003
 20
-221.09999999999999
 30
0.0
 10
-61.200000000000003
 20
-221.09999999999999
 30
0.0
 10
-58.0
 20
-225.0
 30
0.0
 10
-58.0
 20
-225.0
 30
0.0
 10
-58.0
 20
-225.0
 30
0.0
 10
-58.0
 20
-225.0
 30
0.0
 10
-57.0
 20
-225.0
 30
0.0
 10
-57.0
 20
-225.0
 30
0.0
 10
-57.0
 20
-225.0
 30
0.0
 10
-57.0
 20
-225.0
 30
0.0
 10
-54.0
 20
-228.0
 30
0.0
 10
-54.0
 20
-228.0
 30
0.0
 10
-54.0
 20
-228.0
 30
0.0
 10
-54.0
 20
-228.0
 30
0.0
 10
-59.0
 20
-242.0
 30
0.0
 10
-59.0
 20
-242.0
 30
0.0
 10
-59.0
 20
-242.0
 30
0.0
 10
-59.0
 20
-242.0
 30
0.0
 10
-59.0
 20
-260.0
 30
0.0
 10
-59.0
 20
-260.0
 30
0.0
 10
-59.0
 20
-260.0
 30
0.0
 10
-59.0
 20
-260.0
 30
0.0
 10
-53.799999999999997
 20
-272.89999999999998
 30
0.0
 10
-53.799999999999997
 20
-272.89999999999998
 30
0.0
 10
-53.799999999999997
 20
-272.89999999999998
 30
0.0
 10
-53.799999999999997
 20
-272.89999999999998
 30
0.0
 10
-53.200000000000003
 20
-274.10000000000002
 30
0.0
 10
-53.200000000000003
 20
-274.10000000000002
 30
0.0
 10
-53.200000000000003
 20
-274.10000000000002
 30
0.0
 10
-53.200000000000003
 20
-274.10000000000002
 30
0.0
 10
-41.0
 20
-289.0
 30
0.0
 10
-41.0
 20
-289.0
 30
0.0
 10
-41.0
 20
-289.0
 30
0.0
 10
-41.0
 20
-289.0
 30
0.0
 10
-25.899999999999999
 20
-296.80000000000001
 30
0.0
 10
-25.899999999999999
 20
-296.80000000000001
 30
0.0
 10
-25.899999999999999
 20
-296.80000000000001
 30
0.0
 10
-25.899999999999999
 20
-296.80000000000001
 30
0.0
 10
-25.100000000000001
 20
-297.19999999999999
 30
0.0
 10
-25.100000000000001
 20
-297.19999999999999
 30
0.0
 10
-25.100000000000001
 20
-297.19999999999999
 30
0.0
 10
-25.100000000000001
 20
-297.19999999999999
 30
0.0
 10
-12.932399999999999
 20
-299.59449999999998
 30
0.0
 10
-12.932399999999999
 20
-299.59449999999998
 30
0.0
 10
-12.932399999999999
 20
-299.59449999999998
 30
0.0
 10
-12.932399999999999
 20
-299.59449999999998
 30
0.0
 10
-8.0
 20
-300.0
 30
0.0
 10
-8.0
 20
-300.0
 30
0.0
  0
SPLINE
  5
26
100
AcDbEntity
  8
0
 62
     7
100
AcDbSpline
210
0.0
220
0.0
230
1.0
 70
     1
 71
     3
 72
    36
 73
    32
 74
     0
 42
0.0000000001
 43
0.0000000001
 40
0.0
 40
0.0
 40
0.0
 40
0.0
 40
0.125
 40
0.125
 40
0.125
 40
0.125
 40
0.25
 40
0.25
 40
0.25
 40
0.25
 40
0.375
 40
0.375
 40
0.375
 40
0.375
 40
0.5
 40
0.5
 40
0.5
 40
0.5
 40
0.625
 40
0.625
 40
0.625
 40
0.625
 40
0.75
 40
0.75
 40
0.75
 40
0.75
 40
0.875
 40
0.875
 40
0.875
 40
0.875
 40
1.0
 40
1.0
 40
1.0
 40
1.0
 10
-4.0
 20
305.99990000000003
 30
0.0
 10
-4.0
 20
305.99990000000003
 30
0.0
 10
1.0
 20
311.99990000000003
 30
0.0
 10
1.0
 20
311.99990000000003
 30
0.0
 10
1.0
 20
311.99990000000003
 30
0.0
 10
1.0
 20
311.99990000000003
 30
0.0
 10
1.0
 20
316.99990000000003
 30
0.0
 10
1.0
 20
316.99990000000003
 30
0.0
 10
1.0
 20
316.99990000000003
 30
0.0
 10
1.0
 20
316.99990000000003
 30
0.0
 10
-4.0
 20
322.99990000000003
 30
0.0
 10
-4.0
 20
322.99990000000003
 30
0.0
 10
-4.0
 20
322.99990000000003
 30
0.0
 10
-4.0
 20
322.99990000000003
 30
0.0
 10
-12.0
 20
322.99990000000003
 30
0.0
 10
-12.0
 20
322.99990000000003
 30
0.0
 10
-12.0
 20
322.99990000000003
 30
0.0
 10
-12.0
 20
322.99990000000003
 30
0.0
 10
-17.0
 20
316.99990000000003
 30
0.0
 10
-17.0
 20
316.99990000000003
 30
0.0
 10
-17.0
 20
316.99990000000003
 30
0.0
 10
-17.0
 20
316.99990000000003
 30
0.0
 10
-17.0
 20
311.99990000000003
 30
0.0
 10
-17.0
 20
311.99990000000003
 30
0.0
 10
-17.0
 20
311.99990000000003
 30
0.0
 10
-17.0
 20
311.99990000000003
 30
0.0
 10
-12.0
 20
305.99990000000003
 30
0.0
 10
-12.0
 20
305.99990000000003
 30
0.0
 10
-12.0
 20
305.99990000000003
 30
0.0
 10
-12.0
 20
305.99990000000003
 30
0.0
 10
-4.0
 20
305.99990000000003
 30
0.0
 10
-4.0
 20
305.99990000000003
 30
0.0
  0
SPLINE
  5
27
100
AcDbEntity
  8
0
 62
     7
100
AcDbSpline
210
0.0
220
0.0
230
1.0
 70
     1
 71
     3
 72
    72
 73
    68
 74
     0
 42
0.0000000001
 43
0.0000000001
 40
0.0
 40
0.0
 40
0.0
 40
0.0
 40
0.0588235294117647
 40
0.0588235294117647
 40
0.0588235294117647
 40
0.0588235294117647
 40
0.1176470588235294
 40
0.1176470588235294
 40
0.1176470588235294
 40
0.1176470588235294
 40
0.1764705882352941
 40
0.1764705882352941
 40
0.1764705882352941
 40
0.1764705882352941
 40
0.2352941176470588
 40
0.2352941176470588
 40
0.2352941176470588
 40
0.2352941176470588
 40
0.2941176470588235
 40
0.2941176470588235
 40
0.2941176470588235
 40
0.2941176470588235
 40
0.3529411764705883
 40
0.3529411764705883
 40
0.3529411764705883
 40
0.3529411764705883
 40
0.411764705882353
 40
0.411764705882353
 40
0.411764705882353
 40
0.411764705882353
 40
0.4705882352941177
 40
0.4705882352941177
 40
0.4705882352941177
 40
0.4705882352941177
 40
0.5294117647058824
 40
0.5294117647058824
 40
0.5294117647058824
 40
0.5294117647058824
 40
0.5882352941176471
 40
0.5882352941176471
 40
0.5882352941176471
 40
0.5882352941176471
 40
0.6470588235294118
 40
0.6470588235294118
 40
0.6470588235294118
 40
0.6470588235294118
 40
0.7058823529411765
 40
0.7058823529411765
 40
0.7058823529411765
 40
0.7058823529411765
 40
0.7647058823529412
 40
0.7647058823529412
 40
0.7647058823529412
 40
0.7647058823529412
 40
0.823529411764706
 40
0.823529411764706
 40
0.823529411764706
 40
0.823529411764706
 40
0.8823529411764707
 40
0.8823529411764707
 40
0.8823529411764707
 40
0.8823529411764707
 40
0.9411764705882354
 40
0.9411764705882354
 40
0.9411764705882354
 40
0.9411764705882354
 40
1.0
 40
1.0
 40
1.0
 40
1.0
 10
0.0
 20
247.9999
 30
0.0
 10
0.0
 20
247.9999
 30
0.0
 10
1.1000000000000001
 20
248.79990000000001
 30
0.0
 10
1.1000000000000001
 20
248.79990000000001
 30
0.0
 10
1.1000000000000001
 20
248.79990000000001
 30
0.0
 10
1.1000000000000001
 20
248.79990000000001
 30
0.0
 10
4.0
 20
249.9999
 30
0.0
 10
4.0
 20
249.9999
 30
0.0
 10
4.0
 20
249.9999
 30
0.0
 10
4.0
 20
249.9999
 30
0.0
 10
8.2400000000000002
 20
254.81989999999999
 30
0.0
 10
8.2400000000000002
 20
254.81989999999999
 30
0.0
 10
8.2400000000000002
 20
254.81989999999999
 30
0.0
 10
8.2400000000000002
 20
254.81989999999999
 30
0.0
 10
12.0
 20
261.99990000000003
 30
0.0
 10
12.0
 20
261.99990000000003
 30
0.0
 10
12.0
 20
261.99990000000003
 30
0.0
 10
12.0
 20
261.99990000000003
 30
0.0
 10
12.0
 20
267.99990000000003
 30
0.0
 10
12.0
 20
267.99990000000003
 30
0.0
 10
12.0
 20
267.99990000000003
 30
0.0
 10
12.0
 20
267.99990000000003
 30
0.0
 10
8.0
 20
275.99990000000003
 30
0.0
 10
8.0
 20
275.99990000000003
 30
0.0
 10
8.0
 20
275.99990000000003
 30
0.0
 10
8.0
 20
275.99990000000003
 30
0.0
 10
3.0
 20
280.99990000000003
 30
0.0
 10
3.0
 20
280.99990000000003
 30
0.0
 10
3.0
 20
280.99990000000003
 30
0.0
 10
3.0
 20
280.99990000000003
 30
0.0
 10
0.0
 20
281.99990000000003
 30
0.0
 10
0.0
 20
281.99990000000003
 30
0.0
 10
0.0
 20
281.99990000000003
 30
0.0
 10
0.0
 20
281.99990000000003
 30
0.0
 10
-11.0
 20
281.99990000000003
 30
0.0
 10
-11.0
 20
281.99990000000003
 30
0.0
 10
-11.0
 20
281.99990000000003
 30
0.0
 10
-11.0
 20
281.99990000000003
 30
0.0
 10
-13.0
 20
280.99990000000003
 30
0.0
 10
-13.0
 20
280.99990000000003
 30
0.0
 10
-13.0
 20
280.99990000000003
 30
0.0
 10
-13.0
 20
280.99990000000003
 30
0.0
 10
-21.199999999999999
 20
272.09989999999999
 30
0.0
 10
-21.199999999999999
 20
272.09989999999999
 30
0.0
 10
-21.199999999999999
 20
272.09989999999999
 30
0.0
 10
-21.199999999999999
 20
272.09989999999999
 30
0.0
 10
-22.0
 20
270.99990000000003
 30
0.0
 10
-22.0
 20
270.99990000000003
 30
0.0
 10
-22.0
 20
270.99990000000003
 30
0.0
 10
-22.0
 20
270.99990000000003
 30
0.0
 10
-22.0
 20
258.99990000000003
 30
0.0
 10
-22.0
 20
258.99990000000003
 30
0.0
 10
-22.0
 20
258.99990000000003
 30
0.0
 10
-22.0
 20
258.99990000000003
 30
0.0
 10
-21.0
 20
256.99990000000003
 30
0.0
 10
-21.0
 20
256.99990000000003
 30
0.0
 10
-21.0
 20
256.99990000000003
 30
0.0
 10
-21.0
 20
256.99990000000003
 30
0.0
 10
-14.0
 20
249.9999
 30
0.0
 10
-14.0
 20
249.9999
 30
0.0
 10
-14.0
 20
249.9999
 30
0.0
 10
-14.0
 20
249.9999
 30
0.0
 10
-9.9589999999999996
 20
248.45079999999999
 30
0.0
 10
-9.9589999999999996
 20
248.45079999999999
 30
0.0
 10
-9.9589999999999996
 20
248.45079999999999
 30
0.0
 10
-9.9589999999999996
 20
248.45079999999999
 30
0.0
 10
0.0
 20
247.9999
 30
0.0
 10
0.0
 20
247.9999
 30
0.0
  0
SPLINE
  5
28
100
AcDbEntity
  8
0
 62
     7
100
AcDbSpline
210
0.0
220
0.0
230
1.0
 70
     1
 71
     3
 72
    84
 73
    80
 74
     0
 42
0.0000000001
 43
0.0000000001
 40
0.0
 40
0.0
 40
0.0
 40
0.0
 40
0.05
 40
0.05
 40
0.05
 40
0.05
 40
0.1
 40
0.1
 40
0.1
 40
0.1
 40
0.15
 40
0.15
 40
0.15
 40
0.15
 40
0.2
 40
0.2
 40
0.2
 40
0.2
 40
0.25
 40
0.25
 40
0.25
 40
0.25
 40
0.3
 40
0.3
 40
0.3
 40
0.3
 40
0.35
 40
0.35
 40
0.35
 40
0.35
 40
0.4
 40
0.4
 40
0.4
 40
0.4
 40
0.45
 40
0.45
 40
0.45
 40
0.45
 40
0.4999999999999999
 40
0.4999999999999999
 40
0.4999999999999999
 40
0.4999999999999999
 40
0.5499999999999999
 40
0.5499999999999999
 40
0.5499999999999999
 40
0.5499999999999999
 40
0.6
 40
0.6
 40
0.6
 40
0.6
 40
0.65
 40
0.65
 40
0.65
 40
0.65
 40
0.7000000000000001
 40
0.7000000000000001
 40
0.7000000000000001
 40
0.7000000000000001
 40
0.7500000000000001
 40
0.7500000000000001
 40
0.7500000000000001
 40
0.7500000000000001
 40
0.8000000000000002
 40
0.8000000000000002
 40
0.8000000000000002
 40
0.8000000000000002
 40
0.8500000000000002
 40
0.8500000000000002
 40
0.8500000000000002
 40
0.8500000000000002
 40
0.9000000000000002
 40
0.9000000000000002
 40
0.9000000000000002
 40
0.9000000000000002
 40
0.9500000000000003
 40
0.9500000000000003
 40
0.9500000000000003
 40
0.9500000000000003
 40
1.0
 40
1.0
 40
1.0
 40
1.0
 10
-4.0
 20
193.9999
 30
0.0
 10
-4.0
 20
193.9999
 30
0.0
 10
10.9
 20
200.19990000000001
 30
0.0
 10
10.9
 20
200.19990000000001
 30
0.0
 10
10.9
 20
200.19990000000001
 30
0.0
 10
10.9
 20
200.19990000000001
 30
0.0
 10
14.0
 20
201.9999
 30
0.0
 10
14.0
 20
201.9999
 30
0.0
 10
14.0
 20
201.9999
 30
0.0
 10
14.0
 20
201.9999
 30
0.0
 10
14.24
 20
202.81989999999999
 30
0.0
 10
14.24
 20
202.81989999999999
 30
0.0
 10
14.24
 20
202.81989999999999
 30
0.0
 10
14.24
 20
202.81989999999999
 30
0.0
 10
19.0
 20
208.9999
 30
0.0
 10
19.0
 20
208.9999
 30
0.0
 10
19.0
 20
208.9999
 30
0.0
 10
19.0
 20
208.9999
 30
0.0
 10
18.352900000000002
 20
212.0882
 30
0.0
 10
18.352900000000002
 20
212.0882
 30
0.0
 10
18.352900000000002
 20
212.0882
 30
0.0
 10
18.352900000000002
 20
212.0882
 30
0.0
 10
18.0
 20
214.9999
 30
0.0
 10
18.0
 20
214.9999
 30
0.0
 10
18.0
 20
214.9999
 30
0.0
 10
18.0
 20
214.9999
 30
0.0
 10
15.1538
 20
217.23070000000001
 30
0.0
 10
15.1538
 20
217.23070000000001
 30
0.0
 10
15.1538
 20
217.23070000000001
 30
0.0
 10
15.1538
 20
217.23070000000001
 30
0.0
 10
13.0
 20
218.9999
 30
0.0
 10
13.0
 20
218.9999
 30
0.0
 10
13.0
 20
218.9999
 30
0.0
 10
13.0
 20
218.9999
 30
0.0
 10
-9.0
 20
217.9999
 30
0.0
 10
-9.0
 20
217.9999
 30
0.0
 10
-9.0
 20
217.9999
 30
0.0
 10
-9.0
 20
217.9999
 30
0.0
 10
-17.9117
 20
220.35290000000001
 30
0.0
 10
-17.9117
 20
220.35290000000001
 30
0.0
 10
-17.9117
 20
220.35290000000001
 30
0.0
 10
-17.9117
 20
220.35290000000001
 30
0.0
 10
-21.0
 20
221.9999
 30
0.0
 10
-21.0
 20
221.9999
 30
0.0
 10
-21.0
 20
221.9999
 30
0.0
 10
-21.0
 20
221.9999
 30
0.0
 10
-25.0
 20
221.9999
 30
0.0
 10
-25.0
 20
221.9999
 30
0.0
 10
-25.0
 20
221.9999
 30
0.0
 10
-25.0
 20
221.9999
 30
0.0
 10
-29.0
 20
218.9999
 30
0.0
 10
-29.0
 20
218.9999
 30
0.0
 10
-29.0
 20
218.9999
 30
0.0
 10
-29.0
 20
218.9999
 30
0.0
 10
-30.0
 20
216.9999
 30
0.0
 10
-30.0
 20
216.9999
 30
0.0
 10
-30.0
 20
216.9999
 30
0.0
 10
-30.0
 20
216.9999
 30
0.0
 10
-29.352900000000002
 20
210.9117
 30
0.0
 10
-29.352900000000002
 20
210.9117
 30
0.0
 10
-29.352900000000002
 20
210.9117
 30
0.0
 10
-29.352900000000002
 20
210.9117
 30
0.0
 10
-28.646999999999998
 20
208.0882
 30
0.0
 10
-28.646999999999998
 20
208.0882
 30
0.0
 10
-28.646999999999998
 20
208.0882
 30
0.0
 10
-28.646999999999998
 20
208.0882
 30
0.0
 10
-25.0
 20
201.9999
 30
0.0
 10
-25.0
 20
201.9999
 30
0.0
 10
-25.0
 20
201.9999
 30
0.0
 10
-25.0
 20
201.9999
 30
0.0
 10
-22.100000000000001
 20
199.79990000000001
 30
0.0
 10
-22.100000000000001
 20
199.79990000000001
 30
0.0
 10
-22.100000000000001
 20
199.79990000000001
 30
0.0
 10
-22.100000000000001
 20
199.79990000000001
 30
0.0
 10
-12.932399999999999
 20
195.40539999999999
 30
0.0
 10
-12.932399999999999
 20
195.40539999999999
 30
0.0
 10
-12.932399999999999
 20
195.40539999999999
 30
0.0
 10
-12.932399999999999
 20
195.40539999999999
 30
0.0
 10
-4.0
 20
193.9999
 30
0.0
 10
-4.0
 20
193.9999
 30
0.0
  0
SPLINE
  5
29
100
AcDbEntity
  8
0
 62
     7
100
AcDbSpline
210
0.0
220
0.0
230
1.0
 70
     1
 71
     3
 72
   100
 73
    96
 74
     0
 42
0.0000000001
 43
0.0000000001
 40
0.0
 40
0.0
 40
0.0
 40
0.0
 40
0.0416666666666667
 40
0.0416666666666667
 40
0.0416666666666667
 40
0.0416666666666667
 40
0.0833333333333333
 40
0.0833333333333333
 40
0.0833333333333333
 40
0.0833333333333333
 40
0.125
 40
0.125
 40
0.125
 40
0.125
 40
0.1666666666666667
 40
0.1666666666666667
 40
0.1666666666666667
 40
0.1666666666666667
 40
0.2083333333333333
 40
0.2083333333333333
 40
0.2083333333333333
 40
0.2083333333333333
 40
0.25
 40
0.25
 40
0.25
 40
0.25
 40
0.2916666666666666
 40
0.2916666666666666
 40
0.2916666666666666
 40
0.2916666666666666
 40
0.3333333333333333
 40
0.3333333333333333
 40
0.3333333333333333
 40
0.3333333333333333
 40
0.375
 40
0.375
 40
0.375
 40
0.375
 40
0.4166666666666667
 40
0.4166666666666667
 40
0.4166666666666667
 40
0.4166666666666667
 40
0.4583333333333334
 40
0.4583333333333334
 40
0.4583333333333334
 40
0.4583333333333334
 40
0.5
 40
0.5
 40
0.5
 40
0.5
 40
0.5416666666666666
 40
0.5416666666666666
 40
0.5416666666666666
 40
0.5416666666666666
 40
0.5833333333333333
 40
0.5833333333333333
 40
0.5833333333333333
 40
0.5833333333333333
 40
0.6249999999999999
 40
0.6249999999999999
 40
0.6249999999999999
 40
0.6249999999999999
 40
0.6666666666666665
 40
0.6666666666666665
 40
0.6666666666666665
 40
0.6666666666666665
 40
0.7083333333333332
 40
0.7083333333333332
 40
0.7083333333333332
 40
0.7083333333333332
 40
0.7499999999999998
 40
0.7499999999999998
 40
0.7499999999999998
 40
0.7499999999999998
 40
0.7916666666666664
 40
0.7916666666666664
 40
0.7916666666666664
 40
0.7916666666666664
 40
0.833333333333333
 40
0.833333333333333
 40
0.833333333333333
 40
0.833333333333333
 40
0.8749999999999997
 40
0.8749999999999997
 40
0.8749999999999997
 40
0.8749999999999997
 40
0.9166666666666663
 40
0.9166666666666663
 40
0.9166666666666663
 40
0.9166666666666663
 40
0.9583333333333329
 40
0.9583333333333329
 40
0.9583333333333329
 40
0.9583333333333329
 40
1.0
 40
1.0
 40
1.0
 40
1.0
 10
-7.0
 20
150.9999
 30
0.0
 10
-7.0
 20
150.9999
 30
0.0
 10
0.9
 20
154.29990000000001
 30
0.0
 10
0.9
 20
154.29990000000001
 30
0.0
 10
0.9
 20
154.29990000000001
 30
0.0
 10
0.9
 20
154.29990000000001
 30
0.0
 10
19.82
 20
164.23990000000001
 30
0.0
 10
19.82
 20
164.23990000000001
 30
0.0
 10
19.82
 20
164.23990000000001
 30
0.0
 10
19.82
 20
164.23990000000001
 30
0.0
 10
31.0
 20
171.9999
 30
0.0
 10
31.0
 20
171.9999
 30
0.0
 10
31.0
 20
171.9999
 30
0.0
 10
31.0
 20
171.9999
 30
0.0
 10
37.0
 20
179.9999
 30
0.0
 10
37.0
 20
179.9999
 30
0.0
 10
37.0
 20
179.9999
 30
0.0
 10
37.0
 20
179.9999
 30
0.0
 10
36.0
 20
187.9999
 30
0.0
 10
36.0
 20
187.9999
 30
0.0
 10
36.0
 20
187.9999
 30
0.0
 10
36.0
 20
187.9999
 30
0.0
 10
32.0
 20
190.9999
 30
0.0
 10
32.0
 20
190.9999
 30
0.0
 10
32.0
 20
190.9999
 30
0.0
 10
32.0
 20
190.9999
 30
0.0
 10
28.0
 20
190.9999
 30
0.0
 10
28.0
 20
190.9999
 30
0.0
 10
28.0
 20
190.9999
 30
0.0
 10
28.0
 20
190.9999
 30
0.0
 10
24.088200000000001
 20
189.64699999999999
 30
0.0
 10
24.088200000000001
 20
189.64699999999999
 30
0.0
 10
24.088200000000001
 20
189.64699999999999
 30
0.0
 10
24.088200000000001
 20
189.64699999999999
 30
0.0
 10
9.1538000000000004
 20
180.76920000000001
 30
0.0
 10
9.1538000000000004
 20
180.76920000000001
 30
0.0
 10
9.1538000000000004
 20
180.76920000000001
 30
0.0
 10
9.1538000000000004
 20
180.76920000000001
 30
0.0
 10
6.8460999999999999
 20
179.23070000000001
 30
0.0
 10
6.8460999999999999
 20
179.23070000000001
 30
0.0
 10
6.8460999999999999
 20
179.23070000000001
 30
0.0
 10
6.8460999999999999
 20
179.23070000000001
 30
0.0
 10
-3.0
 20
174.9999
 30
0.0
 10
-3.0
 20
174.9999
 30
0.0
 10
-3.0
 20
174.9999
 30
0.0
 10
-3.0
 20
174.9999
 30
0.0
 10
-13.1
 20
177.79990000000001
 30
0.0
 10
-13.1
 20
177.79990000000001
 30
0.0
 10
-13.1
 20
177.79990000000001
 30
0.0
 10
-13.1
 20
177.79990000000001
 30
0.0
 10
-24.1538
 20
183.76920000000001
 30
0.0
 10
-24.1538
 20
183.76920000000001
 30
0.0
 10
-24.1538
 20
183.76920000000001
 30
0.0
 10
-24.1538
 20
183.76920000000001
 30
0.0
 10
-38.0
 20
189.9999
 30
0.0
 10
-38.0
 20
189.9999
 30
0.0
 10
-38.0
 20
189.9999
 30
0.0
 10
-38.0
 20
189.9999
 30
0.0
 10
-41.0
 20
189.9999
 30
0.0
 10
-41.0
 20
189.9999
 30
0.0
 10
-41.0
 20
189.9999
 30
0.0
 10
-41.0
 20
189.9999
 30
0.0
 10
-42.899999999999999
 20
188.79990000000001
 30
0.0
 10
-42.899999999999999
 20
188.79990000000001
 30
0.0
 10
-42.899999999999999
 20
188.79990000000001
 30
0.0
 10
-42.899999999999999
 20
188.79990000000001
 30
0.0
 10
-47.0
 20
185.9999
 30
0.0
 10
-47.0
 20
185.9999
 30
0.0
 10
-47.0
 20
185.9999
 30
0.0
 10
-47.0
 20
185.9999
 30
0.0
 10
-49.0
 20
181.9999
 30
0.0
 10
-49.0
 20
181.9999
 30
0.0
 10
-49.0
 20
181.9999
 30
0.0
 10
-49.0
 20
181.9999
 30
0.0
 10
-49.0
 20
178.9999
 30
0.0
 10
-49.0
 20
178.9999
 30
0.0
 10
-49.0
 20
178.9999
 30
0.0
 10
-49.0
 20
178.9999
 30
0.0
 10
-48.0
 20
176.9999
 30
0.0
 10
-48.0
 20
176.9999
 30
0.0
 10
-48.0
 20
176.9999
 30
0.0
 10
-48.0
 20
176.9999
 30
0.0
 10
-40.195099999999996
 20
170.756
 30
0.0
 10
-40.195099999999996
 20
170.756
 30
0.0
 10
-40.195099999999996
 20
170.756
 30
0.0
 10
-40.195099999999996
 20
170.756
 30
0.0
 10
-35.8048
 20
167.2439
 30
0.0
 10
-35.8048
 20
167.2439
 30
0.0
 10
-35.8048
 20
167.2439
 30
0.0
 10
-35.8048
 20
167.2439
 30
0.0
 10
-13.9
 20
154.19990000000001
 30
0.0
 10
-13.9
 20
154.19990000000001
 30
0.0
 10
-13.9
 20
154.19990000000001
 30
0.0
 10
-13.9
 20
154.19990000000001
 30
0.0
 10
-7.0
 20
150.9999
 30
0.0
 10
-7.0
 20
150.9999
 30
0.0
  0
SPLINE
  5
2A
100
AcDbEntity
  8
0
 62
     7
100
AcDbSpline
210
0.0
220
0.0
230
1.0
 70
     1
 71
     3
 72
    88
 73
    84
 74
     0
 42
0.0000000001
 43
0.0000000001
 40
0.0
 40
0.0
 40
0.0
 40
0.0
 40
0.0476190476190476
 40
0.0476190476190476
 40
0.0476190476190476
 40
0.0476190476190476
 40
0.0952380952380952
 40
0.0952380952380952
 40
0.0952380952380952
 40
0.0952380952380952
 40
0.1428571428571429
 40
0.1428571428571429
 40
0.1428571428571429
 40
0.1428571428571429
 40
0.1904761904761905
 40
0.1904761904761905
 40
0.1904761904761905
 40
0.1904761904761905
 40
0.2380952380952381
 40
0.2380952380952381
 40
0.2380952380952381
 40
0.2380952380952381
 40
0.2857142857142857
 40
0.2857142857142857
 40
0.2857142857142857
 40
0.2857142857142857
 40
0.3333333333333333
 40
0.3333333333333333
 40
0.3333333333333333
 40
0.3333333333333333
 40
0.3809523809523809
 40
0.3809523809523809
 40
0.3809523809523809
 40
0.3809523809523809
 40
0.4285714285714286
 40
0.4285714285714286
 40
0.4285714285714286
 40
0.4285714285714286
 40
0.4761904761904762
 40
0.4761904761904762
 40
0.4761904761904762
 40
0.4761904761904762
 40
0.5238095238095237
 40
0.5238095238095237
 40
0.5238095238095237
 40
0.5238095238095237
 40
0.5714285714285714
 40
0.5714285714285714
 40
0.5714285714285714
 40
0.5714285714285714
 40
0.6190476190476191
 40
0.6190476190476191
 40
0.6190476190476191
 40
0.6190476190476191
 40
0.6666666666666667
 40
0.6666666666666667
 40
0.6666666666666667
 40
0.6666666666666667
 40
0.7142857142857144
 40
0.7142857142857144
 40
0.7142857142857144
 40
0.7142857142857144
 40
0.7619047619047621
 40
0.7619047619047621
 40
0.7619047619047621
 40
0.7619047619047621
 40
0.8095238095238098
 40
0.8095238095238098
 40
0.8095238095238098
 40
0.8095238095238098
 40
0.8571428571428574
 40
0.8571428571428574
 40
0.8571428571428574
 40
0.8571428571428574
 40
0.9047619047619051
 40
0.9047619047619051
 40
0.9047619047619051
 40
0.9047619047619051
 40
0.9523809523809528
 40
0.9523809523809528
 40
0.9523809523809528
 40
0.9523809523809528
 40
1.0
 40
1.0
 40
1.0
 40
1.0
 10
-230.0
 20
119.9999
 30
0.0
 10
-230.0
 20
119.9999
 30
0.0
 10
-228.923
 20
120.6153
 30
0.0
 10
-228.923
 20
120.6153
 30
0.0
 10
-228.923
 20
120.6153
 30
0.0
 10
-228.923
 20
120.6153
 30
0.0
 10
-223.18000000000001
 20
122.23990000000001
 30
0.0
 10
-223.18000000000001
 20
122.23990000000001
 30
0.0
 10
-223.18000000000001
 20
122.23990000000001
 30
0.0
 10
-223.18000000000001
 20
122.23990000000001
 30
0.0
 10
-219.0
 20
124.9999
 30
0.0
 10
-219.0
 20
124.9999
 30
0.0
 10
-219.0
 20
124.9999
 30
0.0
 10
-219.0
 20
124.9999
 30
0.0
 10
-215.80000000000001
 20
128.8999
 30
0.0
 10
-215.80000000000001
 20
128.8999
 30
0.0
 10
-215.80000000000001
 20
128.8999
 30
0.0
 10
-215.80000000000001
 20
128.8999
 30
0.0
 10
-213.0
 20
134.9999
 30
0.0
 10
-213.0
 20
134.9999
 30
0.0
 10
-213.0
 20
134.9999
 30
0.0
 10
-213.0
 20
134.9999
 30
0.0
 10
-213.0
 20
139.9999
 30
0.0
 10
-213.0
 20
139.9999
 30
0.0
 10
-213.0
 20
139.9999
 30
0.0
 10
-213.0
 20
139.9999
 30
0.0
 10
-215.80000000000001
 20
146.09989999999999
 30
0.0
 10
-215.80000000000001
 20
146.09989999999999
 30
0.0
 10
-215.80000000000001
 20
146.09989999999999
 30
0.0
 10
-215.80000000000001
 20
146.09989999999999
 30
0.0
 10
-217.0
 20
148.9999
 30
0.0
 10
-217.0
 20
148.9999
 30
0.0
 10
-217.0
 20
148.9999
 30
0.0
 10
-217.0
 20
148.9999
 30
0.0
 10
-220.0
 20
151.9999
 30
0.0
 10
-220.0
 20
151.9999
 30
0.0
 10
-220.0
 20
151.9999
 30
0.0
 10
-220.0
 20
151.9999
 30
0.0
 10
-224.09999999999999
 20
153.69990000000001
 30
0.0
 10
-224.09999999999999
 20
153.69990000000001
 30
0.0
 10
-224.09999999999999
 20
153.69990000000001
 30
0.0
 10
-224.09999999999999
 20
153.69990000000001
 30
0.0
 10
-225.90000000000001
 20
154.29990000000001
 30
0.0
 10
-225.90000000000001
 20
154.29990000000001
 30
0.0
 10
-225.90000000000001
 20
154.29990000000001
 30
0.0
 10
-225.90000000000001
 20
154.29990000000001
 30
0.0
 10
-227.0
 20
154.9999
 30
0.0
 10
-227.0
 20
154.9999
 30
0.0
 10
-227.0
 20
154.9999
 30
0.0
 10
-227.0
 20
154.9999
 30
0.0
 10
-234.0
 20
154.9999
 30
0.0
 10
-234.0
 20
154.9999
 30
0.0
 10
-234.0
 20
154.9999
 30
0.0
 10
-234.0
 20
154.9999
 30
0.0
 10
-238.90000000000001
 20
152.79990000000001
 30
0.0
 10
-238.90000000000001
 20
152.79990000000001
 30
0.0
 10
-238.90000000000001
 20
152.79990000000001
 30
0.0
 10
-238.90000000000001
 20
152.79990000000001
 30
0.0
 10
-240.09999999999999
 20
152.19990000000001
 30
0.0
 10
-240.09999999999999
 20
152.19990000000001
 30
0.0
 10
-240.09999999999999
 20
152.19990000000001
 30
0.0
 10
-240.09999999999999
 20
152.19990000000001
 30
0.0
 10
-245.0
 20
147.9999
 30
0.0
 10
-245.0
 20
147.9999
 30
0.0
 10
-245.0
 20
147.9999
 30
0.0
 10
-245.0
 20
147.9999
 30
0.0
 10
-248.0
 20
140.9999
 30
0.0
 10
-248.0
 20
140.9999
 30
0.0
 10
-248.0
 20
140.9999
 30
0.0
 10
-248.0
 20
140.9999
 30
0.0
 10
-248.0
 20
133.9999
 30
0.0
 10
-248.0
 20
133.9999
 30
0.0
 10
-248.0
 20
133.9999
 30
0.0
 10
-248.0
 20
133.9999
 30
0.0
 10
-245.0
 20
127.9999
 30
0.0
 10
-245.0
 20
127.9999
 30
0.0
 10
-245.0
 20
127.9999
 30
0.0
 10
-245.0
 20
127.9999
 30
0.0
 10
-239.09999999999999
 20
122.79989999999999
 30
0.0
 10
-239.09999999999999
 20
122.79989999999999
 30
0.0
 10
-239.09999999999999
 20
122.79989999999999
 30
0.0
 10
-239.09999999999999
 20
122.79989999999999
 30
0.0
 10
-230.0
 20
119.9999
 30
0.0
 10
-230.0
 20
119.9999
 30
0.0
  0
SPLINE
  5
2B
100
AcDbEntity
  8
0
 62
     7
100
AcDbSpline
210
0.0
220
0.0
230
1.0
 70
     1
 71
     3
 72
    76
 73
    72
 74
     0
 42
0.0000000001
 43
0.0000000001
 40
0.0
 40
0.0
 40
0.0
 40
0.0
 40
0.0555555555555556
 40
0.0555555555555556
 40
0.0555555555555556
 40
0.0555555555555556
 40
0.1111111111111111
 40
0.1111111111111111
 40
0.1111111111111111
 40
0.1111111111111111
 40
0.1666666666666667
 40
0.1666666666666667
 40
0.1666666666666667
 40
0.1666666666666667
 40
0.2222222222222222
 40
0.2222222222222222
 40
0.2222222222222222
 40
0.2222222222222222
 40
0.2777777777777778
 40
0.2777777777777778
 40
0.2777777777777778
 40
0.2777777777777778
 40
0.3333333333333334
 40
0.3333333333333334
 40
0.3333333333333334
 40
0.3333333333333334
 40
0.388888888888889
 40
0.388888888888889
 40
0.388888888888889
 40
0.388888888888889
 40
0.4444444444444445
 40
0.4444444444444445
 40
0.4444444444444445
 40
0.4444444444444445
 40
0.5000000000000001
 40
0.5000000000000001
 40
0.5000000000000001
 40
0.5000000000000001
 40
0.5555555555555557
 40
0.5555555555555557
 40
0.5555555555555557
 40
0.5555555555555557
 40
0.6111111111111113
 40
0.6111111111111113
 40
0.6111111111111113
 40
0.6111111111111113
 40
0.6666666666666669
 40
0.6666666666666669
 40
0.6666666666666669
 40
0.6666666666666669
 40
0.7222222222222224
 40
0.7222222222222224
 40
0.7222222222222224
 40
0.7222222222222224
 40
0.777777777777778
 40
0.777777777777778
 40
0.777777777777778
 40
0.777777777777778
 40
0.8333333333333336
 40
0.8333333333333336
 40
0.8333333333333336
 40
0.8333333333333336
 40
0.8888888888888892
 40
0.8888888888888892
 40
0.8888888888888892
 40
0.8888888888888892
 40
0.9444444444444448
 40
0.9444444444444448
 40
0.9444444444444448
 40
0.9444444444444448
 40
1.0
 40
1.0
 40
1.0
 40
1.0
 10
217.0
 20
113.9999
 30
0.0
 10
217.0
 20
113.9999
 30
0.0
 10
222.09999999999999
 20
115.6999
 30
0.0
 10
222.09999999999999
 20
115.6999
 30
0.0
 10
222.09999999999999
 20
115.6999
 30
0.0
 10
222.09999999999999
 20
115.6999
 30
0.0
 10
226.0
 20
116.9999
 30
0.0
 10
226.0
 20
116.9999
 30
0.0
 10
226.0
 20
116.9999
 30
0.0
 10
226.0
 20
116.9999
 30
0.0
 10
230.0
 20
120.9999
 30
0.0
 10
230.0
 20
120.9999
 30
0.0
 10
230.0
 20
120.9999
 30
0.0
 10
230.0
 20
120.9999
 30
0.0
 10
230.80000000000001
 20
123.09990000000001
 30
0.0
 10
230.80000000000001
 20
123.09990000000001
 30
0.0
 10
230.80000000000001
 20
123.09990000000001
 30
0.0
 10
230.80000000000001
 20
123.09990000000001
 30
0.0
 10
234.0
 20
131.9999
 30
0.0
 10
234.0
 20
131.9999
 30
0.0
 10
234.0
 20
131.9999
 30
0.0
 10
234.0
 20
131.9999
 30
0.0
 10
232.61529999999999
 20
136.923
 30
0.0
 10
232.61529999999999
 20
136.923
 30
0.0
 10
232.61529999999999
 20
136.923
 30
0.0
 10
232.61529999999999
 20
136.923
 30
0.0
 10
229.0
 20
143.9999
 30
0.0
 10
229.0
 20
143.9999
 30
0.0
 10
229.0
 20
143.9999
 30
0.0
 10
229.0
 20
143.9999
 30
0.0
 10
227.15379999999999
 20
145.23070000000001
 30
0.0
 10
227.15379999999999
 20
145.23070000000001
 30
0.0
 10
227.15379999999999
 20
145.23070000000001
 30
0.0
 10
227.15379999999999
 20
145.23070000000001
 30
0.0
 10
220.0
 20
148.9999
 30
0.0
 10
220.0
 20
148.9999
 30
0.0
 10
220.0
 20
148.9999
 30
0.0
 10
220.0
 20
148.9999
 30
0.0
 10
213.0
 20
148.9999
 30
0.0
 10
213.0
 20
148.9999
 30
0.0
 10
213.0
 20
148.9999
 30
0.0
 10
213.0
 20
148.9999
 30
0.0
 10
206.0
 20
145.9999
 30
0.0
 10
206.0
 20
145.9999
 30
0.0
 10
206.0
 20
145.9999
 30
0.0
 10
206.0
 20
145.9999
 30
0.0
 10
201.76920000000001
 20
141.15379999999999
 30
0.0
 10
201.76920000000001
 20
141.15379999999999
 30
0.0
 10
201.76920000000001
 20
141.15379999999999
 30
0.0
 10
201.76920000000001
 20
141.15379999999999
 30
0.0
 10
199.0
 20
134.9999
 30
0.0
 10
199.0
 20
134.9999
 30
0.0
 10
199.0
 20
134.9999
 30
0.0
 10
199.0
 20
134.9999
 30
0.0
 10
199.0
 20
127.9999
 30
0.0
 10
199.0
 20
127.9999
 30
0.0
 10
199.0
 20
127.9999
 30
0.0
 10
199.0
 20
127.9999
 30
0.0
 10
203.0
 20
119.9999
 30
0.0
 10
203.0
 20
119.9999
 30
0.0
 10
203.0
 20
119.9999
 30
0.0
 10
203.0
 20
119.9999
 30
0.0
 10
204.84610000000001
 20
118.7692
 30
0.0
 10
204.84610000000001
 20
118.7692
 30
0.0
 10
204.84610000000001
 20
118.7692
 30
0.0
 10
204.84610000000001
 20
118.7692
 30
0.0
 10
211.07689999999999
 20
115.38460000000001
 30
0.0
 10
211.07689999999999
 20
115.38460000000001
 30
0.0
 10
211.07689999999999
 20
115.38460000000001
 30
0.0
 10
211.07689999999999
 20
115.38460000000001
 30
0.0
 10
217.0
 20
113.9999
 30
0.0
 10
217.0
 20
113.9999
 30
0.0
  0
SPLINE
  5
2C
100
AcDbEntity
  8
0
 62
     7
100
AcDbSpline
210
0.0
220
0.0
230
1.0
 70
     1
 71
     3
 72
   104
 73
   100
 74
     0
 42
0.0000000001
 43
0.0000000001
 40
0.0
 40
0.0
 40
0.0
 40
0.0
 40
0.04
 40
0.04
 40
0.04
 40
0.04
 40
0.08
 40
0.08
 40
0.08
 40
0.08
 40
0.12
 40
0.12
 40
0.12
 40
0.12
 40
0.16
 40
0.16
 40
0.16
 40
0.16
 40
0.2
 40
0.2
 40
0.2
 40
0.2
 40
0.24
 40
0.24
 40
0.24
 40
0.24
 40
0.28
 40
0.28
 40
0.28
 40
0.28
 40
0.32
 40
0.32
 40
0.32
 40
0.32
 40
0.36
 40
0.36
 40
0.36
 40
0.36
 40
0.4
 40
0.4
 40
0.4
 40
0.4
 40
0.44
 40
0.44
 40
0.44
 40
0.44
 40
0.4799999999999999
 40
0.4799999999999999
 40
0.4799999999999999
 40
0.4799999999999999
 40
0.5199999999999999
 40
0.5199999999999999
 40
0.5199999999999999
 40
0.5199999999999999
 40
0.5599999999999999
 40
0.5599999999999999
 40
0.5599999999999999
 40
0.5599999999999999
 40
0.6
 40
0.6
 40
0.6
 40
0.6
 40
0.64
 40
0.64
 40
0.64
 40
0.64
 40
0.6800000000000001
 40
0.6800000000000001
 40
0.6800000000000001
 40
0.6800000000000001
 40
0.7200000000000001
 40
0.7200000000000001
 40
0.7200000000000001
 40
0.7200000000000001
 40
0.7600000000000001
 40
0.7600000000000001
 40
0.7600000000000001
 40
0.7600000000000001
 40
0.8000000000000002
 40
0.8000000000000002
 40
0.8000000000000002
 40
0.8000000000000002
 40
0.8400000000000002
 40
0.8400000000000002
 40
0.8400000000000002
 40
0.8400000000000002
 40
0.8800000000000002
 40
0.8800000000000002
 40
0.8800000000000002
 40
0.8800000000000002
 40
0.9200000000000003
 40
0.9200000000000003
 40
0.9200000000000003
 40
0.9200000000000003
 40
0.9600000000000003
 40
0.9600000000000003
 40
0.9600000000000003
 40
0.9600000000000003
 40
1.0
 40
1.0
 40
1.0
 40
1.0
 10
-6.0
 20
112.9999
 30
0.0
 10
-6.0
 20
112.9999
 30
0.0
 10
1.9117
 20
115.35290000000001
 30
0.0
 10
1.9117
 20
115.35290000000001
 30
0.0
 10
1.9117
 20
115.35290000000001
 30
0.0
 10
1.9117
 20
115.35290000000001
 30
0.0
 10
40.0
 20
134.9999
 30
0.0
 10
40.0
 20
134.9999
 30
0.0
 10
40.0
 20
134.9999
 30
0.0
 10
40.0
 20
134.9999
 30
0.0
 10
54.0
 20
149.9999
 30
0.0
 10
54.0
 20
149.9999
 30
0.0
 10
54.0
 20
149.9999
 30
0.0
 10
54.0
 20
149.9999
 30
0.0
 10
54.0
 20
154.9999
 30
0.0
 10
54.0
 20
154.9999
 30
0.0
 10
54.0
 20
154.9999
 30
0.0
 10
54.0
 20
154.9999
 30
0.0
 10
50.0
 20
159.9999
 30
0.0
 10
50.0
 20
159.9999
 30
0.0
 10
50.0
 20
159.9999
 30
0.0
 10
50.0
 20
159.9999
 30
0.0
 10
46.923000000000002
 20
159.38460000000001
 30
0.0
 10
46.923000000000002
 20
159.38460000000001
 30
0.0
 10
46.923000000000002
 20
159.38460000000001
 30
0.0
 10
46.923000000000002
 20
159.38460000000001
 30
0.0
 10
40.100000000000001
 20
157.69990000000001
 30
0.0
 10
40.100000000000001
 20
157.69990000000001
 30
0.0
 10
40.100000000000001
 20
157.69990000000001
 30
0.0
 10
40.100000000000001
 20
157.69990000000001
 30
0.0
 10
12.1538
 20
142.76920000000001
 30
0.0
 10
12.1538
 20
142.76920000000001
 30
0.0
 10
12.1538
 20
142.76920000000001
 30
0.0
 10
12.1538
 20
142.76920000000001
 30
0.0
 10
9.8460999999999999
 20
141.23070000000001
 30
0.0
 10
9.8460999999999999
 20
141.23070000000001
 30
0.0
 10
9.8460999999999999
 20
141.23070000000001
 30
0.0
 10
9.8460999999999999
 20
141.23070000000001
 30
0.0
 10
2.9117000000000002
 20
138.35290000000001
 30
0.0
 10
2.9117000000000002
 20
138.35290000000001
 30
0.0
 10
2.9117000000000002
 20
138.35290000000001
 30
0.0
 10
2.9117000000000002
 20
138.35290000000001
 30
0.0
 10
-7.0
 20
135.9999
 30
0.0
 10
-7.0
 20
135.9999
 30
0.0
 10
-7.0
 20
135.9999
 30
0.0
 10
-7.0
 20
135.9999
 30
0.0
 10
-14.9117
 20
138.35290000000001
 30
0.0
 10
-14.9117
 20
138.35290000000001
 30
0.0
 10
-14.9117
 20
138.35290000000001
 30
0.0
 10
-14.9117
 20
138.35290000000001
 30
0.0
 10
-50.067500000000003
 20
156.59450000000001
 30
0.0
 10
-50.067500000000003
 20
156.59450000000001
 30
0.0
 10
-50.067500000000003
 20
156.59450000000001
 30
0.0
 10
-50.067500000000003
 20
156.59450000000001
 30
0.0
 10
-56.0
 20
157.9999
 30
0.0
 10
-56.0
 20
157.9999
 30
0.0
 10
-56.0
 20
157.9999
 30
0.0
 10
-56.0
 20
157.9999
 30
0.0
 10
-62.0
 20
157.9999
 30
0.0
 10
-62.0
 20
157.9999
 30
0.0
 10
-62.0
 20
157.9999
 30
0.0
 10
-62.0
 20
157.9999
 30
0.0
 10
-66.0
 20
156.9999
 30
0.0
 10
-66.0
 20
156.9999
 30
0.0
 10
-66.0
 20
156.9999
 30
0.0
 10
-66.0
 20
156.9999
 30
0.0
 10
-68.0
 20
153.9999
 30
0.0
 10
-68.0
 20
153.9999
 30
0.0
 10
-68.0
 20
153.9999
 30
0.0
 10
-68.0
 20
153.9999
 30
0.0
 10
-68.0
 20
149.9999
 30
0.0
 10
-68.0
 20
149.9999
 30
0.0
 10
-68.0
 20
149.9999
 30
0.0
 10
-68.0
 20
149.9999
 30
0.0
 10
-58.0
 20
139.9999
 30
0.0
 10
-58.0
 20
139.9999
 30
0.0
 10
-58.0
 20
139.9999
 30
0.0
 10
-58.0
 20
139.9999
 30
0.0
 10
-45.8461
 20
132.23070000000001
 30
0.0
 10
-45.8461
 20
132.23070000000001
 30
0.0
 10
-45.8461
 20
132.23070000000001
 30
0.0
 10
-45.8461
 20
132.23070000000001
 30
0.0
 10
-42.8461
 20
130.23070000000001
 30
0.0
 10
-42.8461
 20
130.23070000000001
 30
0.0
 10
-42.8461
 20
130.23070000000001
 30
0.0
 10
-42.8461
 20
130.23070000000001
 30
0.0
 10
-21.899999999999999
 20
118.1999
 30
0.0
 10
-21.899999999999999
 20
118.1999
 30
0.0
 10
-21.899999999999999
 20
118.1999
 30
0.0
 10
-21.899999999999999
 20
118.1999
 30
0.0
 10
-21.100000000000001
 20
117.79989999999999
 30
0.0
 10
-21.100000000000001
 20
117.79989999999999
 30
0.0
 10
-21.100000000000001
 20
117.79989999999999
 30
0.0
 10
-21.100000000000001
 20
117.79989999999999
 30
0.0
 10
-7.9000000000000004
 20
113.29989999999999
 30
0.0
 10
-7.9000000000000004
 20
113.29989999999999
 30
0.0
 10
-7.9000000000000004
 20
113.29989999999999
 30
0.0
 10
-7.9000000000000004
 20
113.29989999999999
 30
0.0
 10
-6.0
 20
112.9999
 30
0.0
 10
-6.0
 20
112.9999
 30
0.0
  0
SPLINE
  5
2D
100
AcDbEntity
  8
0
 62
     7
100
AcDbSpline
210
0.0
220
0.0
230
1.0
 70
     1
 71
     3
 72
    88
 73
    84
 74
     0
 42
0.0000000001
 43
0.0000000001
 40
0.0
 40
0.0
 40
0.0
 40
0.0
 40
0.0476190476190476
 40
0.0476190476190476
 40
0.0476190476190476
 40
0.0476190476190476
 40
0.0952380952380952
 40
0.0952380952380952
 40
0.0952380952380952
 40
0.0952380952380952
 40
0.1428571428571429
 40
0.1428571428571429
 40
0.1428571428571429
 40
0.1428571428571429
 40
0.1904761904761905
 40
0.1904761904761905
 40
0.1904761904761905
 40
0.1904761904761905
 40
0.2380952380952381
 40
0.2380952380952381
 40
0.2380952380952381
 40
0.2380952380952381
 40
0.2857142857142857
 40
0.2857142857142857
 40
0.2857142857142857
 40
0.2857142857142857
 40
0.3333333333333333
 40
0.3333333333333333
 40
0.3333333333333333
 40
0.3333333333333333
 40
0.3809523809523809
 40
0.3809523809523809
 40
0.3809523809523809
 40
0.3809523809523809
 40
0.4285714285714286
 40
0.4285714285714286
 40
0.4285714285714286
 40
0.4285714285714286
 40
0.4761904761904762
 40
0.4761904761904762
 40
0.4761904761904762
 40
0.4761904761904762
 40
0.5238095238095237
 40
0.5238095238095237
 40
0.5238095238095237
 40
0.5238095238095237
 40
0.5714285714285714
 40
0.5714285714285714
 40
0.5714285714285714
 40
0.5714285714285714
 40
0.6190476190476191
 40
0.6190476190476191
 40
0.6190476190476191
 40
0.6190476190476191
 40
0.6666666666666667
 40
0.6666666666666667
 40
0.6666666666666667
 40
0.6666666666666667
 40
0.7142857142857144
 40
0.7142857142857144
 40
0.7142857142857144
 40
0.7142857142857144
 40
0.7619047619047621
 40
0.7619047619047621
 40
0.7619047619047621
 40
0.7619047619047621
 40
0.8095238095238098
 40
0.8095238095238098
 40
0.8095238095238098
 40
0.8095238095238098
 40
0.8571428571428574
 40
0.8571428571428574
 40
0.8571428571428574
 40
0.8571428571428574
 40
0.9047619047619051
 40
0.9047619047619051
 40
0.9047619047619051
 40
0.9047619047619051
 40
0.9523809523809528
 40
0.9523809523809528
 40
0.9523809523809528
 40
0.9523809523809528
 40
1.0
 40
1.0
 40
1.0
 40
1.0
 10
-189.0
 20
85.999899999999997
 30
0.0
 10
-189.0
 20
85.999899999999997
 30
0.0
 10
-178.0
 20
93.999899999999997
 30
0.0
 10
-178.0
 20
93.999899999999997
 30
0.0
 10
-178.0
 20
93.999899999999997
 30
0.0
 10
-178.0
 20
93.999899999999997
 30
0.0
 10
-171.80000000000001
 20
100.8999
 30
0.0
 10
-171.80000000000001
 20
100.8999
 30
0.0
 10
-171.80000000000001
 20
100.8999
 30
0.0
 10
-171.80000000000001
 20
100.8999
 30
0.0
 10
-168.23070000000001
 20
107.1538
 30
0.0
 10
-168.23070000000001
 20
107.1538
 30
0.0
 10
-168.23070000000001
 20
107.1538
 30
0.0
 10
-168.23070000000001
 20
107.1538
 30
0.0
 10
-165.0
 20
114.9999
 30
0.0
 10
-165.0
 20
114.9999
 30
0.0
 10
-165.0
 20
114.9999
 30
0.0
 10
-165.0
 20
114.9999
 30
0.0
 10
-165.0
 20
124.9999
 30
0.0
 10
-165.0
 20
124.9999
 30
0.0
 10
-165.0
 20
124.9999
 30
0.0
 10
-165.0
 20
124.9999
 30
0.0
 10
-167.0
 20
128.9999
 30
0.0
 10
-167.0
 20
128.9999
 30
0.0
 10
-167.0
 20
128.9999
 30
0.0
 10
-167.0
 20
128.9999
 30
0.0
 10
-170.0
 20
131.9999
 30
0.0
 10
-170.0
 20
131.9999
 30
0.0
 10
-170.0
 20
131.9999
 30
0.0
 10
-170.0
 20
131.9999
 30
0.0
 10
-172.09999999999999
 20
132.69990000000001
 30
0.0
 10
-172.09999999999999
 20
132.69990000000001
 30
0.0
 10
-172.09999999999999
 20
132.69990000000001
 30
0.0
 10
-172.09999999999999
 20
132.69990000000001
 30
0.0
 10
-175.0
 20
133.9999
 30
0.0
 10
-175.0
 20
133.9999
 30
0.0
 10
-175.0
 20
133.9999
 30
0.0
 10
-175.0
 20
133.9999
 30
0.0
 10
-179.09999999999999
 20
133.29990000000001
 30
0.0
 10
-179.09999999999999
 20
133.29990000000001
 30
0.0
 10
-179.09999999999999
 20
133.29990000000001
 30
0.0
 10
-179.09999999999999
 20
133.29990000000001
 30
0.0
 10
-181.0
 20
132.9999
 30
0.0
 10
-181.0
 20
132.9999
 30
0.0
 10
-181.0
 20
132.9999
 30
0.0
 10
-181.0
 20
132.9999
 30
0.0
 10
-183.64699999999999
 20
127.9117
 30
0.0
 10
-183.64699999999999
 20
127.9117
 30
0.0
 10
-183.64699999999999
 20
127.9117
 30
0.0
 10
-183.64699999999999
 20
127.9117
 30
0.0
 10
-186.69999999999999
 20
116.8999
 30
0.0
 10
-186.69999999999999
 20
116.8999
 30
0.0
 10
-186.69999999999999
 20
116.8999
 30
0.0
 10
-186.69999999999999
 20
116.8999
 30
0.0
 10
-188.0
 20
112.9999
 30
0.0
 10
-188.0
 20
112.9999
 30
0.0
 10
-188.0
 20
112.9999
 30
0.0
 10
-188.0
 20
112.9999
 30
0.0
 10
-191.0
 20
109.9999
 30
0.0
 10
-191.0
 20
109.9999
 30
0.0
 10
-191.0
 20
109.9999
 30
0.0
 10
-191.0
 20
109.9999
 30
0.0
 10
-199.09999999999999
 20
105.1999
 30
0.0
 10
-199.09999999999999
 20
105.1999
 30
0.0
 10
-199.09999999999999
 20
105.1999
 30
0.0
 10
-199.09999999999999
 20
105.1999
 30
0.0
 10
-203.0
 20
101.9999
 30
0.0
 10
-203.0
 20
101.9999
 30
0.0
 10
-203.0
 20
101.9999
 30
0.0
 10
-203.0
 20
101.9999
 30
0.0
 10
-203.0
 20
97.999899999999997
 30
0.0
 10
-203.0
 20
97.999899999999997
 30
0.0
 10
-203.0
 20
97.999899999999997
 30
0.0
 10
-203.0
 20
97.999899999999997
 30
0.0
 10
-200.76920000000001
 20
94.153800000000004
 30
0.0
 10
-200.76920000000001
 20
94.153800000000004
 30
0.0
 10
-200.76920000000001
 20
94.153800000000004
 30
0.0
 10
-200.76920000000001
 20
94.153800000000004
 30
0.0
 10
-197.0
 20
87.999899999999997
 30
0.0
 10
-197.0
 20
87.999899999999997
 30
0.0
 10
-197.0
 20
87.999899999999997
 30
0.0
 10
-197.0
 20
87.999899999999997
 30
0.0
 10
-189.0
 20
85.999899999999997
 30
0.0
 10
-189.0
 20
85.999899999999997
 30
0.0
  0
SPLINE
  5
2E
100
AcDbEntity
  8
0
 62
     7
100
AcDbSpline
210
0.0
220
0.0
230
1.0
 70
     1
 71
     3
 72
    84
 73
    80
 74
     0
 42
0.0000000001
 43
0.0000000001
 40
0.0
 40
0.0
 40
0.0
 40
0.0
 40
0.05
 40
0.05
 40
0.05
 40
0.05
 40
0.1
 40
0.1
 40
0.1
 40
0.1
 40
0.15
 40
0.15
 40
0.15
 40
0.15
 40
0.2
 40
0.2
 40
0.2
 40
0.2
 40
0.25
 40
0.25
 40
0.25
 40
0.25
 40
0.3
 40
0.3
 40
0.3
 40
0.3
 40
0.35
 40
0.35
 40
0.35
 40
0.35
 40
0.4
 40
0.4
 40
0.4
 40
0.4
 40
0.45
 40
0.45
 40
0.45
 40
0.45
 40
0.4999999999999999
 40
0.4999999999999999
 40
0.4999999999999999
 40
0.4999999999999999
 40
0.5499999999999999
 40
0.5499999999999999
 40
0.5499999999999999
 40
0.5499999999999999
 40
0.6
 40
0.6
 40
0.6
 40
0.6
 40
0.65
 40
0.65
 40
0.65
 40
0.65
 40
0.7000000000000001
 40
0.7000000000000001
 40
0.7000000000000001
 40
0.7000000000000001
 40
0.7500000000000001
 40
0.7500000000000001
 40
0.7500000000000001
 40
0.7500000000000001
 40
0.8000000000000002
 40
0.8000000000000002
 40
0.8000000000000002
 40
0.8000000000000002
 40
0.8500000000000002
 40
0.8500000000000002
 40
0.8500000000000002
 40
0.8500000000000002
 40
0.9000000000000002
 40
0.9000000000000002
 40
0.9000000000000002
 40
0.9000000000000002
 40
0.9500000000000003
 40
0.9500000000000003
 40
0.9500000000000003
 40
0.9500000000000003
 40
1.0
 40
1.0
 40
1.0
 40
1.0
 10
180.0
 20
80.999899999999997
 30
0.0
 10
180.0
 20
80.999899999999997
 30
0.0
 10
184.0
 20
82.999899999999997
 30
0.0
 10
184.0
 20
82.999899999999997
 30
0.0
 10
184.0
 20
82.999899999999997
 30
0.0
 10
184.0
 20
82.999899999999997
 30
0.0
 10
187.0
 20
88.999899999999997
 30
0.0
 10
187.0
 20
88.999899999999997
 30
0.0
 10
187.0
 20
88.999899999999997
 30
0.0
 10
187.0
 20
88.999899999999997
 30
0.0
 10
187.0
 20
92.999899999999997
 30
0.0
 10
187.0
 20
92.999899999999997
 30
0.0
 10
187.0
 20
92.999899999999997
 30
0.0
 10
187.0
 20
92.999899999999997
 30
0.0
 10
185.0462
 20
97.3005
 30
0.0
 10
185.0462
 20
97.3005
 30
0.0
 10
185.0462
 20
97.3005
 30
0.0
 10
185.0462
 20
97.3005
 30
0.0
 10
175.249
 20
109.2283
 30
0.0
 10
175.249
 20
109.2283
 30
0.0
 10
175.249
 20
109.2283
 30
0.0
 10
175.249
 20
109.2283
 30
0.0
 10
172.35290000000001
 20
117.0882
 30
0.0
 10
172.35290000000001
 20
117.0882
 30
0.0
 10
172.35290000000001
 20
117.0882
 30
0.0
 10
172.35290000000001
 20
117.0882
 30
0.0
 10
170.0
 20
124.9999
 30
0.0
 10
170.0
 20
124.9999
 30
0.0
 10
170.0
 20
124.9999
 30
0.0
 10
170.0
 20
124.9999
 30
0.0
 10
167.09999999999999
 20
127.1999
 30
0.0
 10
167.09999999999999
 20
127.1999
 30
0.0
 10
167.09999999999999
 20
127.1999
 30
0.0
 10
167.09999999999999
 20
127.1999
 30
0.0
 10
166.0
 20
127.9999
 30
0.0
 10
166.0
 20
127.9999
 30
0.0
 10
166.0
 20
127.9999
 30
0.0
 10
166.0
 20
127.9999
 30
0.0
 10
159.0
 20
127.9999
 30
0.0
 10
159.0
 20
127.9999
 30
0.0
 10
159.0
 20
127.9999
 30
0.0
 10
159.0
 20
127.9999
 30
0.0
 10
156.0
 20
126.9999
 30
0.0
 10
156.0
 20
126.9999
 30
0.0
 10
156.0
 20
126.9999
 30
0.0
 10
156.0
 20
126.9999
 30
0.0
 10
153.0
 20
123.9999
 30
0.0
 10
153.0
 20
123.9999
 30
0.0
 10
153.0
 20
123.9999
 30
0.0
 10
153.0
 20
123.9999
 30
0.0
 10
150.0
 20
115.9999
 30
0.0
 10
150.0
 20
115.9999
 30
0.0
 10
150.0
 20
115.9999
 30
0.0
 10
150.0
 20
115.9999
 30
0.0
 10
150.0
 20
111.9999
 30
0.0
 10
150.0
 20
111.9999
 30
0.0
 10
150.0
 20
111.9999
 30
0.0
 10
150.0
 20
111.9999
 30
0.0
 10
150.69999999999999
 20
110.8999
 30
0.0
 10
150.69999999999999
 20
110.8999
 30
0.0
 10
150.69999999999999
 20
110.8999
 30
0.0
 10
150.69999999999999
 20
110.8999
 30
0.0
 10
155.23070000000001
 20
98.153800000000004
 30
0.0
 10
155.23070000000001
 20
98.153800000000004
 30
0.0
 10
155.23070000000001
 20
98.153800000000004
 30
0.0
 10
155.23070000000001
 20
98.153800000000004
 30
0.0
 10
156.76920000000001
 20
95.846100000000007
 30
0.0
 10
156.76920000000001
 20
95.846100000000007
 30
0.0
 10
156.76920000000001
 20
95.846100000000007
 30
0.0
 10
156.76920000000001
 20
95.846100000000007
 30
0.0
 10
163.0
 20
88.999899999999997
 30
0.0
 10
163.0
 20
88.999899999999997
 30
0.0
 10
163.0
 20
88.999899999999997
 30
0.0
 10
163.0
 20
88.999899999999997
 30
0.0
 10
167.09999999999999
 20
87.1999
 30
0.0
 10
167.09999999999999
 20
87.1999
 30
0.0
 10
167.09999999999999
 20
87.1999
 30
0.0
 10
167.09999999999999
 20
87.1999
 30
0.0
 10
180.0
 20
80.999899999999997
 30
0.0
 10
180.0
 20
80.999899999999997
 30
0.0
  0
SPLINE
  5
2F
100
AcDbEntity
  8
0
 62
     7
100
AcDbSpline
210
0.0
220
0.0
230
1.0
 70
     1
 71
     3
 72
   100
 73
    96
 74
     0
 42
0.0000000001
 43
0.0000000001
 40
0.0
 40
0.0
 40
0.0
 40
0.0
 40
0.0416666666666667
 40
0.0416666666666667
 40
0.0416666666666667
 40
0.0416666666666667
 40
0.0833333333333333
 40
0.0833333333333333
 40
0.0833333333333333
 40
0.0833333333333333
 40
0.125
 40
0.125
 40
0.125
 40
0.125
 40
0.1666666666666667
 40
0.1666666666666667
 40
0.1666666666666667
 40
0.1666666666666667
 40
0.2083333333333333
 40
0.2083333333333333
 40
0.2083333333333333
 40
0.2083333333333333
 40
0.25
 40
0.25
 40
0.25
 40
0.25
 40
0.2916666666666666
 40
0.2916666666666666
 40
0.2916666666666666
 40
0.2916666666666666
 40
0.3333333333333333
 40
0.3333333333333333
 40
0.3333333333333333
 40
0.3333333333333333
 40
0.375
 40
0.375
 40
0.375
 40
0.375
 40
0.4166666666666667
 40
0.4166666666666667
 40
0.4166666666666667
 40
0.4166666666666667
 40
0.4583333333333334
 40
0.4583333333333334
 40
0.4583333333333334
 40
0.4583333333333334
 40
0.5
 40
0.5
 40
0.5
 40
0.5
 40
0.5416666666666666
 40
0.5416666666666666
 40
0.5416666666666666
 40
0.5416666666666666
 40
0.5833333333333333
 40
0.5833333333333333
 40
0.5833333333333333
 40
0.5833333333333333
 40
0.6249999999999999
 40
0.6249999999999999
 40
0.6249999999999999
 40
0.6249999999999999
 40
0.6666666666666665
 40
0.6666666666666665
 40
0.6666666666666665
 40
0.6666666666666665
 40
0.7083333333333332
 40
0.7083333333333332
 40
0.7083333333333332
 40
0.7083333333333332
 40
0.7499999999999998
 40
0.7499999999999998
 40
0.7499999999999998
 40
0.7499999999999998
 40
0.7916666666666664
 40
0.7916666666666664
 40
0.7916666666666664
 40
0.7916666666666664
 40
0.833333333333333
 40
0.833333333333333
 40
0.833333333333333
 40
0.833333333333333
 40
0.8749999999999997
 40
0.8749999999999997
 40
0.8749999999999997
 40
0.8749999999999997
 40
0.9166666666666663
 40
0.9166666666666663
 40
0.9166666666666663
 40
0.9166666666666663
 40
0.9583333333333329
 40
0.9583333333333329
 40
0.9583333333333329
 40
0.9583333333333329
 40
1.0
 40
1.0
 40
1.0
 40
1.0
 10
-177.0
 20
56.999899999999997
 30
0.0
 10
-177.0
 20
56.999899999999997
 30
0.0
 10
-164.90000000000001
 20
61.799900000000001
 30
0.0
 10
-164.90000000000001
 20
61.799900000000001
 30
0.0
 10
-164.90000000000001
 20
61.799900000000001
 30
0.0
 10
-164.90000000000001
 20
61.799900000000001
 30
0.0
 10
-141.0
 20
73.999899999999997
 30
0.0
 10
-141.0
 20
73.999899999999997
 30
0.0
 10
-141.0
 20
73.999899999999997
 30
0.0
 10
-141.0
 20
73.999899999999997
 30
0.0
 10
-137.0
 20
77.999899999999997
 30
0.0
 10
-137.0
 20
77.999899999999997
 30
0.0
 10
-137.0
 20
77.999899999999997
 30
0.0
 10
-137.0
 20
77.999899999999997
 30
0.0
 10
-131.0
 20
89.999899999999997
 30
0.0
 10
-131.0
 20
89.999899999999997
 30
0.0
 10
-131.0
 20
89.999899999999997
 30
0.0
 10
-131.0
 20
89.999899999999997
 30
0.0
 10
-131.0
 20
111.9999
 30
0.0
 10
-131.0
 20
111.9999
 30
0.0
 10
-131.0
 20
111.9999
 30
0.0
 10
-131.0
 20
111.9999
 30
0.0
 10
-132.43899999999999
 20
120.9512
 30
0.0
 10
-132.43899999999999
 20
120.9512
 30
0.0
 10
-132.43899999999999
 20
120.9512
 30
0.0
 10
-132.43899999999999
 20
120.9512
 30
0.0
 10
-132.64699999999999
 20
122.0882
 30
0.0
 10
-132.64699999999999
 20
122.0882
 30
0.0
 10
-132.64699999999999
 20
122.0882
 30
0.0
 10
-132.64699999999999
 20
122.0882
 30
0.0
 10
-135.0
 20
129.9999
 30
0.0
 10
-135.0
 20
129.9999
 30
0.0
 10
-135.0
 20
129.9999
 30
0.0
 10
-135.0
 20
129.9999
 30
0.0
 10
-136.0
 20
130.9999
 30
0.0
 10
-136.0
 20
130.9999
 30
0.0
 10
-136.0
 20
130.9999
 30
0.0
 10
-136.0
 20
130.9999
 30
0.0
 10
-142.0
 20
130.9999
 30
0.0
 10
-142.0
 20
130.9999
 30
0.0
 10
-142.0
 20
130.9999
 30
0.0
 10
-142.0
 20
130.9999
 30
0.0
 10
-148.0
 20
125.9999
 30
0.0
 10
-148.0
 20
125.9999
 30
0.0
 10
-148.0
 20
125.9999
 30
0.0
 10
-148.0
 20
125.9999
 30
0.0
 10
-149.30000000000001
 20
122.09990000000001
 30
0.0
 10
-149.30000000000001
 20
122.09990000000001
 30
0.0
 10
-149.30000000000001
 20
122.09990000000001
 30
0.0
 10
-149.30000000000001
 20
122.09990000000001
 30
0.0
 10
-150.54910000000001
 20
117.959
 30
0.0
 10
-150.54910000000001
 20
117.959
 30
0.0
 10
-150.54910000000001
 20
117.959
 30
0.0
 10
-150.54910000000001
 20
117.959
 30
0.0
 10
-152.44550000000001
 20
98.044499999999999
 30
0.0
 10
-152.44550000000001
 20
98.044499999999999
 30
0.0
 10
-152.44550000000001
 20
98.044499999999999
 30
0.0
 10
-152.44550000000001
 20
98.044499999999999
 30
0.0
 10
-153.24000000000001
 20
96.179900000000004
 30
0.0
 10
-153.24000000000001
 20
96.179900000000004
 30
0.0
 10
-153.24000000000001
 20
96.179900000000004
 30
0.0
 10
-153.24000000000001
 20
96.179900000000004
 30
0.0
 10
-156.0
 20
91.999899999999997
 30
0.0
 10
-156.0
 20
91.999899999999997
 30
0.0
 10
-156.0
 20
91.999899999999997
 30
0.0
 10
-156.0
 20
91.999899999999997
 30
0.0
 10
-165.8048
 20
83.756
 30
0.0
 10
-165.8048
 20
83.756
 30
0.0
 10
-165.8048
 20
83.756
 30
0.0
 10
-165.8048
 20
83.756
 30
0.0
 10
-170.8048
 20
79.756
 30
0.0
 10
-170.8048
 20
79.756
 30
0.0
 10
-170.8048
 20
79.756
 30
0.0
 10
-170.8048
 20
79.756
 30
0.0
 10
-179.0
 20
72.999899999999997
 30
0.0
 10
-179.0
 20
72.999899999999997
 30
0.0
 10
-179.0
 20
72.999899999999997
 30
0.0
 10
-179.0
 20
72.999899999999997
 30
0.0
 10
-181.19999999999999
 20
69.099900000000005
 30
0.0
 10
-181.19999999999999
 20
69.099900000000005
 30
0.0
 10
-181.19999999999999
 20
69.099900000000005
 30
0.0
 10
-181.19999999999999
 20
69.099900000000005
 30
0.0
 10
-183.0
 20
65.999899999999997
 30
0.0
 10
-183.0
 20
65.999899999999997
 30
0.0
 10
-183.0
 20
65.999899999999997
 30
0.0
 10
-183.0
 20
65.999899999999997
 30
0.0
 10
-183.0
 20
58.999899999999997
 30
0.0
 10
-183.0
 20
58.999899999999997
 30
0.0
 10
-183.0
 20
58.999899999999997
 30
0.0
 10
-183.0
 20
58.999899999999997
 30
0.0
 10
-181.0
 20
56.999899999999997
 30
0.0
 10
-181.0
 20
56.999899999999997
 30
0.0
 10
-181.0
 20
56.999899999999997
 30
0.0
 10
-181.0
 20
56.999899999999997
 30
0.0
 10
-177.0
 20
56.999899999999997
 30
0.0
 10
-177.0
 20
56.999899999999997
 30
0.0
  0
SPLINE
  5
30
100
AcDbEntity
  8
0
 62
     7
100
AcDbSpline
210
0.0
220
0.0
230
1.0
 70
     1
 71
     3
 72
    84
 73
    80
 74
     0
 42
0.0000000001
 43
0.0000000001
 40
0.0
 40
0.0
 40
0.0
 40
0.0
 40
0.05
 40
0.05
 40
0.05
 40
0.05
 40
0.1
 40
0.1
 40
0.1
 40
0.1
 40
0.15
 40
0.15
 40
0.15
 40
0.15
 40
0.2
 40
0.2
 40
0.2
 40
0.2
 40
0.25
 40
0.25
 40
0.25
 40
0.25
 40
0.3
 40
0.3
 40
0.3
 40
0.3
 40
0.35
 40
0.35
 40
0.35
 40
0.35
 40
0.4
 40
0.4
 40
0.4
 40
0.4
 40
0.45
 40
0.45
 40
0.45
 40
0.45
 40
0.4999999999999999
 40
0.4999999999999999
 40
0.4999999999999999
 40
0.4999999999999999
 40
0.5499999999999999
 40
0.5499999999999999
 40
0.5499999999999999
 40
0.5499999999999999
 40
0.6
 40
0.6
 40
0.6
 40
0.6
 40
0.65
 40
0.65
 40
0.65
 40
0.65
 40
0.7000000000000001
 40
0.7000000000000001
 40
0.7000000000000001
 40
0.7000000000000001
 40
0.7500000000000001
 40
0.7500000000000001
 40
0.7500000000000001
 40
0.7500000000000001
 40
0.8000000000000002
 40
0.8000000000000002
 40
0.8000000000000002
 40
0.8000000000000002
 40
0.8500000000000002
 40
0.8500000000000002
 40
0.8500000000000002
 40
0.8500000000000002
 40
0.9000000000000002
 40
0.9000000000000002
 40
0.9000000000000002
 40
0.9000000000000002
 40
0.9500000000000003
 40
0.9500000000000003
 40
0.9500000000000003
 40
0.9500000000000003
 40
1.0
 40
1.0
 40
1.0
 40
1.0
 10
160.0
 20
52.999899999999997
 30
0.0
 10
160.0
 20
52.999899999999997
 30
0.0
 10
161.09999999999999
 20
53.6999
 30
0.0
 10
161.09999999999999
 20
53.6999
 30
0.0
 10
161.09999999999999
 20
53.6999
 30
0.0
 10
161.09999999999999
 20
53.6999
 30
0.0
 10
163.0
 20
53.999899999999997
 30
0.0
 10
163.0
 20
53.999899999999997
 30
0.0
 10
163.0
 20
53.999899999999997
 30
0.0
 10
163.0
 20
53.999899999999997
 30
0.0
 10
167.0
 20
57.999899999999997
 30
0.0
 10
167.0
 20
57.999899999999997
 30
0.0
 10
167.0
 20
57.999899999999997
 30
0.0
 10
167.0
 20
57.999899999999997
 30
0.0
 10
169.0
 20
63.999899999999997
 30
0.0
 10
169.0
 20
63.999899999999997
 30
0.0
 10
169.0
 20
63.999899999999997
 30
0.0
 10
169.0
 20
63.999899999999997
 30
0.0
 10
166.0
 20
69.999899999999997
 30
0.0
 10
166.0
 20
69.999899999999997
 30
0.0
 10
166.0
 20
69.999899999999997
 30
0.0
 10
166.0
 20
69.999899999999997
 30
0.0
 10
141.0
 20
88.999899999999997
 30
0.0
 10
141.0
 20
88.999899999999997
 30
0.0
 10
141.0
 20
88.999899999999997
 30
0.0
 10
141.0
 20
88.999899999999997
 30
0.0
 10
138.80000000000001
 20
92.899900000000002
 30
0.0
 10
138.80000000000001
 20
92.899900000000002
 30
0.0
 10
138.80000000000001
 20
92.899900000000002
 30
0.0
 10
138.80000000000001
 20
92.899900000000002
 30
0.0
 10
136.47829999999999
 20
99.019900000000007
 30
0.0
 10
136.47829999999999
 20
99.019900000000007
 30
0.0
 10
136.47829999999999
 20
99.019900000000007
 30
0.0
 10
136.47829999999999
 20
99.019900000000007
 30
0.0
 10
135.0
 20
125.9999
 30
0.0
 10
135.0
 20
125.9999
 30
0.0
 10
135.0
 20
125.9999
 30
0.0
 10
135.0
 20
125.9999
 30
0.0
 10
131.0
 20
129.9999
 30
0.0
 10
131.0
 20
129.9999
 30
0.0
 10
131.0
 20
129.9999
 30
0.0
 10
131.0
 20
129.9999
 30
0.0
 10
126.0
 20
130.9999
 30
0.0
 10
126.0
 20
130.9999
 30
0.0
 10
126.0
 20
130.9999
 30
0.0
 10
126.0
 20
130.9999
 30
0.0
 10
120.0
 20
127.9999
 30
0.0
 10
120.0
 20
127.9999
 30
0.0
 10
120.0
 20
127.9999
 30
0.0
 10
120.0
 20
127.9999
 30
0.0
 10
119.7
 20
126.09990000000001
 30
0.0
 10
119.7
 20
126.09990000000001
 30
0.0
 10
119.7
 20
126.09990000000001
 30
0.0
 10
119.7
 20
126.09990000000001
 30
0.0
 10
117.0
 20
104.9999
 30
0.0
 10
117.0
 20
104.9999
 30
0.0
 10
117.0
 20
104.9999
 30
0.0
 10
117.0
 20
104.9999
 30
0.0
 10
117.0
 20
85.999899999999997
 30
0.0
 10
117.0
 20
85.999899999999997
 30
0.0
 10
117.0
 20
85.999899999999997
 30
0.0
 10
117.0
 20
85.999899999999997
 30
0.0
 10
120.0
 20
79.999899999999997
 30
0.0
 10
120.0
 20
79.999899999999997
 30
0.0
 10
120.0
 20
79.999899999999997
 30
0.0
 10
120.0
 20
79.999899999999997
 30
0.0
 10
130.84610000000001
 20
69.769199999999998
 30
0.0
 10
130.84610000000001
 20
69.769199999999998
 30
0.0
 10
130.84610000000001
 20
69.769199999999998
 30
0.0
 10
130.84610000000001
 20
69.769199999999998
 30
0.0
 10
137.18000000000001
 20
65.239900000000006
 30
0.0
 10
137.18000000000001
 20
65.239900000000006
 30
0.0
 10
137.18000000000001
 20
65.239900000000006
 30
0.0
 10
137.18000000000001
 20
65.239900000000006
 30
0.0
 10
154.09999999999999
 20
54.299900000000001
 30
0.0
 10
154.09999999999999
 20
54.299900000000001
 30
0.0
 10
154.09999999999999
 20
54.299900000000001
 30
0.0
 10
154.09999999999999
 20
54.299900000000001
 30
0.0
 10
160.0
 20
52.999899999999997
 30
0.0
 10
160.0
 20
52.999899999999997
 30
0.0
  0
SPLINE
  5
31
100
AcDbEntity
  8
0
 62
     7
100
AcDbSpline
210
0.0
220
0.0
230
1.0
 70
     1
 71
     3
 72
    88
 73
    84
 74
     0
 42
0.0000000001
 43
0.0000000001
 40
0.0
 40
0.0
 40
0.0
 40
0.0
 40
0.0476190476190476
 40
0.0476190476190476
 40
0.0476190476190476
 40
0.0476190476190476
 40
0.0952380952380952
 40
0.0952380952380952
 40
0.0952380952380952
 40
0.0952380952380952
 40
0.1428571428571429
 40
0.1428571428571429
 40
0.1428571428571429
 40
0.1428571428571429
 40
0.1904761904761905
 40
0.1904761904761905
 40
0.1904761904761905
 40
0.1904761904761905
 40
0.2380952380952381
 40
0.2380952380952381
 40
0.2380952380952381
 40
0.2380952380952381
 40
0.2857142857142857
 40
0.2857142857142857
 40
0.2857142857142857
 40
0.2857142857142857
 40
0.3333333333333333
 40
0.3333333333333333
 40
0.3333333333333333
 40
0.3333333333333333
 40
0.3809523809523809
 40
0.3809523809523809
 40
0.3809523809523809
 40
0.3809523809523809
 40
0.4285714285714286
 40
0.4285714285714286
 40
0.4285714285714286
 40
0.4285714285714286
 40
0.4761904761904762
 40
0.4761904761904762
 40
0.4761904761904762
 40
0.4761904761904762
 40
0.5238095238095237
 40
0.5238095238095237
 40
0.5238095238095237
 40
0.5238095238095237
 40
0.5714285714285714
 40
0.5714285714285714
 40
0.5714285714285714
 40
0.5714285714285714
 40
0.6190476190476191
 40
0.6190476190476191
 40
0.6190476190476191
 40
0.6190476190476191
 40
0.6666666666666667
 40
0.6666666666666667
 40
0.6666666666666667
 40
0.6666666666666667
 40
0.7142857142857144
 40
0.7142857142857144
 40
0.7142857142857144
 40
0.7142857142857144
 40
0.7619047619047621
 40
0.7619047619047621
 40
0.7619047619047621
 40
0.7619047619047621
 40
0.8095238095238098
 40
0.8095238095238098
 40
0.8095238095238098
 40
0.8095238095238098
 40
0.8571428571428574
 40
0.8571428571428574
 40
0.8571428571428574
 40
0.8571428571428574
 40
0.9047619047619051
 40
0.9047619047619051
 40
0.9047619047619051
 40
0.9047619047619051
 40
0.9523809523809528
 40
0.9523809523809528
 40
0.9523809523809528
 40
0.9523809523809528
 40
1.0
 40
1.0
 40
1.0
 40
1.0
 10
-23.0
 20
33.999899999999997
 30
0.0
 10
-23.0
 20
33.999899999999997
 30
0.0
 10
-22.699999999999999
 20
36.899900000000002
 30
0.0
 10
-22.699999999999999
 20
36.899900000000002
 30
0.0
 10
-22.699999999999999
 20
36.899900000000002
 30
0.0
 10
-22.699999999999999
 20
36.899900000000002
 30
0.0
 10
-22.0
 20
37.999899999999997
 30
0.0
 10
-22.0
 20
37.999899999999997
 30
0.0
 10
-22.0
 20
37.999899999999997
 30
0.0
 10
-22.0
 20
37.999899999999997
 30
0.0
 10
-22.0
 20
48.999899999999997
 30
0.0
 10
-22.0
 20
48.999899999999997
 30
0.0
 10
-22.0
 20
48.999899999999997
 30
0.0
 10
-22.0
 20
48.999899999999997
 30
0.0
 10
-23.455100000000002
 20
60.962000000000003
 30
0.0
 10
-23.455100000000002
 20
60.962000000000003
 30
0.0
 10
-23.455100000000002
 20
60.962000000000003
 30
0.0
 10
-23.455100000000002
 20
60.962000000000003
 30
0.0
 10
-27.384599999999999
 20
83.923000000000002
 30
0.0
 10
-27.384599999999999
 20
83.923000000000002
 30
0.0
 10
-27.384599999999999
 20
83.923000000000002
 30
0.0
 10
-27.384599999999999
 20
83.923000000000002
 30
0.0
 10
-30.230699999999999
 20
90.846100000000007
 30
0.0
 10
-30.230699999999999
 20
90.846100000000007
 30
0.0
 10
-30.230699999999999
 20
90.846100000000007
 30
0.0
 10
-30.230699999999999
 20
90.846100000000007
 30
0.0
 10
-35.0
 20
96.999899999999997
 30
0.0
 10
-35.0
 20
96.999899999999997
 30
0.0
 10
-35.0
 20
96.999899999999997
 30
0.0
 10
-35.0
 20
96.999899999999997
 30
0.0
 10
-39.8461
 20
100.2307
 30
0.0
 10
-39.8461
 20
100.2307
 30
0.0
 10
-39.8461
 20
100.2307
 30
0.0
 10
-39.8461
 20
100.2307
 30
0.0
 10
-63.100000000000001
 20
115.79989999999999
 30
0.0
 10
-63.100000000000001
 20
115.79989999999999
 30
0.0
 10
-63.100000000000001
 20
115.79989999999999
 30
0.0
 10
-63.100000000000001
 20
115.79989999999999
 30
0.0
 10
-65.900000000000006
 20
117.1999
 30
0.0
 10
-65.900000000000006
 20
117.1999
 30
0.0
 10
-65.900000000000006
 20
117.1999
 30
0.0
 10
-65.900000000000006
 20
117.1999
 30
0.0
 10
-69.0
 20
118.9999
 30
0.0
 10
-69.0
 20
118.9999
 30
0.0
 10
-69.0
 20
118.9999
 30
0.0
 10
-69.0
 20
118.9999
 30
0.0
 10
-71.0
 20
118.9999
 30
0.0
 10
-71.0
 20
118.9999
 30
0.0
 10
-71.0
 20
118.9999
 30
0.0
 10
-71.0
 20
118.9999
 30
0.0
 10
-72.200000000000003
 20
117.09990000000001
 30
0.0
 10
-72.200000000000003
 20
117.09990000000001
 30
0.0
 10
-72.200000000000003
 20
117.09990000000001
 30
0.0
 10
-72.200000000000003
 20
117.09990000000001
 30
0.0
 10
-73.0
 20
115.9999
 30
0.0
 10
-73.0
 20
115.9999
 30
0.0
 10
-73.0
 20
115.9999
 30
0.0
 10
-73.0
 20
115.9999
 30
0.0
 10
-71.5411
 20
93.035200000000003
 30
0.0
 10
-71.5411
 20
93.035200000000003
 30
0.0
 10
-71.5411
 20
93.035200000000003
 30
0.0
 10
-71.5411
 20
93.035200000000003
 30
0.0
 10
-69.299999999999997
 20
75.899900000000002
 30
0.0
 10
-69.299999999999997
 20
75.899900000000002
 30
0.0
 10
-69.299999999999997
 20
75.899900000000002
 30
0.0
 10
-69.299999999999997
 20
75.899900000000002
 30
0.0
 10
-65.769199999999998
 20
65.153800000000004
 30
0.0
 10
-65.769199999999998
 20
65.153800000000004
 30
0.0
 10
-65.769199999999998
 20
65.153800000000004
 30
0.0
 10
-65.769199999999998
 20
65.153800000000004
 30
0.0
 10
-57.0
 20
53.999899999999997
 30
0.0
 10
-57.0
 20
53.999899999999997
 30
0.0
 10
-57.0
 20
53.999899999999997
 30
0.0
 10
-57.0
 20
53.999899999999997
 30
0.0
 10
-52.18
 20
50.759900000000002
 30
0.0
 10
-52.18
 20
50.759900000000002
 30
0.0
 10
-52.18
 20
50.759900000000002
 30
0.0
 10
-52.18
 20
50.759900000000002
 30
0.0
 10
-29.899999999999999
 20
35.299900000000001
 30
0.0
 10
-29.899999999999999
 20
35.299900000000001
 30
0.0
 10
-29.899999999999999
 20
35.299900000000001
 30
0.0
 10
-29.899999999999999
 20
35.299900000000001
 30
0.0
 10
-23.0
 20
33.999899999999997
 30
0.0
 10
-23.0
 20
33.999899999999997
 30
0.0
  0
SPLINE
  5
32
100
AcDbEntity
  8
0
 62
     7
100
AcDbSpline
210
0.0
220
0.0
230
1.0
 70
     1
 71
     3
 72
    80
 73
    76
 74
     0
 42
0.0000000001
 43
0.0000000001
 40
0.0
 40
0.0
 40
0.0
 40
0.0
 40
0.0526315789473684
 40
0.0526315789473684
 40
0.0526315789473684
 40
0.0526315789473684
 40
0.1052631578947368
 40
0.1052631578947368
 40
0.1052631578947368
 40
0.1052631578947368
 40
0.1578947368421053
 40
0.1578947368421053
 40
0.1578947368421053
 40
0.1578947368421053
 40
0.2105263157894737
 40
0.2105263157894737
 40
0.2105263157894737
 40
0.2105263157894737
 40
0.2631578947368421
 40
0.2631578947368421
 40
0.2631578947368421
 40
0.2631578947368421
 40
0.3157894736842105
 40
0.3157894736842105
 40
0.3157894736842105
 40
0.3157894736842105
 40
0.3684210526315789
 40
0.3684210526315789
 40
0.3684210526315789
 40
0.3684210526315789
 40
0.4210526315789474
 40
0.4210526315789474
 40
0.4210526315789474
 40
0.4210526315789474
 40
0.4736842105263158
 40
0.4736842105263158
 40
0.4736842105263158
 40
0.4736842105263158
 40
0.5263157894736842
 40
0.5263157894736842
 40
0.5263157894736842
 40
0.5263157894736842
 40
0.5789473684210527
 40
0.5789473684210527
 40
0.5789473684210527
 40
0.5789473684210527
 40
0.631578947368421
 40
0.631578947368421
 40
0.631578947368421
 40
0.631578947368421
 40
0.6842105263157894
 40
0.6842105263157894
 40
0.6842105263157894
 40
0.6842105263157894
 40
0.7368421052631577
 40
0.7368421052631577
 40
0.7368421052631577
 40
0.7368421052631577
 40
0.7894736842105261
 40
0.7894736842105261
 40
0.7894736842105261
 40
0.7894736842105261
 40
0.8421052631578945
 40
0.8421052631578945
 40
0.8421052631578945
 40
0.8421052631578945
 40
0.8947368421052628
 40
0.8947368421052628
 40
0.8947368421052628
 40
0.8947368421052628
 40
0.9473684210526312
 40
0.9473684210526312
 40
0.9473684210526312
 40
0.9473684210526312
 40
1.0
 40
1.0
 40
1.0
 40
1.0
 10
8.0
 20
29.9999
 30
0.0
 10
8.0
 20
29.9999
 30
0.0
 10
30.8048
 20
44.243899999999996
 30
0.0
 10
30.8048
 20
44.243899999999996
 30
0.0
 10
30.8048
 20
44.243899999999996
 30
0.0
 10
30.8048
 20
44.243899999999996
 30
0.0
 10
47.0
 20
57.999899999999997
 30
0.0
 10
47.0
 20
57.999899999999997
 30
0.0
 10
47.0
 20
57.999899999999997
 30
0.0
 10
47.0
 20
57.999899999999997
 30
0.0
 10
47.243899999999996
 20
58.8048
 30
0.0
 10
47.243899999999996
 20
58.8048
 30
0.0
 10
47.243899999999996
 20
58.8048
 30
0.0
 10
47.243899999999996
 20
58.8048
 30
0.0
 10
51.700000000000003
 20
65.099900000000005
 30
0.0
 10
51.700000000000003
 20
65.099900000000005
 30
0.0
 10
51.700000000000003
 20
65.099900000000005
 30
0.0
 10
51.700000000000003
 20
65.099900000000005
 30
0.0
 10
52.799999999999997
 20
68.099900000000005
 30
0.0
 10
52.799999999999997
 20
68.099900000000005
 30
0.0
 10
52.799999999999997
 20
68.099900000000005
 30
0.0
 10
52.799999999999997
 20
68.099900000000005
 30
0.0
 10
55.569200000000002
 20
78.053799999999995
 30
0.0
 10
55.569200000000002
 20
78.053799999999995
 30
0.0
 10
55.569200000000002
 20
78.053799999999995
 30
0.0
 10
55.569200000000002
 20
78.053799999999995
 30
0.0
 10
59.0
 20
104.9999
 30
0.0
 10
59.0
 20
104.9999
 30
0.0
 10
59.0
 20
104.9999
 30
0.0
 10
59.0
 20
104.9999
 30
0.0
 10
59.0
 20
113.9999
 30
0.0
 10
59.0
 20
113.9999
 30
0.0
 10
59.0
 20
113.9999
 30
0.0
 10
59.0
 20
113.9999
 30
0.0
 10
57.0
 20
118.9999
 30
0.0
 10
57.0
 20
118.9999
 30
0.0
 10
57.0
 20
118.9999
 30
0.0
 10
57.0
 20
118.9999
 30
0.0
 10
54.100000000000001
 20
117.6999
 30
0.0
 10
54.100000000000001
 20
117.6999
 30
0.0
 10
54.100000000000001
 20
117.6999
 30
0.0
 10
54.100000000000001
 20
117.6999
 30
0.0
 10
51.100000000000001
 20
116.6999
 30
0.0
 10
51.100000000000001
 20
116.6999
 30
0.0
 10
51.100000000000001
 20
116.6999
 30
0.0
 10
51.100000000000001
 20
116.6999
 30
0.0
 10
43.18
 20
111.7599
 30
0.0
 10
43.18
 20
111.7599
 30
0.0
 10
43.18
 20
111.7599
 30
0.0
 10
43.18
 20
111.7599
 30
0.0
 10
30.216799999999999
 20
101.7522
 30
0.0
 10
30.216799999999999
 20
101.7522
 30
0.0
 10
30.216799999999999
 20
101.7522
 30
0.0
 10
30.216799999999999
 20
101.7522
 30
0.0
 10
17.0
 20
89.999899999999997
 30
0.0
 10
17.0
 20
89.999899999999997
 30
0.0
 10
17.0
 20
89.999899999999997
 30
0.0
 10
17.0
 20
89.999899999999997
 30
0.0
 10
11.4
 20
81.799899999999994
 30
0.0
 10
11.4
 20
81.799899999999994
 30
0.0
 10
11.4
 20
81.799899999999994
 30
0.0
 10
11.4
 20
81.799899999999994
 30
0.0
 10
5.0
 20
50.999899999999997
 30
0.0
 10
5.0
 20
50.999899999999997
 30
0.0
 10
5.0
 20
50.999899999999997
 30
0.0
 10
5.0
 20
50.999899999999997
 30
0.0
 10
5.0
 20
31.9999
 30
0.0
 10
5.0
 20
31.9999
 30
0.0
 10
5.0
 20
31.9999
 30
0.0
 10
5.0
 20
31.9999
 30
0.0
 10
7.0
 20
29.9999
 30
0.0
 10
7.0
 20
29.9999
 30
0.0
 10
7.0
 20
29.9999
 30
0.0
 10
7.0
 20
29.9999
 30
0.0
 10
8.0
 20
29.9999
 30
0.0
 10
8.0
 20
29.9999
 30
0.0
  0
SPLINE
  5
33
100
AcDbEntity
  8
0
 62
     7
100
AcDbSpline
210
0.0
220
0.0
230
1.0
 70
     1
 71
     3
 72
   100
 73
    96
 74
     0
 42
0.0000000001
 43
0.0000000001
 40
0.0
 40
0.0
 40
0.0
 40
0.0
 40
0.0416666666666667
 40
0.0416666666666667
 40
0.0416666666666667
 40
0.0416666666666667
 40
0.0833333333333333
 40
0.0833333333333333
 40
0.0833333333333333
 40
0.0833333333333333
 40
0.125
 40
0.125
 40
0.125
 40
0.125
 40
0.1666666666666667
 40
0.1666666666666667
 40
0.1666666666666667
 40
0.1666666666666667
 40
0.2083333333333333
 40
0.2083333333333333
 40
0.2083333333333333
 40
0.2083333333333333
 40
0.25
 40
0.25
 40
0.25
 40
0.25
 40
0.2916666666666666
 40
0.2916666666666666
 40
0.2916666666666666
 40
0.2916666666666666
 40
0.3333333333333333
 40
0.3333333333333333
 40
0.3333333333333333
 40
0.3333333333333333
 40
0.375
 40
0.375
 40
0.375
 40
0.375
 40
0.4166666666666667
 40
0.4166666666666667
 40
0.4166666666666667
 40
0.4166666666666667
 40
0.4583333333333334
 40
0.4583333333333334
 40
0.4583333333333334
 40
0.4583333333333334
 40
0.5
 40
0.5
 40
0.5
 40
0.5
 40
0.5416666666666666
 40
0.5416666666666666
 40
0.5416666666666666
 40
0.5416666666666666
 40
0.5833333333333333
 40
0.5833333333333333
 40
0.5833333333333333
 40
0.5833333333333333
 40
0.6249999999999999
 40
0.6249999999999999
 40
0.6249999999999999
 40
0.6249999999999999
 40
0.6666666666666665
 40
0.6666666666666665
 40
0.6666666666666665
 40
0.6666666666666665
 40
0.7083333333333332
 40
0.7083333333333332
 40
0.7083333333333332
 40
0.7083333333333332
 40
0.7499999999999998
 40
0.7499999999999998
 40
0.7499999999999998
 40
0.7499999999999998
 40
0.7916666666666664
 40
0.7916666666666664
 40
0.7916666666666664
 40
0.7916666666666664
 40
0.833333333333333
 40
0.833333333333333
 40
0.833333333333333
 40
0.833333333333333
 40
0.8749999999999997
 40
0.8749999999999997
 40
0.8749999999999997
 40
0.8749999999999997
 40
0.9166666666666663
 40
0.9166666666666663
 40
0.9166666666666663
 40
0.9166666666666663
 40
0.9583333333333329
 40
0.9583333333333329
 40
0.9583333333333329
 40
0.9583333333333329
 40
1.0
 40
1.0
 40
1.0
 40
1.0
 10
-157.0
 20
24.9999
 30
0.0
 10
-157.0
 20
24.9999
 30
0.0
 10
-133.90000000000001
 20
36.799900000000001
 30
0.0
 10
-133.90000000000001
 20
36.799900000000001
 30
0.0
 10
-133.90000000000001
 20
36.799900000000001
 30
0.0
 10
-133.90000000000001
 20
36.799900000000001
 30
0.0
 10
-111.84610000000001
 20
50.769199999999998
 30
0.0
 10
-111.84610000000001
 20
50.769199999999998
 30
0.0
 10
-111.84610000000001
 20
50.769199999999998
 30
0.0
 10
-111.84610000000001
 20
50.769199999999998
 30
0.0
 10
-100.0
 20
58.999899999999997
 30
0.0
 10
-100.0
 20
58.999899999999997
 30
0.0
 10
-100.0
 20
58.999899999999997
 30
0.0
 10
-100.0
 20
58.999899999999997
 30
0.0
 10
-96.458799999999997
 20
81.035200000000003
 30
0.0
 10
-96.458799999999997
 20
81.035200000000003
 30
0.0
 10
-96.458799999999997
 20
81.035200000000003
 30
0.0
 10
-96.458799999999997
 20
81.035200000000003
 30
0.0
 10
-95.466899999999995
 20
94.0291
 30
0.0
 10
-95.466899999999995
 20
94.0291
 30
0.0
 10
-95.466899999999995
 20
94.0291
 30
0.0
 10
-95.466899999999995
 20
94.0291
 30
0.0
 10
-94.0
 20
119.9999
 30
0.0
 10
-94.0
 20
119.9999
 30
0.0
 10
-94.0
 20
119.9999
 30
0.0
 10
-94.0
 20
119.9999
 30
0.0
 10
-95.384600000000006
 20
124.923
 30
0.0
 10
-95.384600000000006
 20
124.923
 30
0.0
 10
-95.384600000000006
 20
124.923
 30
0.0
 10
-95.384600000000006
 20
124.923
 30
0.0
 10
-98.0
 20
130.9999
 30
0.0
 10
-98.0
 20
130.9999
 30
0.0
 10
-98.0
 20
130.9999
 30
0.0
 10
-98.0
 20
130.9999
 30
0.0
 10
-102.0
 20
132.9999
 30
0.0
 10
-102.0
 20
132.9999
 30
0.0
 10
-102.0
 20
132.9999
 30
0.0
 10
-102.0
 20
132.9999
 30
0.0
 10
-108.0
 20
132.9999
 30
0.0
 10
-108.0
 20
132.9999
 30
0.0
 10
-108.0
 20
132.9999
 30
0.0
 10
-108.0
 20
132.9999
 30
0.0
 10
-113.0
 20
129.9999
 30
0.0
 10
-113.0
 20
129.9999
 30
0.0
 10
-113.0
 20
129.9999
 30
0.0
 10
-113.0
 20
129.9999
 30
0.0
 10
-113.2
 20
129.09989999999999
 30
0.0
 10
-113.2
 20
129.09989999999999
 30
0.0
 10
-113.2
 20
129.09989999999999
 30
0.0
 10
-113.2
 20
129.09989999999999
 30
0.0
 10
-114.5155
 20
114.9853
 30
0.0
 10
-114.5155
 20
114.9853
 30
0.0
 10
-114.5155
 20
114.9853
 30
0.0
 10
-114.5155
 20
114.9853
 30
0.0
 10
-115.48439999999999
 20
83.014600000000002
 30
0.0
 10
-115.48439999999999
 20
83.014600000000002
 30
0.0
 10
-115.48439999999999
 20
83.014600000000002
 30
0.0
 10
-115.48439999999999
 20
83.014600000000002
 30
0.0
 10
-118.0
 20
72.999899999999997
 30
0.0
 10
-118.0
 20
72.999899999999997
 30
0.0
 10
-118.0
 20
72.999899999999997
 30
0.0
 10
-118.0
 20
72.999899999999997
 30
0.0
 10
-121.0
 20
69.999899999999997
 30
0.0
 10
-121.0
 20
69.999899999999997
 30
0.0
 10
-121.0
 20
69.999899999999997
 30
0.0
 10
-121.0
 20
69.999899999999997
 30
0.0
 10
-155.15379999999999
 20
48.230699999999999
 30
0.0
 10
-155.15379999999999
 20
48.230699999999999
 30
0.0
 10
-155.15379999999999
 20
48.230699999999999
 30
0.0
 10
-155.15379999999999
 20
48.230699999999999
 30
0.0
 10
-157.09999999999999
 20
47.1999
 30
0.0
 10
-157.09999999999999
 20
47.1999
 30
0.0
 10
-157.09999999999999
 20
47.1999
 30
0.0
 10
-157.09999999999999
 20
47.1999
 30
0.0
 10
-166.0
 20
39.999899999999997
 30
0.0
 10
-166.0
 20
39.999899999999997
 30
0.0
 10
-166.0
 20
39.999899999999997
 30
0.0
 10
-166.0
 20
39.999899999999997
 30
0.0
 10
-167.0
 20
37.999899999999997
 30
0.0
 10
-167.0
 20
37.999899999999997
 30
0.0
 10
-167.0
 20
37.999899999999997
 30
0.0
 10
-167.0
 20
37.999899999999997
 30
0.0
 10
-165.30000000000001
 20
32.899900000000002
 30
0.0
 10
-165.30000000000001
 20
32.899900000000002
 30
0.0
 10
-165.30000000000001
 20
32.899900000000002
 30
0.0
 10
-165.30000000000001
 20
32.899900000000002
 30
0.0
 10
-164.0
 20
28.9999
 30
0.0
 10
-164.0
 20
28.9999
 30
0.0
 10
-164.0
 20
28.9999
 30
0.0
 10
-164.0
 20
28.9999
 30
0.0
 10
-160.09999999999999
 20
25.799900000000001
 30
0.0
 10
-160.09999999999999
 20
25.799900000000001
 30
0.0
 10
-160.09999999999999
 20
25.799900000000001
 30
0.0
 10
-160.09999999999999
 20
25.799900000000001
 30
0.0
 10
-157.0
 20
24.9999
 30
0.0
 10
-157.0
 20
24.9999
 30
0.0
  0
SPLINE
  5
34
100
AcDbEntity
  8
0
 62
     7
100
AcDbSpline
210
0.0
220
0.0
230
1.0
 70
     1
 71
     3
 72
   100
 73
    96
 74
     0
 42
0.0000000001
 43
0.0000000001
 40
0.0
 40
0.0
 40
0.0
 40
0.0
 40
0.0416666666666667
 40
0.0416666666666667
 40
0.0416666666666667
 40
0.0416666666666667
 40
0.0833333333333333
 40
0.0833333333333333
 40
0.0833333333333333
 40
0.0833333333333333
 40
0.125
 40
0.125
 40
0.125
 40
0.125
 40
0.1666666666666667
 40
0.1666666666666667
 40
0.1666666666666667
 40
0.1666666666666667
 40
0.2083333333333333
 40
0.2083333333333333
 40
0.2083333333333333
 40
0.2083333333333333
 40
0.25
 40
0.25
 40
0.25
 40
0.25
 40
0.2916666666666666
 40
0.2916666666666666
 40
0.2916666666666666
 40
0.2916666666666666
 40
0.3333333333333333
 40
0.3333333333333333
 40
0.3333333333333333
 40
0.3333333333333333
 40
0.375
 40
0.375
 40
0.375
 40
0.375
 40
0.4166666666666667
 40
0.4166666666666667
 40
0.4166666666666667
 40
0.4166666666666667
 40
0.4583333333333334
 40
0.4583333333333334
 40
0.4583333333333334
 40
0.4583333333333334
 40
0.5
 40
0.5
 40
0.5
 40
0.5
 40
0.5416666666666666
 40
0.5416666666666666
 40
0.5416666666666666
 40
0.5416666666666666
 40
0.5833333333333333
 40
0.5833333333333333
 40
0.5833333333333333
 40
0.5833333333333333
 40
0.6249999999999999
 40
0.6249999999999999
 40
0.6249999999999999
 40
0.6249999999999999
 40
0.6666666666666665
 40
0.6666666666666665
 40
0.6666666666666665
 40
0.6666666666666665
 40
0.7083333333333332
 40
0.7083333333333332
 40
0.7083333333333332
 40
0.7083333333333332
 40
0.7499999999999998
 40
0.7499999999999998
 40
0.7499999999999998
 40
0.7499999999999998
 40
0.7916666666666664
 40
0.7916666666666664
 40
0.7916666666666664
 40
0.7916666666666664
 40
0.833333333333333
 40
0.833333333333333
 40
0.833333333333333
 40
0.833333333333333
 40
0.8749999999999997
 40
0.8749999999999997
 40
0.8749999999999997
 40
0.8749999999999997
 40
0.9166666666666663
 40
0.9166666666666663
 40
0.9166666666666663
 40
0.9166666666666663
 40
0.9583333333333329
 40
0.9583333333333329
 40
0.9583333333333329
 40
0.9583333333333329
 40
1.0
 40
1.0
 40
1.0
 40
1.0
 10
145.0
 20
22.9999
 30
0.0
 10
145.0
 20
22.9999
 30
0.0
 10
146.84610000000001
 20
24.230699999999999
 30
0.0
 10
146.84610000000001
 20
24.230699999999999
 30
0.0
 10
146.84610000000001
 20
24.230699999999999
 30
0.0
 10
146.84610000000001
 20
24.230699999999999
 30
0.0
 10
151.0
 20
26.9999
 30
0.0
 10
151.0
 20
26.9999
 30
0.0
 10
151.0
 20
26.9999
 30
0.0
 10
151.0
 20
26.9999
 30
0.0
 10
151.0
 20
30.9999
 30
0.0
 10
151.0
 20
30.9999
 30
0.0
 10
151.0
 20
30.9999
 30
0.0
 10
151.0
 20
30.9999
 30
0.0
 10
150.30000000000001
 20
32.099899999999998
 30
0.0
 10
150.30000000000001
 20
32.099899999999998
 30
0.0
 10
150.30000000000001
 20
32.099899999999998
 30
0.0
 10
150.30000000000001
 20
32.099899999999998
 30
0.0
 10
146.0
 20
38.999899999999997
 30
0.0
 10
146.0
 20
38.999899999999997
 30
0.0
 10
146.0
 20
38.999899999999997
 30
0.0
 10
146.0
 20
38.999899999999997
 30
0.0
 10
142.0
 20
42.999899999999997
 30
0.0
 10
142.0
 20
42.999899999999997
 30
0.0
 10
142.0
 20
42.999899999999997
 30
0.0
 10
142.0
 20
42.999899999999997
 30
0.0
 10
131.84610000000001
 20
49.769199999999998
 30
0.0
 10
131.84610000000001
 20
49.769199999999998
 30
0.0
 10
131.84610000000001
 20
49.769199999999998
 30
0.0
 10
131.84610000000001
 20
49.769199999999998
 30
0.0
 10
131.15379999999999
 20
50.230699999999999
 30
0.0
 10
131.15379999999999
 20
50.230699999999999
 30
0.0
 10
131.15379999999999
 20
50.230699999999999
 30
0.0
 10
131.15379999999999
 20
50.230699999999999
 30
0.0
 10
104.0
 20
66.999899999999997
 30
0.0
 10
104.0
 20
66.999899999999997
 30
0.0
 10
104.0
 20
66.999899999999997
 30
0.0
 10
104.0
 20
66.999899999999997
 30
0.0
 10
102.5104
 20
119.98999999999999
 30
0.0
 10
102.5104
 20
119.98999999999999
 30
0.0
 10
102.5104
 20
119.98999999999999
 30
0.0
 10
102.5104
 20
119.98999999999999
 30
0.0
 10
101.64700000000001
 20
123.9117
 30
0.0
 10
101.64700000000001
 20
123.9117
 30
0.0
 10
101.64700000000001
 20
123.9117
 30
0.0
 10
101.64700000000001
 20
123.9117
 30
0.0
 10
100.59999999999999
 20
126.79989999999999
 30
0.0
 10
100.59999999999999
 20
126.79989999999999
 30
0.0
 10
100.59999999999999
 20
126.79989999999999
 30
0.0
 10
100.59999999999999
 20
126.79989999999999
 30
0.0
 10
98.0
 20
130.9999
 30
0.0
 10
98.0
 20
130.9999
 30
0.0
 10
98.0
 20
130.9999
 30
0.0
 10
98.0
 20
130.9999
 30
0.0
 10
95.0
 20
131.9999
 30
0.0
 10
95.0
 20
131.9999
 30
0.0
 10
95.0
 20
131.9999
 30
0.0
 10
95.0
 20
131.9999
 30
0.0
 10
86.0
 20
130.9999
 30
0.0
 10
86.0
 20
130.9999
 30
0.0
 10
86.0
 20
130.9999
 30
0.0
 10
86.0
 20
130.9999
 30
0.0
 10
84.200000000000003
 20
127.8999
 30
0.0
 10
84.200000000000003
 20
127.8999
 30
0.0
 10
84.200000000000003
 20
127.8999
 30
0.0
 10
84.200000000000003
 20
127.8999
 30
0.0
 10
82.0
 20
108.9999
 30
0.0
 10
82.0
 20
108.9999
 30
0.0
 10
82.0
 20
108.9999
 30
0.0
 10
82.0
 20
108.9999
 30
0.0
 10
82.0
 20
81.999899999999997
 30
0.0
 10
82.0
 20
81.999899999999997
 30
0.0
 10
82.0
 20
81.999899999999997
 30
0.0
 10
82.0
 20
81.999899999999997
 30
0.0
 10
83.455100000000002
 20
70.037899999999993
 30
0.0
 10
83.455100000000002
 20
70.037899999999993
 30
0.0
 10
83.455100000000002
 20
70.037899999999993
 30
0.0
 10
83.455100000000002
 20
70.037899999999993
 30
0.0
 10
87.243899999999996
 20
57.195099999999996
 30
0.0
 10
87.243899999999996
 20
57.195099999999996
 30
0.0
 10
87.243899999999996
 20
57.195099999999996
 30
0.0
 10
87.243899999999996
 20
57.195099999999996
 30
0.0
 10
96.0
 20
46.999899999999997
 30
0.0
 10
96.0
 20
46.999899999999997
 30
0.0
 10
96.0
 20
46.999899999999997
 30
0.0
 10
96.0
 20
46.999899999999997
 30
0.0
 10
129.09999999999999
 20
29.1999
 30
0.0
 10
129.09999999999999
 20
29.1999
 30
0.0
 10
129.09999999999999
 20
29.1999
 30
0.0
 10
129.09999999999999
 20
29.1999
 30
0.0
 10
129.90000000000001
 20
28.799900000000001
 30
0.0
 10
129.90000000000001
 20
28.799900000000001
 30
0.0
 10
129.90000000000001
 20
28.799900000000001
 30
0.0
 10
129.90000000000001
 20
28.799900000000001
 30
0.0
 10
145.0
 20
22.9999
 30
0.0
 10
145.0
 20
22.9999
 30
0.0
  0
SPLINE
  5
35
100
AcDbEntity
  8
0
 62
     7
100
AcDbSpline
210
0.0
220
0.0
230
1.0
 70
     1
 71
     3
 72
    84
 73
    80
 74
     0
 42
0.0000000001
 43
0.0000000001
 40
0.0
 40
0.0
 40
0.0
 40
0.0
 40
0.05
 40
0.05
 40
0.05
 40
0.05
 40
0.1
 40
0.1
 40
0.1
 40
0.1
 40
0.15
 40
0.15
 40
0.15
 40
0.15
 40
0.2
 40
0.2
 40
0.2
 40
0.2
 40
0.25
 40
0.25
 40
0.25
 40
0.25
 40
0.3
 40
0.3
 40
0.3
 40
0.3
 40
0.35
 40
0.35
 40
0.35
 40
0.35
 40
0.4
 40
0.4
 40
0.4
 40
0.4
 40
0.45
 40
0.45
 40
0.45
 40
0.45
 40
0.4999999999999999
 40
0.4999999999999999
 40
0.4999999999999999
 40
0.4999999999999999
 40
0.5499999999999999
 40
0.5499999999999999
 40
0.5499999999999999
 40
0.5499999999999999
 40
0.6
 40
0.6
 40
0.6
 40
0.6
 40
0.65
 40
0.65
 40
0.65
 40
0.65
 40
0.7000000000000001
 40
0.7000000000000001
 40
0.7000000000000001
 40
0.7000000000000001
 40
0.7500000000000001
 40
0.7500000000000001
 40
0.7500000000000001
 40
0.7500000000000001
 40
0.8000000000000002
 40
0.8000000000000002
 40
0.8000000000000002
 40
0.8000000000000002
 40
0.8500000000000002
 40
0.8500000000000002
 40
0.8500000000000002
 40
0.8500000000000002
 40
0.9000000000000002
 40
0.9000000000000002
 40
0.9000000000000002
 40
0.9000000000000002
 40
0.9500000000000003
 40
0.9500000000000003
 40
0.9500000000000003
 40
0.9500000000000003
 40
1.0
 40
1.0
 40
1.0
 40
1.0
 10
75.0
 20
-15.0
 30
0.0
 10
75.0
 20
-15.0
 30
0.0
 10
85.900000000000006
 20
-11.699999999999999
 30
0.0
 10
85.900000000000006
 20
-11.699999999999999
 30
0.0
 10
85.900000000000006
 20
-11.699999999999999
 30
0.0
 10
85.900000000000006
 20
-11.699999999999999
 30
0.0
 10
114.09999999999999
 20
-1.2
 30
0.0
 10
114.09999999999999
 20
-1.2
 30
0.0
 10
114.09999999999999
 20
-1.2
 30
0.0
 10
114.09999999999999
 20
-1.2
 30
0.0
 10
114.84610000000001
 20
-0.7692
 30
0.0
 10
114.84610000000001
 20
-0.7692
 30
0.0
 10
114.84610000000001
 20
-0.7692
 30
0.0
 10
114.84610000000001
 20
-0.7692
 30
0.0
 10
123.0
 20
4.9999000000000002
 30
0.0
 10
123.0
 20
4.9999000000000002
 30
0.0
 10
123.0
 20
4.9999000000000002
 30
0.0
 10
123.0
 20
4.9999000000000002
 30
0.0
 10
123.0
 20
5.9999000000000002
 30
0.0
 10
123.0
 20
5.9999000000000002
 30
0.0
 10
123.0
 20
5.9999000000000002
 30
0.0
 10
123.0
 20
5.9999000000000002
 30
0.0
 10
119.1538
 20
9.2307000000000006
 30
0.0
 10
119.1538
 20
9.2307000000000006
 30
0.0
 10
119.1538
 20
9.2307000000000006
 30
0.0
 10
119.1538
 20
9.2307000000000006
 30
0.0
 10
114.09999999999999
 20
12.1999
 30
0.0
 10
114.09999999999999
 20
12.1999
 30
0.0
 10
114.09999999999999
 20
12.1999
 30
0.0
 10
114.09999999999999
 20
12.1999
 30
0.0
 10
82.923000000000002
 20
24.615300000000001
 30
0.0
 10
82.923000000000002
 20
24.615300000000001
 30
0.0
 10
82.923000000000002
 20
24.615300000000001
 30
0.0
 10
82.923000000000002
 20
24.615300000000001
 30
0.0
 10
79.076899999999995
 20
25.384599999999999
 30
0.0
 10
79.076899999999995
 20
25.384599999999999
 30
0.0
 10
79.076899999999995
 20
25.384599999999999
 30
0.0
 10
79.076899999999995
 20
25.384599999999999
 30
0.0
 10
66.0
 20
26.9999
 30
0.0
 10
66.0
 20
26.9999
 30
0.0
 10
66.0
 20
26.9999
 30
0.0
 10
66.0
 20
26.9999
 30
0.0
 10
52.088200000000001
 20
23.646999999999998
 30
0.0
 10
52.088200000000001
 20
23.646999999999998
 30
0.0
 10
52.088200000000001
 20
23.646999999999998
 30
0.0
 10
52.088200000000001
 20
23.646999999999998
 30
0.0
 10
48.899999999999999
 20
22.299900000000001
 30
0.0
 10
48.899999999999999
 20
22.299900000000001
 30
0.0
 10
48.899999999999999
 20
22.299900000000001
 30
0.0
 10
48.899999999999999
 20
22.299900000000001
 30
0.0
 10
22.1538
 20
10.7692
 30
0.0
 10
22.1538
 20
10.7692
 30
0.0
 10
22.1538
 20
10.7692
 30
0.0
 10
22.1538
 20
10.7692
 30
0.0
 10
18.0
 20
7.9999000000000002
 30
0.0
 10
18.0
 20
7.9999000000000002
 30
0.0
 10
18.0
 20
7.9999000000000002
 30
0.0
 10
18.0
 20
7.9999000000000002
 30
0.0
 10
18.0
 20
5.9999000000000002
 30
0.0
 10
18.0
 20
5.9999000000000002
 30
0.0
 10
18.0
 20
5.9999000000000002
 30
0.0
 10
18.0
 20
5.9999000000000002
 30
0.0
 10
28.899999999999999
 20
-0.2
 30
0.0
 10
28.899999999999999
 20
-0.2
 30
0.0
 10
28.899999999999999
 20
-0.2
 30
0.0
 10
28.899999999999999
 20
-0.2
 30
0.0
 10
34.100000000000001
 20
-2.7999999999999998
 30
0.0
 10
34.100000000000001
 20
-2.7999999999999998
 30
0.0
 10
34.100000000000001
 20
-2.7999999999999998
 30
0.0
 10
34.100000000000001
 20
-2.7999999999999998
 30
0.0
 10
61.088200000000001
 20
-12.647
 30
0.0
 10
61.088200000000001
 20
-12.647
 30
0.0
 10
61.088200000000001
 20
-12.647
 30
0.0
 10
61.088200000000001
 20
-12.647
 30
0.0
 10
63.911700000000003
 20
-13.3529
 30
0.0
 10
63.911700000000003
 20
-13.3529
 30
0.0
 10
63.911700000000003
 20
-13.3529
 30
0.0
 10
63.911700000000003
 20
-13.3529
 30
0.0
 10
75.0
 20
-15.0
 30
0.0
 10
75.0
 20
-15.0
 30
0.0
  0
SPLINE
  5
36
100
AcDbEntity
  8
0
 62
     7
100
AcDbSpline
210
0.0
220
0.0
230
1.0
 70
     1
 71
     3
 72
    84
 73
    80
 74
     0
 42
0.0000000001
 43
0.0000000001
 40
0.0
 40
0.0
 40
0.0
 40
0.0
 40
0.05
 40
0.05
 40
0.05
 40
0.05
 40
0.1
 40
0.1
 40
0.1
 40
0.1
 40
0.15
 40
0.15
 40
0.15
 40
0.15
 40
0.2
 40
0.2
 40
0.2
 40
0.2
 40
0.25
 40
0.25
 40
0.25
 40
0.25
 40
0.3
 40
0.3
 40
0.3
 40
0.3
 40
0.35
 40
0.35
 40
0.35
 40
0.35
 40
0.4
 40
0.4
 40
0.4
 40
0.4
 40
0.45
 40
0.45
 40
0.45
 40
0.45
 40
0.4999999999999999
 40
0.4999999999999999
 40
0.4999999999999999
 40
0.4999999999999999
 40
0.5499999999999999
 40
0.5499999999999999
 40
0.5499999999999999
 40
0.5499999999999999
 40
0.6
 40
0.6
 40
0.6
 40
0.6
 40
0.65
 40
0.65
 40
0.65
 40
0.65
 40
0.7000000000000001
 40
0.7000000000000001
 40
0.7000000000000001
 40
0.7000000000000001
 40
0.7500000000000001
 40
0.7500000000000001
 40
0.7500000000000001
 40
0.7500000000000001
 40
0.8000000000000002
 40
0.8000000000000002
 40
0.8000000000000002
 40
0.8000000000000002
 40
0.8500000000000002
 40
0.8500000000000002
 40
0.8500000000000002
 40
0.8500000000000002
 40
0.9000000000000002
 40
0.9000000000000002
 40
0.9000000000000002
 40
0.9000000000000002
 40
0.9500000000000003
 40
0.9500000000000003
 40
0.9500000000000003
 40
0.9500000000000003
 40
1.0
 40
1.0
 40
1.0
 40
1.0
 10
-87.0
 20
-16.0
 30
0.0
 10
-87.0
 20
-16.0
 30
0.0
 10
-76.900000000000006
 20
-12.300000000000001
 30
0.0
 10
-76.900000000000006
 20
-12.300000000000001
 30
0.0
 10
-76.900000000000006
 20
-12.300000000000001
 30
0.0
 10
-76.900000000000006
 20
-12.300000000000001
 30
0.0
 10
-52.100000000000001
 20
-1.8
 30
0.0
 10
-52.100000000000001
 20
-1.8
 30
0.0
 10
-52.100000000000001
 20
-1.8
 30
0.0
 10
-52.100000000000001
 20
-1.8
 30
0.0
 10
-44.100000000000001
 20
2.1999
 30
0.0
 10
-44.100000000000001
 20
2.1999
 30
0.0
 10
-44.100000000000001
 20
2.1999
 30
0.0
 10
-44.100000000000001
 20
2.1999
 30
0.0
 10
-38.0
 20
5.9999000000000002
 30
0.0
 10
-38.0
 20
5.9999000000000002
 30
0.0
 10
-38.0
 20
5.9999000000000002
 30
0.0
 10
-38.0
 20
5.9999000000000002
 30
0.0
 10
-37.799999999999997
 20
6.8998999999999997
 30
0.0
 10
-37.799999999999997
 20
6.8998999999999997
 30
0.0
 10
-37.799999999999997
 20
6.8998999999999997
 30
0.0
 10
-37.799999999999997
 20
6.8998999999999997
 30
0.0
 10
-37.0
 20
7.9999000000000002
 30
0.0
 10
-37.0
 20
7.9999000000000002
 30
0.0
 10
-37.0
 20
7.9999000000000002
 30
0.0
 10
-37.0
 20
7.9999000000000002
 30
0.0
 10
-42.899999999999999
 20
13.1999
 30
0.0
 10
-42.899999999999999
 20
13.1999
 30
0.0
 10
-42.899999999999999
 20
13.1999
 30
0.0
 10
-42.899999999999999
 20
13.1999
 30
0.0
 10
-74.076899999999995
 20
26.615300000000001
 30
0.0
 10
-74.076899999999995
 20
26.615300000000001
 30
0.0
 10
-74.076899999999995
 20
26.615300000000001
 30
0.0
 10
-74.076899999999995
 20
26.615300000000001
 30
0.0
 10
-77.923000000000002
 20
27.384599999999999
 30
0.0
 10
-77.923000000000002
 20
27.384599999999999
 30
0.0
 10
-77.923000000000002
 20
27.384599999999999
 30
0.0
 10
-77.923000000000002
 20
27.384599999999999
 30
0.0
 10
-90.0
 20
28.9999
 30
0.0
 10
-90.0
 20
28.9999
 30
0.0
 10
-90.0
 20
28.9999
 30
0.0
 10
-90.0
 20
28.9999
 30
0.0
 10
-99.923000000000002
 20
26.615300000000001
 30
0.0
 10
-99.923000000000002
 20
26.615300000000001
 30
0.0
 10
-99.923000000000002
 20
26.615300000000001
 30
0.0
 10
-99.923000000000002
 20
26.615300000000001
 30
0.0
 10
-105.09999999999999
 20
25.1999
 30
0.0
 10
-105.09999999999999
 20
25.1999
 30
0.0
 10
-105.09999999999999
 20
25.1999
 30
0.0
 10
-105.09999999999999
 20
25.1999
 30
0.0
 10
-136.0
 20
10.9999
 30
0.0
 10
-136.0
 20
10.9999
 30
0.0
 10
-136.0
 20
10.9999
 30
0.0
 10
-136.0
 20
10.9999
 30
0.0
 10
-137.0
 20
9.9999000000000002
 30
0.0
 10
-137.0
 20
9.9999000000000002
 30
0.0
 10
-137.0
 20
9.9999000000000002
 30
0.0
 10
-137.0
 20
9.9999000000000002
 30
0.0
 10
-137.0
 20
7.9999000000000002
 30
0.0
 10
-137.0
 20
7.9999000000000002
 30
0.0
 10
-137.0
 20
7.9999000000000002
 30
0.0
 10
-137.0
 20
7.9999000000000002
 30
0.0
 10
-135.0
 20
5.9999000000000002
 30
0.0
 10
-135.0
 20
5.9999000000000002
 30
0.0
 10
-135.0
 20
5.9999000000000002
 30
0.0
 10
-135.0
 20
5.9999000000000002
 30
0.0
 10
-123.90000000000001
 20
0.1999
 30
0.0
 10
-123.90000000000001
 20
0.1999
 30
0.0
 10
-123.90000000000001
 20
0.1999
 30
0.0
 10
-123.90000000000001
 20
0.1999
 30
0.0
 10
-117.09999999999999
 20
-3.2000000000000002
 30
0.0
 10
-117.09999999999999
 20
-3.2000000000000002
 30
0.0
 10
-117.09999999999999
 20
-3.2000000000000002
 30
0.0
 10
-117.09999999999999
 20
-3.2000000000000002
 30
0.0
 10
-96.900000000000006
 20
-12.699999999999999
 30
0.0
 10
-96.900000000000006
 20
-12.699999999999999
 30
0.0
 10
-96.900000000000006
 20
-12.699999999999999
 30
0.0
 10
-96.900000000000006
 20
-12.699999999999999
 30
0.0
 10
-87.0
 20
-16.0
 30
0.0
 10
-87.0
 20
-16.0
 30
0.0
  0
SPLINE
  5
37
100
AcDbEntity
  8
0
 62
     7
100
AcDbSpline
210
0.0
220
0.0
230
1.0
 70
     1
 71
     3
 72
    84
 73
    80
 74
     0
 42
0.0000000001
 43
0.0000000001
 40
0.0
 40
0.0
 40
0.0
 40
0.0
 40
0.05
 40
0.05
 40
0.05
 40
0.05
 40
0.1
 40
0.1
 40
0.1
 40
0.1
 40
0.15
 40
0.15
 40
0.15
 40
0.15
 40
0.2
 40
0.2
 40
0.2
 40
0.2
 40
0.25
 40
0.25
 40
0.25
 40
0.25
 40
0.3
 40
0.3
 40
0.3
 40
0.3
 40
0.35
 40
0.35
 40
0.35
 40
0.35
 40
0.4
 40
0.4
 40
0.4
 40
0.4
 40
0.45
 40
0.45
 40
0.45
 40
0.45
 40
0.4999999999999999
 40
0.4999999999999999
 40
0.4999999999999999
 40
0.4999999999999999
 40
0.5499999999999999
 40
0.5499999999999999
 40
0.5499999999999999
 40
0.5499999999999999
 40
0.6
 40
0.6
 40
0.6
 40
0.6
 40
0.65
 40
0.65
 40
0.65
 40
0.65
 40
0.7000000000000001
 40
0.7000000000000001
 40
0.7000000000000001
 40
0.7000000000000001
 40
0.7500000000000001
 40
0.7500000000000001
 40
0.7500000000000001
 40
0.7500000000000001
 40
0.8000000000000002
 40
0.8000000000000002
 40
0.8000000000000002
 40
0.8000000000000002
 40
0.8500000000000002
 40
0.8500000000000002
 40
0.8500000000000002
 40
0.8500000000000002
 40
0.9000000000000002
 40
0.9000000000000002
 40
0.9000000000000002
 40
0.9000000000000002
 40
0.9500000000000003
 40
0.9500000000000003
 40
0.9500000000000003
 40
0.9500000000000003
 40
1.0
 40
1.0
 40
1.0
 40
1.0
 10
-74.0
 20
-106.0
 30
0.0
 10
-74.0
 20
-106.0
 30
0.0
 10
-70.099999999999994
 20
-103.8
 30
0.0
 10
-70.099999999999994
 20
-103.8
 30
0.0
 10
-70.099999999999994
 20
-103.8
 30
0.0
 10
-70.099999999999994
 20
-103.8
 30
0.0
 10
-50.216799999999999
 20
-90.752200000000002
 30
0.0
 10
-50.216799999999999
 20
-90.752200000000002
 30
0.0
 10
-50.216799999999999
 20
-90.752200000000002
 30
0.0
 10
-50.216799999999999
 20
-90.752200000000002
 30
0.0
 10
-35.0
 20
-77.0
 30
0.0
 10
-35.0
 20
-77.0
 30
0.0
 10
-35.0
 20
-77.0
 30
0.0
 10
-35.0
 20
-77.0
 30
0.0
 10
-33.230699999999999
 20
-73.846100000000007
 30
0.0
 10
-33.230699999999999
 20
-73.846100000000007
 30
0.0
 10
-33.230699999999999
 20
-73.846100000000007
 30
0.0
 10
-33.230699999999999
 20
-73.846100000000007
 30
0.0
 10
-28.230699999999999
 20
-65.846100000000007
 30
0.0
 10
-28.230699999999999
 20
-65.846100000000007
 30
0.0
 10
-28.230699999999999
 20
-65.846100000000007
 30
0.0
 10
-28.230699999999999
 20
-65.846100000000007
 30
0.0
 10
-24.352900000000002
 20
-52.911700000000003
 30
0.0
 10
-24.352900000000002
 20
-52.911700000000003
 30
0.0
 10
-24.352900000000002
 20
-52.911700000000003
 30
0.0
 10
-24.352900000000002
 20
-52.911700000000003
 30
0.0
 10
-23.646999999999998
 20
-50.088200000000001
 30
0.0
 10
-23.646999999999998
 20
-50.088200000000001
 30
0.0
 10
-23.646999999999998
 20
-50.088200000000001
 30
0.0
 10
-23.646999999999998
 20
-50.088200000000001
 30
0.0
 10
-22.0
 20
-37.0
 30
0.0
 10
-22.0
 20
-37.0
 30
0.0
 10
-22.0
 20
-37.0
 30
0.0
 10
-22.0
 20
-37.0
 30
0.0
 10
-22.0
 20
-20.0
 30
0.0
 10
-22.0
 20
-20.0
 30
0.0
 10
-22.0
 20
-20.0
 30
0.0
 10
-22.0
 20
-20.0
 30
0.0
 10
-24.0
 20
-18.0
 30
0.0
 10
-24.0
 20
-18.0
 30
0.0
 10
-24.0
 20
-18.0
 30
0.0
 10
-24.0
 20
-18.0
 30
0.0
 10
-29.8461
 20
-21.230699999999999
 30
0.0
 10
-29.8461
 20
-21.230699999999999
 30
0.0
 10
-29.8461
 20
-21.230699999999999
 30
0.0
 10
-29.8461
 20
-21.230699999999999
 30
0.0
 10
-32.153799999999997
 20
-22.769200000000001
 30
0.0
 10
-32.153799999999997
 20
-22.769200000000001
 30
0.0
 10
-32.153799999999997
 20
-22.769200000000001
 30
0.0
 10
-32.153799999999997
 20
-22.769200000000001
 30
0.0
 10
-55.0
 20
-38.0
 30
0.0
 10
-55.0
 20
-38.0
 30
0.0
 10
-55.0
 20
-38.0
 30
0.0
 10
-55.0
 20
-38.0
 30
0.0
 10
-65.0
 20
-48.0
 30
0.0
 10
-65.0
 20
-48.0
 30
0.0
 10
-65.0
 20
-48.0
 30
0.0
 10
-65.0
 20
-48.0
 30
0.0
 10
-69.700000000000003
 20
-59.100000000000001
 30
0.0
 10
-69.700000000000003
 20
-59.100000000000001
 30
0.0
 10
-69.700000000000003
 20
-59.100000000000001
 30
0.0
 10
-69.700000000000003
 20
-59.100000000000001
 30
0.0
 10
-71.352900000000005
 20
-64.911699999999996
 30
0.0
 10
-71.352900000000005
 20
-64.911699999999996
 30
0.0
 10
-71.352900000000005
 20
-64.911699999999996
 30
0.0
 10
-71.352900000000005
 20
-64.911699999999996
 30
0.0
 10
-76.0
 20
-94.0
 30
0.0
 10
-76.0
 20
-94.0
 30
0.0
 10
-76.0
 20
-94.0
 30
0.0
 10
-76.0
 20
-94.0
 30
0.0
 10
-76.0
 20
-103.0
 30
0.0
 10
-76.0
 20
-103.0
 30
0.0
 10
-76.0
 20
-103.0
 30
0.0
 10
-76.0
 20
-103.0
 30
0.0
 10
-74.799999999999997
 20
-104.90000000000001
 30
0.0
 10
-74.799999999999997
 20
-104.90000000000001
 30
0.0
 10
-74.799999999999997
 20
-104.90000000000001
 30
0.0
 10
-74.799999999999997
 20
-104.90000000000001
 30
0.0
 10
-74.0
 20
-106.0
 30
0.0
 10
-74.0
 20
-106.0
 30
0.0
  0
SPLINE
  5
38
100
AcDbEntity
  8
0
 62
     7
100
AcDbSpline
210
0.0
220
0.0
230
1.0
 70
     1
 71
     3
 72
    72
 73
    68
 74
     0
 42
0.0000000001
 43
0.0000000001
 40
0.0
 40
0.0
 40
0.0
 40
0.0
 40
0.0588235294117647
 40
0.0588235294117647
 40
0.0588235294117647
 40
0.0588235294117647
 40
0.1176470588235294
 40
0.1176470588235294
 40
0.1176470588235294
 40
0.1176470588235294
 40
0.1764705882352941
 40
0.1764705882352941
 40
0.1764705882352941
 40
0.1764705882352941
 40
0.2352941176470588
 40
0.2352941176470588
 40
0.2352941176470588
 40
0.2352941176470588
 40
0.2941176470588235
 40
0.2941176470588235
 40
0.2941176470588235
 40
0.2941176470588235
 40
0.3529411764705883
 40
0.3529411764705883
 40
0.3529411764705883
 40
0.3529411764705883
 40
0.411764705882353
 40
0.411764705882353
 40
0.411764705882353
 40
0.411764705882353
 40
0.4705882352941177
 40
0.4705882352941177
 40
0.4705882352941177
 40
0.4705882352941177
 40
0.5294117647058824
 40
0.5294117647058824
 40
0.5294117647058824
 40
0.5294117647058824
 40
0.5882352941176471
 40
0.5882352941176471
 40
0.5882352941176471
 40
0.5882352941176471
 40
0.6470588235294118
 40
0.6470588235294118
 40
0.6470588235294118
 40
0.6470588235294118
 40
0.7058823529411765
 40
0.7058823529411765
 40
0.7058823529411765
 40
0.7058823529411765
 40
0.7647058823529412
 40
0.7647058823529412
 40
0.7647058823529412
 40
0.7647058823529412
 40
0.823529411764706
 40
0.823529411764706
 40
0.823529411764706
 40
0.823529411764706
 40
0.8823529411764707
 40
0.8823529411764707
 40
0.8823529411764707
 40
0.8823529411764707
 40
0.9411764705882354
 40
0.9411764705882354
 40
0.9411764705882354
 40
0.9411764705882354
 40
1.0
 40
1.0
 40
1.0
 40
1.0
 10
56.0
 20
-107.0
 30
0.0
 10
56.0
 20
-107.0
 30
0.0
 10
58.0
 20
-102.0
 30
0.0
 10
58.0
 20
-102.0
 30
0.0
 10
58.0
 20
-102.0
 30
0.0
 10
58.0
 20
-102.0
 30
0.0
 10
55.430700000000002
 20
-75.946100000000001
 30
0.0
 10
55.430700000000002
 20
-75.946100000000001
 30
0.0
 10
55.430700000000002
 20
-75.946100000000001
 30
0.0
 10
55.430700000000002
 20
-75.946100000000001
 30
0.0
 10
53.615299999999998
 20
-64.076899999999995
 30
0.0
 10
53.615299999999998
 20
-64.076899999999995
 30
0.0
 10
53.615299999999998
 20
-64.076899999999995
 30
0.0
 10
53.615299999999998
 20
-64.076899999999995
 30
0.0
 10
47.759999999999998
 20
-52.18
 30
0.0
 10
47.759999999999998
 20
-52.18
 30
0.0
 10
47.759999999999998
 20
-52.18
 30
0.0
 10
47.759999999999998
 20
-52.18
 30
0.0
 10
43.0
 20
-45.0
 30
0.0
 10
43.0
 20
-45.0
 30
0.0
 10
43.0
 20
-45.0
 30
0.0
 10
43.0
 20
-45.0
 30
0.0
 10
26.204899999999999
 20
-29.754000000000001
 30
0.0
 10
26.204899999999999
 20
-29.754000000000001
 30
0.0
 10
26.204899999999999
 20
-29.754000000000001
 30
0.0
 10
26.204899999999999
 20
-29.754000000000001
 30
0.0
 10
15.8048
 20
-21.2439
 30
0.0
 10
15.8048
 20
-21.2439
 30
0.0
 10
15.8048
 20
-21.2439
 30
0.0
 10
15.8048
 20
-21.2439
 30
0.0
 10
10.0
 20
-19.0
 30
0.0
 10
10.0
 20
-19.0
 30
0.0
 10
10.0
 20
-19.0
 30
0.0
 10
10.0
 20
-19.0
 30
0.0
 10
8.0
 20
-21.0
 30
0.0
 10
8.0
 20
-21.0
 30
0.0
 10
8.0
 20
-21.0
 30
0.0
 10
8.0
 20
-21.0
 30
0.0
 10
6.0
 20
-33.0
 30
0.0
 10
6.0
 20
-33.0
 30
0.0
 10
6.0
 20
-33.0
 30
0.0
 10
6.0
 20
-33.0
 30
0.0
 10
6.0
 20
-58.0
 30
0.0
 10
6.0
 20
-58.0
 30
0.0
 10
6.0
 20
-58.0
 30
0.0
 10
6.0
 20
-58.0
 30
0.0
 10
9.1999999999999993
 20
-66.900000000000006
 30
0.0
 10
9.1999999999999993
 20
-66.900000000000006
 30
0.0
 10
9.1999999999999993
 20
-66.900000000000006
 30
0.0
 10
9.1999999999999993
 20
-66.900000000000006
 30
0.0
 10
13.7692
 20
-74.153800000000004
 30
0.0
 10
13.7692
 20
-74.153800000000004
 30
0.0
 10
13.7692
 20
-74.153800000000004
 30
0.0
 10
13.7692
 20
-74.153800000000004
 30
0.0
 10
21.0
 20
-82.0
 30
0.0
 10
21.0
 20
-82.0
 30
0.0
 10
21.0
 20
-82.0
 30
0.0
 10
21.0
 20
-82.0
 30
0.0
 10
42.204900000000002
 20
-99.754000000000005
 30
0.0
 10
42.204900000000002
 20
-99.754000000000005
 30
0.0
 10
42.204900000000002
 20
-99.754000000000005
 30
0.0
 10
42.204900000000002
 20
-99.754000000000005
 30
0.0
 10
50.100000000000001
 20
-104.8
 30
0.0
 10
50.100000000000001
 20
-104.8
 30
0.0
 10
50.100000000000001
 20
-104.8
 30
0.0
 10
50.100000000000001
 20
-104.8
 30
0.0
 10
56.0
 20
-107.0
 30
0.0
 10
56.0
 20
-107.0
 30
0.0
  0
SPLINE
  5
39
100
AcDbEntity
  8
0
 62
     7
100
AcDbSpline
210
0.0
220
0.0
230
1.0
 70
     1
 71
     3
 72
    80
 73
    76
 74
     0
 42
0.0000000001
 43
0.0000000001
 40
0.0
 40
0.0
 40
0.0
 40
0.0
 40
0.0526315789473684
 40
0.0526315789473684
 40
0.0526315789473684
 40
0.0526315789473684
 40
0.1052631578947368
 40
0.1052631578947368
 40
0.1052631578947368
 40
0.1052631578947368
 40
0.1578947368421053
 40
0.1578947368421053
 40
0.1578947368421053
 40
0.1578947368421053
 40
0.2105263157894737
 40
0.2105263157894737
 40
0.2105263157894737
 40
0.2105263157894737
 40
0.2631578947368421
 40
0.2631578947368421
 40
0.2631578947368421
 40
0.2631578947368421
 40
0.3157894736842105
 40
0.3157894736842105
 40
0.3157894736842105
 40
0.3157894736842105
 40
0.3684210526315789
 40
0.3684210526315789
 40
0.3684210526315789
 40
0.3684210526315789
 40
0.4210526315789474
 40
0.4210526315789474
 40
0.4210526315789474
 40
0.4210526315789474
 40
0.4736842105263158
 40
0.4736842105263158
 40
0.4736842105263158
 40
0.4736842105263158
 40
0.5263157894736842
 40
0.5263157894736842
 40
0.5263157894736842
 40
0.5263157894736842
 40
0.5789473684210527
 40
0.5789473684210527
 40
0.5789473684210527
 40
0.5789473684210527
 40
0.631578947368421
 40
0.631578947368421
 40
0.631578947368421
 40
0.631578947368421
 40
0.6842105263157894
 40
0.6842105263157894
 40
0.6842105263157894
 40
0.6842105263157894
 40
0.7368421052631577
 40
0.7368421052631577
 40
0.7368421052631577
 40
0.7368421052631577
 40
0.7894736842105261
 40
0.7894736842105261
 40
0.7894736842105261
 40
0.7894736842105261
 40
0.8421052631578945
 40
0.8421052631578945
 40
0.8421052631578945
 40
0.8421052631578945
 40
0.8947368421052628
 40
0.8947368421052628
 40
0.8947368421052628
 40
0.8947368421052628
 40
0.9473684210526312
 40
0.9473684210526312
 40
0.9473684210526312
 40
0.9473684210526312
 40
1.0
 40
1.0
 40
1.0
 40
1.0
 10
-176.0
 20
-117.0
 30
0.0
 10
-176.0
 20
-117.0
 30
0.0
 10
-173.0
 20
-116.0
 30
0.0
 10
-173.0
 20
-116.0
 30
0.0
 10
-173.0
 20
-116.0
 30
0.0
 10
-173.0
 20
-116.0
 30
0.0
 10
-170.70580000000001
 20
-111.8235
 30
0.0
 10
-170.70580000000001
 20
-111.8235
 30
0.0
 10
-170.70580000000001
 20
-111.8235
 30
0.0
 10
-170.70580000000001
 20
-111.8235
 30
0.0
 10
-169.58000000000001
 20
-106.06
 30
0.0
 10
-169.58000000000001
 20
-106.06
 30
0.0
 10
-169.58000000000001
 20
-106.06
 30
0.0
 10
-169.58000000000001
 20
-106.06
 30
0.0
 10
-169.0
 20
-98.0
 30
0.0
 10
-169.0
 20
-98.0
 30
0.0
 10
-169.0
 20
-98.0
 30
0.0
 10
-169.0
 20
-98.0
 30
0.0
 10
-172.35290000000001
 20
-87.088200000000001
 30
0.0
 10
-172.35290000000001
 20
-87.088200000000001
 30
0.0
 10
-172.35290000000001
 20
-87.088200000000001
 30
0.0
 10
-172.35290000000001
 20
-87.088200000000001
 30
0.0
 10
-173.24000000000001
 20
-85.180000000000007
 30
0.0
 10
-173.24000000000001
 20
-85.180000000000007
 30
0.0
 10
-173.24000000000001
 20
-85.180000000000007
 30
0.0
 10
-173.24000000000001
 20
-85.180000000000007
 30
0.0
 10
-180.0
 20
-77.0
 30
0.0
 10
-180.0
 20
-77.0
 30
0.0
 10
-180.0
 20
-77.0
 30
0.0
 10
-180.0
 20
-77.0
 30
0.0
 10
-184.18000000000001
 20
-74.239999999999995
 30
0.0
 10
-184.18000000000001
 20
-74.239999999999995
 30
0.0
 10
-184.18000000000001
 20
-74.239999999999995
 30
0.0
 10
-184.18000000000001
 20
-74.239999999999995
 30
0.0
 10
-195.0
 20
-69.0
 30
0.0
 10
-195.0
 20
-69.0
 30
0.0
 10
-195.0
 20
-69.0
 30
0.0
 10
-195.0
 20
-69.0
 30
0.0
 10
-204.0
 20
-77.0
 30
0.0
 10
-204.0
 20
-77.0
 30
0.0
 10
-204.0
 20
-77.0
 30
0.0
 10
-204.0
 20
-77.0
 30
0.0
 10
-205.0
 20
-83.0
 30
0.0
 10
-205.0
 20
-83.0
 30
0.0
 10
-205.0
 20
-83.0
 30
0.0
 10
-205.0
 20
-83.0
 30
0.0
 10
-201.0
 20
-88.0
 30
0.0
 10
-201.0
 20
-88.0
 30
0.0
 10
-201.0
 20
-88.0
 30
0.0
 10
-201.0
 20
-88.0
 30
0.0
 10
-200.0
 20
-88.0
 30
0.0
 10
-200.0
 20
-88.0
 30
0.0
 10
-200.0
 20
-88.0
 30
0.0
 10
-200.0
 20
-88.0
 30
0.0
 10
-189.76920000000001
 20
-98.846100000000007
 30
0.0
 10
-189.76920000000001
 20
-98.846100000000007
 30
0.0
 10
-189.76920000000001
 20
-98.846100000000007
 30
0.0
 10
-189.76920000000001
 20
-98.846100000000007
 30
0.0
 10
-187.40539999999999
 20
-103.0675
 30
0.0
 10
-187.40539999999999
 20
-103.0675
 30
0.0
 10
-187.40539999999999
 20
-103.0675
 30
0.0
 10
-187.40539999999999
 20
-103.0675
 30
0.0
 10
-186.0
 20
-113.0
 30
0.0
 10
-186.0
 20
-113.0
 30
0.0
 10
-186.0
 20
-113.0
 30
0.0
 10
-186.0
 20
-113.0
 30
0.0
 10
-183.0
 20
-116.0
 30
0.0
 10
-183.0
 20
-116.0
 30
0.0
 10
-183.0
 20
-116.0
 30
0.0
 10
-183.0
 20
-116.0
 30
0.0
 10
-178.9117
 20
-116.64700000000001
 30
0.0
 10
-178.9117
 20
-116.64700000000001
 30
0.0
 10
-178.9117
 20
-116.64700000000001
 30
0.0
 10
-178.9117
 20
-116.64700000000001
 30
0.0
 10
-176.0
 20
-117.0
 30
0.0
 10
-176.0
 20
-117.0
 30
0.0
  0
SPLINE
  5
3A
100
AcDbEntity
  8
0
 62
     7
100
AcDbSpline
210
0.0
220
0.0
230
1.0
 70
     1
 71
     3
 72
   112
 73
   108
 74
     0
 42
0.0000000001
 43
0.0000000001
 40
0.0
 40
0.0
 40
0.0
 40
0.0
 40
0.037037037037037
 40
0.037037037037037
 40
0.037037037037037
 40
0.037037037037037
 40
0.0740740740740741
 40
0.0740740740740741
 40
0.0740740740740741
 40
0.0740740740740741
 40
0.1111111111111111
 40
0.1111111111111111
 40
0.1111111111111111
 40
0.1111111111111111
 40
0.1481481481481481
 40
0.1481481481481481
 40
0.1481481481481481
 40
0.1481481481481481
 40
0.1851851851851852
 40
0.1851851851851852
 40
0.1851851851851852
 40
0.1851851851851852
 40
0.2222222222222222
 40
0.2222222222222222
 40
0.2222222222222222
 40
0.2222222222222222
 40
0.2592592592592592
 40
0.2592592592592592
 40
0.2592592592592592
 40
0.2592592592592592
 40
0.2962962962962963
 40
0.2962962962962963
 40
0.2962962962962963
 40
0.2962962962962963
 40
0.3333333333333333
 40
0.3333333333333333
 40
0.3333333333333333
 40
0.3333333333333333
 40
0.3703703703703704
 40
0.3703703703703704
 40
0.3703703703703704
 40
0.3703703703703704
 40
0.4074074074074074
 40
0.4074074074074074
 40
0.4074074074074074
 40
0.4074074074074074
 40
0.4444444444444444
 40
0.4444444444444444
 40
0.4444444444444444
 40
0.4444444444444444
 40
0.4814814814814815
 40
0.4814814814814815
 40
0.4814814814814815
 40
0.4814814814814815
 40
0.5185185185185185
 40
0.5185185185185185
 40
0.5185185185185185
 40
0.5185185185185185
 40
0.5555555555555556
 40
0.5555555555555556
 40
0.5555555555555556
 40
0.5555555555555556
 40
0.5925925925925926
 40
0.5925925925925926
 40
0.5925925925925926
 40
0.5925925925925926
 40
0.6296296296296295
 40
0.6296296296296295
 40
0.6296296296296295
 40
0.6296296296296295
 40
0.6666666666666665
 40
0.6666666666666665
 40
0.6666666666666665
 40
0.6666666666666665
 40
0.7037037037037035
 40
0.7037037037037035
 40
0.7037037037037035
 40
0.7037037037037035
 40
0.7407407407407405
 40
0.7407407407407405
 40
0.7407407407407405
 40
0.7407407407407405
 40
0.7777777777777775
 40
0.7777777777777775
 40
0.7777777777777775
 40
0.7777777777777775
 40
0.8148148148148144
 40
0.8148148148148144
 40
0.8148148148148144
 40
0.8148148148148144
 40
0.8518518518518514
 40
0.8518518518518514
 40
0.8518518518518514
 40
0.8518518518518514
 40
0.8888888888888884
 40
0.8888888888888884
 40
0.8888888888888884
 40
0.8888888888888884
 40
0.9259259259259254
 40
0.9259259259259254
 40
0.9259259259259254
 40
0.9259259259259254
 40
0.9629629629629624
 40
0.9629629629629624
 40
0.9629629629629624
 40
0.9629629629629624
 40
1.0
 40
1.0
 40
1.0
 40
1.0
 10
-106.0
 20
-117.0
 30
0.0
 10
-106.0
 20
-117.0
 30
0.0
 10
-104.9117
 20
-116.35290000000001
 30
0.0
 10
-104.9117
 20
-116.35290000000001
 30
0.0
 10
-104.9117
 20
-116.35290000000001
 30
0.0
 10
-104.9117
 20
-116.35290000000001
 30
0.0
 10
-102.0
 20
-116.0
 30
0.0
 10
-102.0
 20
-116.0
 30
0.0
 10
-102.0
 20
-116.0
 30
0.0
 10
-102.0
 20
-116.0
 30
0.0
 10
-99.0
 20
-113.0
 30
0.0
 10
-99.0
 20
-113.0
 30
0.0
 10
-99.0
 20
-113.0
 30
0.0
 10
-99.0
 20
-113.0
 30
0.0
 10
-98.470699999999994
 20
-102.9738
 30
0.0
 10
-98.470699999999994
 20
-102.9738
 30
0.0
 10
-98.470699999999994
 20
-102.9738
 30
0.0
 10
-98.470699999999994
 20
-102.9738
 30
0.0
 10
-97.0
 20
-85.0
 30
0.0
 10
-97.0
 20
-85.0
 30
0.0
 10
-97.0
 20
-85.0
 30
0.0
 10
-97.0
 20
-85.0
 30
0.0
 10
-97.0
 20
-55.0
 30
0.0
 10
-97.0
 20
-55.0
 30
0.0
 10
-97.0
 20
-55.0
 30
0.0
 10
-97.0
 20
-55.0
 30
0.0
 10
-97.615300000000005
 20
-53.923000000000002
 30
0.0
 10
-97.615300000000005
 20
-53.923000000000002
 30
0.0
 10
-97.615300000000005
 20
-53.923000000000002
 30
0.0
 10
-97.615300000000005
 20
-53.923000000000002
 30
0.0
 10
-100.0
 20
-45.0
 30
0.0
 10
-100.0
 20
-45.0
 30
0.0
 10
-100.0
 20
-45.0
 30
0.0
 10
-100.0
 20
-45.0
 30
0.0
 10
-110.0
 20
-35.0
 30
0.0
 10
-110.0
 20
-35.0
 30
0.0
 10
-110.0
 20
-35.0
 30
0.0
 10
-110.0
 20
-35.0
 30
0.0
 10
-137.09999999999999
 20
-19.199999999999999
 30
0.0
 10
-137.09999999999999
 20
-19.199999999999999
 30
0.0
 10
-137.09999999999999
 20
-19.199999999999999
 30
0.0
 10
-137.09999999999999
 20
-19.199999999999999
 30
0.0
 10
-137.90000000000001
 20
-18.800000000000001
 30
0.0
 10
-137.90000000000001
 20
-18.800000000000001
 30
0.0
 10
-137.90000000000001
 20
-18.800000000000001
 30
0.0
 10
-137.90000000000001
 20
-18.800000000000001
 30
0.0
 10
-153.0
 20
-12.0
 30
0.0
 10
-153.0
 20
-12.0
 30
0.0
 10
-153.0
 20
-12.0
 30
0.0
 10
-153.0
 20
-12.0
 30
0.0
 10
-160.0
 20
-12.0
 30
0.0
 10
-160.0
 20
-12.0
 30
0.0
 10
-160.0
 20
-12.0
 30
0.0
 10
-160.0
 20
-12.0
 30
0.0
 10
-167.0
 20
-17.0
 30
0.0
 10
-167.0
 20
-17.0
 30
0.0
 10
-167.0
 20
-17.0
 30
0.0
 10
-167.0
 20
-17.0
 30
0.0
 10
-168.0
 20
-19.0
 30
0.0
 10
-168.0
 20
-19.0
 30
0.0
 10
-168.0
 20
-19.0
 30
0.0
 10
-168.0
 20
-19.0
 30
0.0
 10
-166.19999999999999
 20
-23.100000000000001
 30
0.0
 10
-166.19999999999999
 20
-23.100000000000001
 30
0.0
 10
-166.19999999999999
 20
-23.100000000000001
 30
0.0
 10
-166.19999999999999
 20
-23.100000000000001
 30
0.0
 10
-166.0
 20
-24.0
 30
0.0
 10
-166.0
 20
-24.0
 30
0.0
 10
-166.0
 20
-24.0
 30
0.0
 10
-166.0
 20
-24.0
 30
0.0
 10
-158.15379999999999
 20
-29.230699999999999
 30
0.0
 10
-158.15379999999999
 20
-29.230699999999999
 30
0.0
 10
-158.15379999999999
 20
-29.230699999999999
 30
0.0
 10
-158.15379999999999
 20
-29.230699999999999
 30
0.0
 10
-146.84610000000001
 20
-36.769199999999998
 30
0.0
 10
-146.84610000000001
 20
-36.769199999999998
 30
0.0
 10
-146.84610000000001
 20
-36.769199999999998
 30
0.0
 10
-146.84610000000001
 20
-36.769199999999998
 30
0.0
 10
-130.0
 20
-47.0
 30
0.0
 10
-130.0
 20
-47.0
 30
0.0
 10
-130.0
 20
-47.0
 30
0.0
 10
-130.0
 20
-47.0
 30
0.0
 10
-120.0
 20
-57.0
 30
0.0
 10
-120.0
 20
-57.0
 30
0.0
 10
-120.0
 20
-57.0
 30
0.0
 10
-120.0
 20
-57.0
 30
0.0
 10
-119.35290000000001
 20
-59.088200000000001
 30
0.0
 10
-119.35290000000001
 20
-59.088200000000001
 30
0.0
 10
-119.35290000000001
 20
-59.088200000000001
 30
0.0
 10
-119.35290000000001
 20
-59.088200000000001
 30
0.0
 10
-118.64700000000001
 20
-61.911700000000003
 30
0.0
 10
-118.64700000000001
 20
-61.911700000000003
 30
0.0
 10
-118.64700000000001
 20
-61.911700000000003
 30
0.0
 10
-118.64700000000001
 20
-61.911700000000003
 30
0.0
 10
-113.0
 20
-114.0
 30
0.0
 10
-113.0
 20
-114.0
 30
0.0
 10
-113.0
 20
-114.0
 30
0.0
 10
-113.0
 20
-114.0
 30
0.0
 10
-111.0
 20
-116.0
 30
0.0
 10
-111.0
 20
-116.0
 30
0.0
 10
-111.0
 20
-116.0
 30
0.0
 10
-111.0
 20
-116.0
 30
0.0
 10
-108.9117
 20
-116.64700000000001
 30
0.0
 10
-108.9117
 20
-116.64700000000001
 30
0.0
 10
-108.9117
 20
-116.64700000000001
 30
0.0
 10
-108.9117
 20
-116.64700000000001
 30
0.0
 10
-106.0
 20
-117.0
 30
0.0
 10
-106.0
 20
-117.0
 30
0.0
  0
SPLINE
  5
3B
100
AcDbEntity
  8
0
 62
     7
100
AcDbSpline
210
0.0
220
0.0
230
1.0
 70
     1
 71
     3
 72
   104
 73
   100
 74
     0
 42
0.0000000001
 43
0.0000000001
 40
0.0
 40
0.0
 40
0.0
 40
0.0
 40
0.04
 40
0.04
 40
0.04
 40
0.04
 40
0.08
 40
0.08
 40
0.08
 40
0.08
 40
0.12
 40
0.12
 40
0.12
 40
0.12
 40
0.16
 40
0.16
 40
0.16
 40
0.16
 40
0.2
 40
0.2
 40
0.2
 40
0.2
 40
0.24
 40
0.24
 40
0.24
 40
0.24
 40
0.28
 40
0.28
 40
0.28
 40
0.28
 40
0.32
 40
0.32
 40
0.32
 40
0.32
 40
0.36
 40
0.36
 40
0.36
 40
0.36
 40
0.4
 40
0.4
 40
0.4
 40
0.4
 40
0.44
 40
0.44
 40
0.44
 40
0.44
 40
0.4799999999999999
 40
0.4799999999999999
 40
0.4799999999999999
 40
0.4799999999999999
 40
0.5199999999999999
 40
0.5199999999999999
 40
0.5199999999999999
 40
0.5199999999999999
 40
0.5599999999999999
 40
0.5599999999999999
 40
0.5599999999999999
 40
0.5599999999999999
 40
0.6
 40
0.6
 40
0.6
 40
0.6
 40
0.64
 40
0.64
 40
0.64
 40
0.64
 40
0.6800000000000001
 40
0.6800000000000001
 40
0.6800000000000001
 40
0.6800000000000001
 40
0.7200000000000001
 40
0.7200000000000001
 40
0.7200000000000001
 40
0.7200000000000001
 40
0.7600000000000001
 40
0.7600000000000001
 40
0.7600000000000001
 40
0.7600000000000001
 40
0.8000000000000002
 40
0.8000000000000002
 40
0.8000000000000002
 40
0.8000000000000002
 40
0.8400000000000002
 40
0.8400000000000002
 40
0.8400000000000002
 40
0.8400000000000002
 40
0.8800000000000002
 40
0.8800000000000002
 40
0.8800000000000002
 40
0.8800000000000002
 40
0.9200000000000003
 40
0.9200000000000003
 40
0.9200000000000003
 40
0.9200000000000003
 40
0.9600000000000003
 40
0.9600000000000003
 40
0.9600000000000003
 40
0.9600000000000003
 40
1.0
 40
1.0
 40
1.0
 40
1.0
 10
-140.0
 20
-118.0
 30
0.0
 10
-140.0
 20
-118.0
 30
0.0
 10
-136.0
 20
-116.0
 30
0.0
 10
-136.0
 20
-116.0
 30
0.0
 10
-136.0
 20
-116.0
 30
0.0
 10
-136.0
 20
-116.0
 30
0.0
 10
-133.45509999999999
 20
-106.962
 30
0.0
 10
-133.45509999999999
 20
-106.962
 30
0.0
 10
-133.45509999999999
 20
-106.962
 30
0.0
 10
-133.45509999999999
 20
-106.962
 30
0.0
 10
-132.0
 20
-95.0
 30
0.0
 10
-132.0
 20
-95.0
 30
0.0
 10
-132.0
 20
-95.0
 30
0.0
 10
-132.0
 20
-95.0
 30
0.0
 10
-132.55439999999999
 20
-80.955399999999997
 30
0.0
 10
-132.55439999999999
 20
-80.955399999999997
 30
0.0
 10
-132.55439999999999
 20
-80.955399999999997
 30
0.0
 10
-132.55439999999999
 20
-80.955399999999997
 30
0.0
 10
-133.69999999999999
 20
-70.900000000000006
 30
0.0
 10
-133.69999999999999
 20
-70.900000000000006
 30
0.0
 10
-133.69999999999999
 20
-70.900000000000006
 30
0.0
 10
-133.69999999999999
 20
-70.900000000000006
 30
0.0
 10
-136.24000000000001
 20
-64.180000000000007
 30
0.0
 10
-136.24000000000001
 20
-64.180000000000007
 30
0.0
 10
-136.24000000000001
 20
-64.180000000000007
 30
0.0
 10
-136.24000000000001
 20
-64.180000000000007
 30
0.0
 10
-139.0
 20
-60.0
 30
0.0
 10
-139.0
 20
-60.0
 30
0.0
 10
-139.0
 20
-60.0
 30
0.0
 10
-139.0
 20
-60.0
 30
0.0
 10
-143.90000000000001
 20
-55.799999999999997
 30
0.0
 10
-143.90000000000001
 20
-55.799999999999997
 30
0.0
 10
-143.90000000000001
 20
-55.799999999999997
 30
0.0
 10
-143.90000000000001
 20
-55.799999999999997
 30
0.0
 10
-164.09999999999999
 20
-45.299999999999997
 30
0.0
 10
-164.09999999999999
 20
-45.299999999999997
 30
0.0
 10
-164.09999999999999
 20
-45.299999999999997
 30
0.0
 10
-164.09999999999999
 20
-45.299999999999997
 30
0.0
 10
-165.90000000000001
 20
-44.700000000000003
 30
0.0
 10
-165.90000000000001
 20
-44.700000000000003
 30
0.0
 10
-165.90000000000001
 20
-44.700000000000003
 30
0.0
 10
-165.90000000000001
 20
-44.700000000000003
 30
0.0
 10
-174.0
 20
-42.0
 30
0.0
 10
-174.0
 20
-42.0
 30
0.0
 10
-174.0
 20
-42.0
 30
0.0
 10
-174.0
 20
-42.0
 30
0.0
 10
-183.0
 20
-42.0
 30
0.0
 10
-183.0
 20
-42.0
 30
0.0
 10
-183.0
 20
-42.0
 30
0.0
 10
-183.0
 20
-42.0
 30
0.0
 10
-185.0
 20
-43.0
 30
0.0
 10
-185.0
 20
-43.0
 30
0.0
 10
-185.0
 20
-43.0
 30
0.0
 10
-185.0
 20
-43.0
 30
0.0
 10
-186.19999999999999
 20
-44.899999999999999
 30
0.0
 10
-186.19999999999999
 20
-44.899999999999999
 30
0.0
 10
-186.19999999999999
 20
-44.899999999999999
 30
0.0
 10
-186.19999999999999
 20
-44.899999999999999
 30
0.0
 10
-187.0
 20
-46.0
 30
0.0
 10
-187.0
 20
-46.0
 30
0.0
 10
-187.0
 20
-46.0
 30
0.0
 10
-187.0
 20
-46.0
 30
0.0
 10
-186.19999999999999
 20
-49.100000000000001
 30
0.0
 10
-186.19999999999999
 20
-49.100000000000001
 30
0.0
 10
-186.19999999999999
 20
-49.100000000000001
 30
0.0
 10
-186.19999999999999
 20
-49.100000000000001
 30
0.0
 10
-185.0
 20
-52.0
 30
0.0
 10
-185.0
 20
-52.0
 30
0.0
 10
-185.0
 20
-52.0
 30
0.0
 10
-185.0
 20
-52.0
 30
0.0
 10
-179.0
 20
-58.0
 30
0.0
 10
-179.0
 20
-58.0
 30
0.0
 10
-179.0
 20
-58.0
 30
0.0
 10
-179.0
 20
-58.0
 30
0.0
 10
-166.90000000000001
 20
-65.799999999999997
 30
0.0
 10
-166.90000000000001
 20
-65.799999999999997
 30
0.0
 10
-166.90000000000001
 20
-65.799999999999997
 30
0.0
 10
-166.90000000000001
 20
-65.799999999999997
 30
0.0
 10
-160.0
 20
-71.0
 30
0.0
 10
-160.0
 20
-71.0
 30
0.0
 10
-160.0
 20
-71.0
 30
0.0
 10
-160.0
 20
-71.0
 30
0.0
 10
-155.19999999999999
 20
-80.099999999999994
 30
0.0
 10
-155.19999999999999
 20
-80.099999999999994
 30
0.0
 10
-155.19999999999999
 20
-80.099999999999994
 30
0.0
 10
-155.19999999999999
 20
-80.099999999999994
 30
0.0
 10
-151.19999999999999
 20
-113.09999999999999
 30
0.0
 10
-151.19999999999999
 20
-113.09999999999999
 30
0.0
 10
-151.19999999999999
 20
-113.09999999999999
 30
0.0
 10
-151.19999999999999
 20
-113.09999999999999
 30
0.0
 10
-148.0
 20
-117.0
 30
0.0
 10
-148.0
 20
-117.0
 30
0.0
 10
-148.0
 20
-117.0
 30
0.0
 10
-148.0
 20
-117.0
 30
0.0
 10
-143.923
 20
-117.6153
 30
0.0
 10
-143.923
 20
-117.6153
 30
0.0
 10
-143.923
 20
-117.6153
 30
0.0
 10
-143.923
 20
-117.6153
 30
0.0
 10
-140.0
 20
-118.0
 30
0.0
 10
-140.0
 20
-118.0
 30
0.0
  0
SPLINE
  5
3C
100
AcDbEntity
  8
0
 62
     7
100
AcDbSpline
210
0.0
220
0.0
230
1.0
 70
     1
 71
     3
 72
   112
 73
   108
 74
     0
 42
0.0000000001
 43
0.0000000001
 40
0.0
 40
0.0
 40
0.0
 40
0.0
 40
0.037037037037037
 40
0.037037037037037
 40
0.037037037037037
 40
0.037037037037037
 40
0.0740740740740741
 40
0.0740740740740741
 40
0.0740740740740741
 40
0.0740740740740741
 40
0.1111111111111111
 40
0.1111111111111111
 40
0.1111111111111111
 40
0.1111111111111111
 40
0.1481481481481481
 40
0.1481481481481481
 40
0.1481481481481481
 40
0.1481481481481481
 40
0.1851851851851852
 40
0.1851851851851852
 40
0.1851851851851852
 40
0.1851851851851852
 40
0.2222222222222222
 40
0.2222222222222222
 40
0.2222222222222222
 40
0.2222222222222222
 40
0.2592592592592592
 40
0.2592592592592592
 40
0.2592592592592592
 40
0.2592592592592592
 40
0.2962962962962963
 40
0.2962962962962963
 40
0.2962962962962963
 40
0.2962962962962963
 40
0.3333333333333333
 40
0.3333333333333333
 40
0.3333333333333333
 40
0.3333333333333333
 40
0.3703703703703704
 40
0.3703703703703704
 40
0.3703703703703704
 40
0.3703703703703704
 40
0.4074074074074074
 40
0.4074074074074074
 40
0.4074074074074074
 40
0.4074074074074074
 40
0.4444444444444444
 40
0.4444444444444444
 40
0.4444444444444444
 40
0.4444444444444444
 40
0.4814814814814815
 40
0.4814814814814815
 40
0.4814814814814815
 40
0.4814814814814815
 40
0.5185185185185185
 40
0.5185185185185185
 40
0.5185185185185185
 40
0.5185185185185185
 40
0.5555555555555556
 40
0.5555555555555556
 40
0.5555555555555556
 40
0.5555555555555556
 40
0.5925925925925926
 40
0.5925925925925926
 40
0.5925925925925926
 40
0.5925925925925926
 40
0.6296296296296295
 40
0.6296296296296295
 40
0.6296296296296295
 40
0.6296296296296295
 40
0.6666666666666665
 40
0.6666666666666665
 40
0.6666666666666665
 40
0.6666666666666665
 40
0.7037037037037035
 40
0.7037037037037035
 40
0.7037037037037035
 40
0.7037037037037035
 40
0.7407407407407405
 40
0.7407407407407405
 40
0.7407407407407405
 40
0.7407407407407405
 40
0.7777777777777775
 40
0.7777777777777775
 40
0.7777777777777775
 40
0.7777777777777775
 40
0.8148148148148144
 40
0.8148148148148144
 40
0.8148148148148144
 40
0.8148148148148144
 40
0.8518518518518514
 40
0.8518518518518514
 40
0.8518518518518514
 40
0.8518518518518514
 40
0.8888888888888884
 40
0.8888888888888884
 40
0.8888888888888884
 40
0.8888888888888884
 40
0.9259259259259254
 40
0.9259259259259254
 40
0.9259259259259254
 40
0.9259259259259254
 40
0.9629629629629624
 40
0.9629629629629624
 40
0.9629629629629624
 40
0.9629629629629624
 40
1.0
 40
1.0
 40
1.0
 40
1.0
 10
91.0
 20
-118.0
 30
0.0
 10
91.0
 20
-118.0
 30
0.0
 10
95.0
 20
-117.0
 30
0.0
 10
95.0
 20
-117.0
 30
0.0
 10
95.0
 20
-117.0
 30
0.0
 10
95.0
 20
-117.0
 30
0.0
 10
96.230699999999999
 20
-115.1538
 30
0.0
 10
96.230699999999999
 20
-115.1538
 30
0.0
 10
96.230699999999999
 20
-115.1538
 30
0.0
 10
96.230699999999999
 20
-115.1538
 30
0.0
 10
97.258799999999994
 20
-112.8352
 30
0.0
 10
97.258799999999994
 20
-112.8352
 30
0.0
 10
97.258799999999994
 20
-112.8352
 30
0.0
 10
97.258799999999994
 20
-112.8352
 30
0.0
 10
102.2
 20
-63.100000000000001
 30
0.0
 10
102.2
 20
-63.100000000000001
 30
0.0
 10
102.2
 20
-63.100000000000001
 30
0.0
 10
102.2
 20
-63.100000000000001
 30
0.0
 10
102.8
 20
-61.899999999999999
 30
0.0
 10
102.8
 20
-61.899999999999999
 30
0.0
 10
102.8
 20
-61.899999999999999
 30
0.0
 10
102.8
 20
-61.899999999999999
 30
0.0
 10
105.0
 20
-58.0
 30
0.0
 10
105.0
 20
-58.0
 30
0.0
 10
105.0
 20
-58.0
 30
0.0
 10
105.0
 20
-58.0
 30
0.0
 10
109.0
 20
-54.0
 30
0.0
 10
109.0
 20
-54.0
 30
0.0
 10
109.0
 20
-54.0
 30
0.0
 10
109.0
 20
-54.0
 30
0.0
 10
143.18000000000001
 20
-32.240000000000002
 30
0.0
 10
143.18000000000001
 20
-32.240000000000002
 30
0.0
 10
143.18000000000001
 20
-32.240000000000002
 30
0.0
 10
143.18000000000001
 20
-32.240000000000002
 30
0.0
 10
148.0
 20
-29.0
 30
0.0
 10
148.0
 20
-29.0
 30
0.0
 10
148.0
 20
-29.0
 30
0.0
 10
148.0
 20
-29.0
 30
0.0
 10
150.19999999999999
 20
-26.100000000000001
 30
0.0
 10
150.19999999999999
 20
-26.100000000000001
 30
0.0
 10
150.19999999999999
 20
-26.100000000000001
 30
0.0
 10
150.19999999999999
 20
-26.100000000000001
 30
0.0
 10
152.0
 20
-23.0
 30
0.0
 10
152.0
 20
-23.0
 30
0.0
 10
152.0
 20
-23.0
 30
0.0
 10
152.0
 20
-23.0
 30
0.0
 10
150.19999999999999
 20
-18.899999999999999
 30
0.0
 10
150.19999999999999
 20
-18.899999999999999
 30
0.0
 10
150.19999999999999
 20
-18.899999999999999
 30
0.0
 10
150.19999999999999
 20
-18.899999999999999
 30
0.0
 10
149.0
 20
-16.0
 30
0.0
 10
149.0
 20
-16.0
 30
0.0
 10
149.0
 20
-16.0
 30
0.0
 10
149.0
 20
-16.0
 30
0.0
 10
147.09999999999999
 20
-14.800000000000001
 30
0.0
 10
147.09999999999999
 20
-14.800000000000001
 30
0.0
 10
147.09999999999999
 20
-14.800000000000001
 30
0.0
 10
147.09999999999999
 20
-14.800000000000001
 30
0.0
 10
146.0
 20
-14.0
 30
0.0
 10
146.0
 20
-14.0
 30
0.0
 10
146.0
 20
-14.0
 30
0.0
 10
146.0
 20
-14.0
 30
0.0
 10
142.0
 20
-14.0
 30
0.0
 10
142.0
 20
-14.0
 30
0.0
 10
142.0
 20
-14.0
 30
0.0
 10
142.0
 20
-14.0
 30
0.0
 10
138.0882
 20
-15.3529
 30
0.0
 10
138.0882
 20
-15.3529
 30
0.0
 10
138.0882
 20
-15.3529
 30
0.0
 10
138.0882
 20
-15.3529
 30
0.0
 10
116.90000000000001
 20
-24.800000000000001
 30
0.0
 10
116.90000000000001
 20
-24.800000000000001
 30
0.0
 10
116.90000000000001
 20
-24.800000000000001
 30
0.0
 10
116.90000000000001
 20
-24.800000000000001
 30
0.0
 10
94.0
 20
-36.0
 30
0.0
 10
94.0
 20
-36.0
 30
0.0
 10
94.0
 20
-36.0
 30
0.0
 10
94.0
 20
-36.0
 30
0.0
 10
86.0
 20
-44.0
 30
0.0
 10
86.0
 20
-44.0
 30
0.0
 10
86.0
 20
-44.0
 30
0.0
 10
86.0
 20
-44.0
 30
0.0
 10
81.0
 20
-58.0
 30
0.0
 10
81.0
 20
-58.0
 30
0.0
 10
81.0
 20
-58.0
 30
0.0
 10
81.0
 20
-58.0
 30
0.0
 10
81.535300000000007
 20
-89.030900000000003
 30
0.0
 10
81.535300000000007
 20
-89.030900000000003
 30
0.0
 10
81.535300000000007
 20
-89.030900000000003
 30
0.0
 10
81.535300000000007
 20
-89.030900000000003
 30
0.0
 10
83.700000000000003
 20
-113.09999999999999
 30
0.0
 10
83.700000000000003
 20
-113.09999999999999
 30
0.0
 10
83.700000000000003
 20
-113.09999999999999
 30
0.0
 10
83.700000000000003
 20
-113.09999999999999
 30
0.0
 10
84.0
 20
-115.0
 30
0.0
 10
84.0
 20
-115.0
 30
0.0
 10
84.0
 20
-115.0
 30
0.0
 10
84.0
 20
-115.0
 30
0.0
 10
86.0
 20
-117.0
 30
0.0
 10
86.0
 20
-117.0
 30
0.0
 10
86.0
 20
-117.0
 30
0.0
 10
86.0
 20
-117.0
 30
0.0
 10
88.088200000000001
 20
-117.64700000000001
 30
0.0
 10
88.088200000000001
 20
-117.64700000000001
 30
0.0
 10
88.088200000000001
 20
-117.64700000000001
 30
0.0
 10
88.088200000000001
 20
-117.64700000000001
 30
0.0
 10
91.0
 20
-118.0
 30
0.0
 10
91.0
 20
-118.0
 30
0.0
  0
SPLINE
  5
3D
100
AcDbEntity
  8
0
 62
     7
100
AcDbSpline
210
0.0
220
0.0
230
1.0
 70
     1
 71
     3
 72
    92
 73
    88
 74
     0
 42
0.0000000001
 43
0.0000000001
 40
0.0
 40
0.0
 40
0.0
 40
0.0
 40
0.0454545454545455
 40
0.0454545454545455
 40
0.0454545454545455
 40
0.0454545454545455
 40
0.0909090909090909
 40
0.0909090909090909
 40
0.0909090909090909
 40
0.0909090909090909
 40
0.1363636363636364
 40
0.1363636363636364
 40
0.1363636363636364
 40
0.1363636363636364
 40
0.1818181818181818
 40
0.1818181818181818
 40
0.1818181818181818
 40
0.1818181818181818
 40
0.2272727272727273
 40
0.2272727272727273
 40
0.2272727272727273
 40
0.2272727272727273
 40
0.2727272727272728
 40
0.2727272727272728
 40
0.2727272727272728
 40
0.2727272727272728
 40
0.3181818181818182
 40
0.3181818181818182
 40
0.3181818181818182
 40
0.3181818181818182
 40
0.3636363636363637
 40
0.3636363636363637
 40
0.3636363636363637
 40
0.3636363636363637
 40
0.4090909090909092
 40
0.4090909090909092
 40
0.4090909090909092
 40
0.4090909090909092
 40
0.4545454545454546
 40
0.4545454545454546
 40
0.4545454545454546
 40
0.4545454545454546
 40
0.5000000000000001
 40
0.5000000000000001
 40
0.5000000000000001
 40
0.5000000000000001
 40
0.5454545454545455
 40
0.5454545454545455
 40
0.5454545454545455
 40
0.5454545454545455
 40
0.5909090909090909
 40
0.5909090909090909
 40
0.5909090909090909
 40
0.5909090909090909
 40
0.6363636363636364
 40
0.6363636363636364
 40
0.6363636363636364
 40
0.6363636363636364
 40
0.6818181818181818
 40
0.6818181818181818
 40
0.6818181818181818
 40
0.6818181818181818
 40
0.7272727272727272
 40
0.7272727272727272
 40
0.7272727272727272
 40
0.7272727272727272
 40
0.7727272727272726
 40
0.7727272727272726
 40
0.7727272727272726
 40
0.7727272727272726
 40
0.818181818181818
 40
0.818181818181818
 40
0.818181818181818
 40
0.818181818181818
 40
0.8636363636363634
 40
0.8636363636363634
 40
0.8636363636363634
 40
0.8636363636363634
 40
0.9090909090909088
 40
0.9090909090909088
 40
0.9090909090909088
 40
0.9090909090909088
 40
0.9545454545454543
 40
0.9545454545454543
 40
0.9545454545454543
 40
0.9545454545454543
 40
1.0
 40
1.0
 40
1.0
 40
1.0
 10
127.0
 20
-121.0
 30
0.0
 10
127.0
 20
-121.0
 30
0.0
 10
131.0
 20
-119.0
 30
0.0
 10
131.0
 20
-119.0
 30
0.0
 10
131.0
 20
-119.0
 30
0.0
 10
131.0
 20
-119.0
 30
0.0
 10
136.80000000000001
 20
-81.900000000000006
 30
0.0
 10
136.80000000000001
 20
-81.900000000000006
 30
0.0
 10
136.80000000000001
 20
-81.900000000000006
 30
0.0
 10
136.80000000000001
 20
-81.900000000000006
 30
0.0
 10
145.0
 20
-73.0
 30
0.0
 10
145.0
 20
-73.0
 30
0.0
 10
145.0
 20
-73.0
 30
0.0
 10
145.0
 20
-73.0
 30
0.0
 10
156.15379999999999
 20
-65.230699999999999
 30
0.0
 10
156.15379999999999
 20
-65.230699999999999
 30
0.0
 10
156.15379999999999
 20
-65.230699999999999
 30
0.0
 10
156.15379999999999
 20
-65.230699999999999
 30
0.0
 10
168.0
 20
-56.0
 30
0.0
 10
168.0
 20
-56.0
 30
0.0
 10
168.0
 20
-56.0
 30
0.0
 10
168.0
 20
-56.0
 30
0.0
 10
171.0
 20
-51.0
 30
0.0
 10
171.0
 20
-51.0
 30
0.0
 10
171.0
 20
-51.0
 30
0.0
 10
171.0
 20
-51.0
 30
0.0
 10
170.0
 20
-48.0
 30
0.0
 10
170.0
 20
-48.0
 30
0.0
 10
170.0
 20
-48.0
 30
0.0
 10
170.0
 20
-48.0
 30
0.0
 10
168.0
 20
-46.0
 30
0.0
 10
168.0
 20
-46.0
 30
0.0
 10
168.0
 20
-46.0
 30
0.0
 10
168.0
 20
-46.0
 30
0.0
 10
159.0
 20
-45.0
 30
0.0
 10
159.0
 20
-45.0
 30
0.0
 10
159.0
 20
-45.0
 30
0.0
 10
159.0
 20
-45.0
 30
0.0
 10
148.09999999999999
 20
-48.299999999999997
 30
0.0
 10
148.09999999999999
 20
-48.299999999999997
 30
0.0
 10
148.09999999999999
 20
-48.299999999999997
 30
0.0
 10
148.09999999999999
 20
-48.299999999999997
 30
0.0
 10
142.90000000000001
 20
-50.799999999999997
 30
0.0
 10
142.90000000000001
 20
-50.799999999999997
 30
0.0
 10
142.90000000000001
 20
-50.799999999999997
 30
0.0
 10
142.90000000000001
 20
-50.799999999999997
 30
0.0
 10
132.81999999999999
 20
-56.759999999999998
 30
0.0
 10
132.81999999999999
 20
-56.759999999999998
 30
0.0
 10
132.81999999999999
 20
-56.759999999999998
 30
0.0
 10
132.81999999999999
 20
-56.759999999999998
 30
0.0
 10
127.0
 20
-61.0
 30
0.0
 10
127.0
 20
-61.0
 30
0.0
 10
127.0
 20
-61.0
 30
0.0
 10
127.0
 20
-61.0
 30
0.0
 10
118.0
 20
-70.0
 30
0.0
 10
118.0
 20
-70.0
 30
0.0
 10
118.0
 20
-70.0
 30
0.0
 10
118.0
 20
-70.0
 30
0.0
 10
117.2
 20
-72.099999999999994
 30
0.0
 10
117.2
 20
-72.099999999999994
 30
0.0
 10
117.2
 20
-72.099999999999994
 30
0.0
 10
117.2
 20
-72.099999999999994
 30
0.0
 10
116.8
 20
-72.900000000000006
 30
0.0
 10
116.8
 20
-72.900000000000006
 30
0.0
 10
116.8
 20
-72.900000000000006
 30
0.0
 10
116.8
 20
-72.900000000000006
 30
0.0
 10
114.0
 20
-84.0
 30
0.0
 10
114.0
 20
-84.0
 30
0.0
 10
114.0
 20
-84.0
 30
0.0
 10
114.0
 20
-84.0
 30
0.0
 10
114.0
 20
-107.0
 30
0.0
 10
114.0
 20
-107.0
 30
0.0
 10
114.0
 20
-107.0
 30
0.0
 10
114.0
 20
-107.0
 30
0.0
 10
116.40000000000001
 20
-114.8
 30
0.0
 10
116.40000000000001
 20
-114.8
 30
0.0
 10
116.40000000000001
 20
-114.8
 30
0.0
 10
116.40000000000001
 20
-114.8
 30
0.0
 10
118.0
 20
-118.0
 30
0.0
 10
118.0
 20
-118.0
 30
0.0
 10
118.0
 20
-118.0
 30
0.0
 10
118.0
 20
-118.0
 30
0.0
 10
120.0
 20
-120.0
 30
0.0
 10
120.0
 20
-120.0
 30
0.0
 10
120.0
 20
-120.0
 30
0.0
 10
120.0
 20
-120.0
 30
0.0
 10
127.0
 20
-121.0
 30
0.0
 10
127.0
 20
-121.0
 30
0.0
  0
SPLINE
  5
3E
100
AcDbEntity
  8
0
 62
     7
100
AcDbSpline
210
0.0
220
0.0
230
1.0
 70
     1
 71
     3
 72
    80
 73
    76
 74
     0
 42
0.0000000001
 43
0.0000000001
 40
0.0
 40
0.0
 40
0.0
 40
0.0
 40
0.0526315789473684
 40
0.0526315789473684
 40
0.0526315789473684
 40
0.0526315789473684
 40
0.1052631578947368
 40
0.1052631578947368
 40
0.1052631578947368
 40
0.1052631578947368
 40
0.1578947368421053
 40
0.1578947368421053
 40
0.1578947368421053
 40
0.1578947368421053
 40
0.2105263157894737
 40
0.2105263157894737
 40
0.2105263157894737
 40
0.2105263157894737
 40
0.2631578947368421
 40
0.2631578947368421
 40
0.2631578947368421
 40
0.2631578947368421
 40
0.3157894736842105
 40
0.3157894736842105
 40
0.3157894736842105
 40
0.3157894736842105
 40
0.3684210526315789
 40
0.3684210526315789
 40
0.3684210526315789
 40
0.3684210526315789
 40
0.4210526315789474
 40
0.4210526315789474
 40
0.4210526315789474
 40
0.4210526315789474
 40
0.4736842105263158
 40
0.4736842105263158
 40
0.4736842105263158
 40
0.4736842105263158
 40
0.5263157894736842
 40
0.5263157894736842
 40
0.5263157894736842
 40
0.5263157894736842
 40
0.5789473684210527
 40
0.5789473684210527
 40
0.5789473684210527
 40
0.5789473684210527
 40
0.631578947368421
 40
0.631578947368421
 40
0.631578947368421
 40
0.631578947368421
 40
0.6842105263157894
 40
0.6842105263157894
 40
0.6842105263157894
 40
0.6842105263157894
 40
0.7368421052631577
 40
0.7368421052631577
 40
0.7368421052631577
 40
0.7368421052631577
 40
0.7894736842105261
 40
0.7894736842105261
 40
0.7894736842105261
 40
0.7894736842105261
 40
0.8421052631578945
 40
0.8421052631578945
 40
0.8421052631578945
 40
0.8421052631578945
 40
0.8947368421052628
 40
0.8947368421052628
 40
0.8947368421052628
 40
0.8947368421052628
 40
0.9473684210526312
 40
0.9473684210526312
 40
0.9473684210526312
 40
0.9473684210526312
 40
1.0
 40
1.0
 40
1.0
 40
1.0
 10
162.0
 20
-122.0
 30
0.0
 10
162.0
 20
-122.0
 30
0.0
 10
165.756
 20
-117.8048
 30
0.0
 10
165.756
 20
-117.8048
 30
0.0
 10
165.756
 20
-117.8048
 30
0.0
 10
165.756
 20
-117.8048
 30
0.0
 10
170.80000000000001
 20
-107.90000000000001
 30
0.0
 10
170.80000000000001
 20
-107.90000000000001
 30
0.0
 10
170.80000000000001
 20
-107.90000000000001
 30
0.0
 10
170.80000000000001
 20
-107.90000000000001
 30
0.0
 10
176.75999999999999
 20
-97.819999999999993
 30
0.0
 10
176.75999999999999
 20
-97.819999999999993
 30
0.0
 10
176.75999999999999
 20
-97.819999999999993
 30
0.0
 10
176.75999999999999
 20
-97.819999999999993
 30
0.0
 10
185.75290000000001
 20
-86.788200000000003
 30
0.0
 10
185.75290000000001
 20
-86.788200000000003
 30
0.0
 10
185.75290000000001
 20
-86.788200000000003
 30
0.0
 10
185.75290000000001
 20
-86.788200000000003
 30
0.0
 10
187.0
 20
-84.0
 30
0.0
 10
187.0
 20
-84.0
 30
0.0
 10
187.0
 20
-84.0
 30
0.0
 10
187.0
 20
-84.0
 30
0.0
 10
184.0
 20
-79.0
 30
0.0
 10
184.0
 20
-79.0
 30
0.0
 10
184.0
 20
-79.0
 30
0.0
 10
184.0
 20
-79.0
 30
0.0
 10
181.09999999999999
 20
-76.799999999999997
 30
0.0
 10
181.09999999999999
 20
-76.799999999999997
 30
0.0
 10
181.09999999999999
 20
-76.799999999999997
 30
0.0
 10
181.09999999999999
 20
-76.799999999999997
 30
0.0
 10
176.0
 20
-75.0
 30
0.0
 10
176.0
 20
-75.0
 30
0.0
 10
176.0
 20
-75.0
 30
0.0
 10
176.0
 20
-75.0
 30
0.0
 10
171.0
 20
-75.0
 30
0.0
 10
171.0
 20
-75.0
 30
0.0
 10
171.0
 20
-75.0
 30
0.0
 10
171.0
 20
-75.0
 30
0.0
 10
164.0
 20
-78.0
 30
0.0
 10
164.0
 20
-78.0
 30
0.0
 10
164.0
 20
-78.0
 30
0.0
 10
164.0
 20
-78.0
 30
0.0
 10
153.24590000000001
 20
-90.204899999999995
 30
0.0
 10
153.24590000000001
 20
-90.204899999999995
 30
0.0
 10
153.24590000000001
 20
-90.204899999999995
 30
0.0
 10
153.24590000000001
 20
-90.204899999999995
 30
0.0
 10
151.35290000000001
 20
-94.088200000000001
 30
0.0
 10
151.35290000000001
 20
-94.088200000000001
 30
0.0
 10
151.35290000000001
 20
-94.088200000000001
 30
0.0
 10
151.35290000000001
 20
-94.088200000000001
 30
0.0
 10
150.64699999999999
 20
-96.911699999999996
 30
0.0
 10
150.64699999999999
 20
-96.911699999999996
 30
0.0
 10
150.64699999999999
 20
-96.911699999999996
 30
0.0
 10
150.64699999999999
 20
-96.911699999999996
 30
0.0
 10
150.0
 20
-98.0
 30
0.0
 10
150.0
 20
-98.0
 30
0.0
 10
150.0
 20
-98.0
 30
0.0
 10
150.0
 20
-98.0
 30
0.0
 10
150.59450000000001
 20
-106.0675
 30
0.0
 10
150.59450000000001
 20
-106.0675
 30
0.0
 10
150.59450000000001
 20
-106.0675
 30
0.0
 10
150.59450000000001
 20
-106.0675
 30
0.0
 10
153.0
 20
-117.0
 30
0.0
 10
153.0
 20
-117.0
 30
0.0
 10
153.0
 20
-117.0
 30
0.0
 10
153.0
 20
-117.0
 30
0.0
 10
157.0
 20
-121.0
 30
0.0
 10
157.0
 20
-121.0
 30
0.0
 10
157.0
 20
-121.0
 30
0.0
 10
157.0
 20
-121.0
 30
0.0
 10
160.09999999999999
 20
-121.7
 30
0.0
 10
160.09999999999999
 20
-121.7
 30
0.0
 10
160.09999999999999
 20
-121.7
 30
0.0
 10
160.09999999999999
 20
-121.7
 30
0.0
 10
162.0
 20
-122.0
 30
0.0
 10
162.0
 20
-122.0
 30
0.0
  0
SPLINE
  5
3F
100
AcDbEntity
  8
0
 62
     7
100
AcDbSpline
210
0.0
220
0.0
230
1.0
 70
     1
 71
     3
 72
    68
 73
    64
 74
     0
 42
0.0000000001
 43
0.0000000001
 40
0.0
 40
0.0
 40
0.0
 40
0.0
 40
0.0625
 40
0.0625
 40
0.0625
 40
0.0625
 40
0.125
 40
0.125
 40
0.125
 40
0.125
 40
0.1875
 40
0.1875
 40
0.1875
 40
0.1875
 40
0.25
 40
0.25
 40
0.25
 40
0.25
 40
0.3125
 40
0.3125
 40
0.3125
 40
0.3125
 40
0.375
 40
0.375
 40
0.375
 40
0.375
 40
0.4375
 40
0.4375
 40
0.4375
 40
0.4375
 40
0.5
 40
0.5
 40
0.5
 40
0.5
 40
0.5625
 40
0.5625
 40
0.5625
 40
0.5625
 40
0.625
 40
0.625
 40
0.625
 40
0.625
 40
0.6875
 40
0.6875
 40
0.6875
 40
0.6875
 40
0.75
 40
0.75
 40
0.75
 40
0.75
 40
0.8125
 40
0.8125
 40
0.8125
 40
0.8125
 40
0.875
 40
0.875
 40
0.875
 40
0.875
 40
0.9375
 40
0.9375
 40
0.9375
 40
0.9375
 40
1.0
 40
1.0
 40
1.0
 40
1.0
 10
-226.0
 20
-136.0
 30
0.0
 10
-226.0
 20
-136.0
 30
0.0
 10
-224.90000000000001
 20
-135.19999999999999
 30
0.0
 10
-224.90000000000001
 20
-135.19999999999999
 30
0.0
 10
-224.90000000000001
 20
-135.19999999999999
 30
0.0
 10
-224.90000000000001
 20
-135.19999999999999
 30
0.0
 10
-222.0
 20
-134.0
 30
0.0
 10
-222.0
 20
-134.0
 30
0.0
 10
-222.0
 20
-134.0
 30
0.0
 10
-222.0
 20
-134.0
 30
0.0
 10
-216.0
 20
-128.0
 30
0.0
 10
-216.0
 20
-128.0
 30
0.0
 10
-216.0
 20
-128.0
 30
0.0
 10
-216.0
 20
-128.0
 30
0.0
 10
-214.0
 20
-124.0
 30
0.0
 10
-214.0
 20
-124.0
 30
0.0
 10
-214.0
 20
-124.0
 30
0.0
 10
-214.0
 20
-124.0
 30
0.0
 10
-214.0
 20
-114.0
 30
0.0
 10
-214.0
 20
-114.0
 30
0.0
 10
-214.0
 20
-114.0
 30
0.0
 10
-214.0
 20
-114.0
 30
0.0
 10
-216.0
 20
-110.0
 30
0.0
 10
-216.0
 20
-110.0
 30
0.0
 10
-216.0
 20
-110.0
 30
0.0
 10
-216.0
 20
-110.0
 30
0.0
 10
-225.0
 20
-102.0
 30
0.0
 10
-225.0
 20
-102.0
 30
0.0
 10
-225.0
 20
-102.0
 30
0.0
 10
-225.0
 20
-102.0
 30
0.0
 10
-237.0
 20
-102.0
 30
0.0
 10
-237.0
 20
-102.0
 30
0.0
 10
-237.0
 20
-102.0
 30
0.0
 10
-237.0
 20
-102.0
 30
0.0
 10
-239.0
 20
-103.0
 30
0.0
 10
-239.0
 20
-103.0
 30
0.0
 10
-239.0
 20
-103.0
 30
0.0
 10
-239.0
 20
-103.0
 30
0.0
 10
-247.19999999999999
 20
-111.90000000000001
 30
0.0
 10
-247.19999999999999
 20
-111.90000000000001
 30
0.0
 10
-247.19999999999999
 20
-111.90000000000001
 30
0.0
 10
-247.19999999999999
 20
-111.90000000000001
 30
0.0
 10
-248.0
 20
-113.0
 30
0.0
 10
-248.0
 20
-113.0
 30
0.0
 10
-248.0
 20
-113.0
 30
0.0
 10
-248.0
 20
-113.0
 30
0.0
 10
-248.0
 20
-124.0
 30
0.0
 10
-248.0
 20
-124.0
 30
0.0
 10
-248.0
 20
-124.0
 30
0.0
 10
-248.0
 20
-124.0
 30
0.0
 10
-247.0
 20
-127.0
 30
0.0
 10
-247.0
 20
-127.0
 30
0.0
 10
-247.0
 20
-127.0
 30
0.0
 10
-247.0
 20
-127.0
 30
0.0
 10
-240.0
 20
-134.0
 30
0.0
 10
-240.0
 20
-134.0
 30
0.0
 10
-240.0
 20
-134.0
 30
0.0
 10
-240.0
 20
-134.0
 30
0.0
 10
-235.959
 20
-135.54910000000001
 30
0.0
 10
-235.959
 20
-135.54910000000001
 30
0.0
 10
-235.959
 20
-135.54910000000001
 30
0.0
 10
-235.959
 20
-135.54910000000001
 30
0.0
 10
-226.0
 20
-136.0
 30
0.0
 10
-226.0
 20
-136.0
 30
0.0
  0
SPLINE
  5
40
100
AcDbEntity
  8
0
 62
     7
100
AcDbSpline
210
0.0
220
0.0
230
1.0
 70
     1
 71
     3
 72
    80
 73
    76
 74
     0
 42
0.0000000001
 43
0.0000000001
 40
0.0
 40
0.0
 40
0.0
 40
0.0
 40
0.0526315789473684
 40
0.0526315789473684
 40
0.0526315789473684
 40
0.0526315789473684
 40
0.1052631578947368
 40
0.1052631578947368
 40
0.1052631578947368
 40
0.1052631578947368
 40
0.1578947368421053
 40
0.1578947368421053
 40
0.1578947368421053
 40
0.1578947368421053
 40
0.2105263157894737
 40
0.2105263157894737
 40
0.2105263157894737
 40
0.2105263157894737
 40
0.2631578947368421
 40
0.2631578947368421
 40
0.2631578947368421
 40
0.2631578947368421
 40
0.3157894736842105
 40
0.3157894736842105
 40
0.3157894736842105
 40
0.3157894736842105
 40
0.3684210526315789
 40
0.3684210526315789
 40
0.3684210526315789
 40
0.3684210526315789
 40
0.4210526315789474
 40
0.4210526315789474
 40
0.4210526315789474
 40
0.4210526315789474
 40
0.4736842105263158
 40
0.4736842105263158
 40
0.4736842105263158
 40
0.4736842105263158
 40
0.5263157894736842
 40
0.5263157894736842
 40
0.5263157894736842
 40
0.5263157894736842
 40
0.5789473684210527
 40
0.5789473684210527
 40
0.5789473684210527
 40
0.5789473684210527
 40
0.631578947368421
 40
0.631578947368421
 40
0.631578947368421
 40
0.631578947368421
 40
0.6842105263157894
 40
0.6842105263157894
 40
0.6842105263157894
 40
0.6842105263157894
 40
0.7368421052631577
 40
0.7368421052631577
 40
0.7368421052631577
 40
0.7368421052631577
 40
0.7894736842105261
 40
0.7894736842105261
 40
0.7894736842105261
 40
0.7894736842105261
 40
0.8421052631578945
 40
0.8421052631578945
 40
0.8421052631578945
 40
0.8421052631578945
 40
0.8947368421052628
 40
0.8947368421052628
 40
0.8947368421052628
 40
0.8947368421052628
 40
0.9473684210526312
 40
0.9473684210526312
 40
0.9473684210526312
 40
0.9473684210526312
 40
1.0
 40
1.0
 40
1.0
 40
1.0
 10
217.0
 20
-141.0
 30
0.0
 10
217.0
 20
-141.0
 30
0.0
 10
218.09999999999999
 20
-140.19999999999999
 30
0.0
 10
218.09999999999999
 20
-140.19999999999999
 30
0.0
 10
218.09999999999999
 20
-140.19999999999999
 30
0.0
 10
218.09999999999999
 20
-140.19999999999999
 30
0.0
 10
224.0
 20
-138.0
 30
0.0
 10
224.0
 20
-138.0
 30
0.0
 10
224.0
 20
-138.0
 30
0.0
 10
224.0
 20
-138.0
 30
0.0
 10
228.19999999999999
 20
-133.09999999999999
 30
0.0
 10
228.19999999999999
 20
-133.09999999999999
 30
0.0
 10
228.19999999999999
 20
-133.09999999999999
 30
0.0
 10
228.19999999999999
 20
-133.09999999999999
 30
0.0
 10
231.0
 20
-127.0
 30
0.0
 10
231.0
 20
-127.0
 30
0.0
 10
231.0
 20
-127.0
 30
0.0
 10
231.0
 20
-127.0
 30
0.0
 10
231.0
 20
-121.0
 30
0.0
 10
231.0
 20
-121.0
 30
0.0
 10
231.0
 20
-121.0
 30
0.0
 10
231.0
 20
-121.0
 30
0.0
 10
229.40000000000001
 20
-117.3
 30
0.0
 10
229.40000000000001
 20
-117.3
 30
0.0
 10
229.40000000000001
 20
-117.3
 30
0.0
 10
229.40000000000001
 20
-117.3
 30
0.0
 10
227.24000000000001
 20
-113.81999999999999
 30
0.0
 10
227.24000000000001
 20
-113.81999999999999
 30
0.0
 10
227.24000000000001
 20
-113.81999999999999
 30
0.0
 10
227.24000000000001
 20
-113.81999999999999
 30
0.0
 10
222.0
 20
-108.0
 30
0.0
 10
222.0
 20
-108.0
 30
0.0
 10
222.0
 20
-108.0
 30
0.0
 10
222.0
 20
-108.0
 30
0.0
 10
220.09999999999999
 20
-107.7
 30
0.0
 10
220.09999999999999
 20
-107.7
 30
0.0
 10
220.09999999999999
 20
-107.7
 30
0.0
 10
220.09999999999999
 20
-107.7
 30
0.0
 10
219.0
 20
-107.0
 30
0.0
 10
219.0
 20
-107.0
 30
0.0
 10
219.0
 20
-107.0
 30
0.0
 10
219.0
 20
-107.0
 30
0.0
 10
208.0
 20
-107.0
 30
0.0
 10
208.0
 20
-107.0
 30
0.0
 10
208.0
 20
-107.0
 30
0.0
 10
208.0
 20
-107.0
 30
0.0
 10
202.0
 20
-111.0
 30
0.0
 10
202.0
 20
-111.0
 30
0.0
 10
202.0
 20
-111.0
 30
0.0
 10
202.0
 20
-111.0
 30
0.0
 10
200.0
 20
-113.0
 30
0.0
 10
200.0
 20
-113.0
 30
0.0
 10
200.0
 20
-113.0
 30
0.0
 10
200.0
 20
-113.0
 30
0.0
 10
196.0
 20
-123.0
 30
0.0
 10
196.0
 20
-123.0
 30
0.0
 10
196.0
 20
-123.0
 30
0.0
 10
196.0
 20
-123.0
 30
0.0
 10
196.0
 20
-125.0
 30
0.0
 10
196.0
 20
-125.0
 30
0.0
 10
196.0
 20
-125.0
 30
0.0
 10
196.0
 20
-125.0
 30
0.0
 10
201.0
 20
-136.0
 30
0.0
 10
201.0
 20
-136.0
 30
0.0
 10
201.0
 20
-136.0
 30
0.0
 10
201.0
 20
-136.0
 30
0.0
 10
203.0
 20
-138.0
 30
0.0
 10
203.0
 20
-138.0
 30
0.0
 10
203.0
 20
-138.0
 30
0.0
 10
203.0
 20
-138.0
 30
0.0
 10
209.0487
 20
-140.5609
 30
0.0
 10
209.0487
 20
-140.5609
 30
0.0
 10
209.0487
 20
-140.5609
 30
0.0
 10
209.0487
 20
-140.5609
 30
0.0
 10
217.0
 20
-141.0
 30
0.0
 10
217.0
 20
-141.0
 30
0.0
  0
SPLINE
  5
41
100
AcDbEntity
  8
0
 62
     7
100
AcDbSpline
210
0.0
220
0.0
230
1.0
 70
     1
 71
     3
 72
   108
 73
   104
 74
     0
 42
0.0000000001
 43
0.0000000001
 40
0.0
 40
0.0
 40
0.0
 40
0.0
 40
0.0384615384615385
 40
0.0384615384615385
 40
0.0384615384615385
 40
0.0384615384615385
 40
0.0769230769230769
 40
0.0769230769230769
 40
0.0769230769230769
 40
0.0769230769230769
 40
0.1153846153846154
 40
0.1153846153846154
 40
0.1153846153846154
 40
0.1153846153846154
 40
0.1538461538461539
 40
0.1538461538461539
 40
0.1538461538461539
 40
0.1538461538461539
 40
0.1923076923076923
 40
0.1923076923076923
 40
0.1923076923076923
 40
0.1923076923076923
 40
0.2307692307692308
 40
0.2307692307692308
 40
0.2307692307692308
 40
0.2307692307692308
 40
0.2692307692307693
 40
0.2692307692307693
 40
0.2692307692307693
 40
0.2692307692307693
 40
0.3076923076923077
 40
0.3076923076923077
 40
0.3076923076923077
 40
0.3076923076923077
 40
0.3461538461538462
 40
0.3461538461538462
 40
0.3461538461538462
 40
0.3461538461538462
 40
0.3846153846153846
 40
0.3846153846153846
 40
0.3846153846153846
 40
0.3846153846153846
 40
0.423076923076923
 40
0.423076923076923
 40
0.423076923076923
 40
0.423076923076923
 40
0.4615384615384615
 40
0.4615384615384615
 40
0.4615384615384615
 40
0.4615384615384615
 40
0.4999999999999999
 40
0.4999999999999999
 40
0.4999999999999999
 40
0.4999999999999999
 40
0.5384615384615383
 40
0.5384615384615383
 40
0.5384615384615383
 40
0.5384615384615383
 40
0.5769230769230768
 40
0.5769230769230768
 40
0.5769230769230768
 40
0.5769230769230768
 40
0.6153846153846152
 40
0.6153846153846152
 40
0.6153846153846152
 40
0.6153846153846152
 40
0.6538461538461536
 40
0.6538461538461536
 40
0.6538461538461536
 40
0.6538461538461536
 40
0.6923076923076921
 40
0.6923076923076921
 40
0.6923076923076921
 40
0.6923076923076921
 40
0.7307692307692305
 40
0.7307692307692305
 40
0.7307692307692305
 40
0.7307692307692305
 40
0.7692307692307689
 40
0.7692307692307689
 40
0.7692307692307689
 40
0.7692307692307689
 40
0.8076923076923074
 40
0.8076923076923074
 40
0.8076923076923074
 40
0.8076923076923074
 40
0.8461538461538458
 40
0.8461538461538458
 40
0.8461538461538458
 40
0.8461538461538458
 40
0.8846153846153843
 40
0.8846153846153843
 40
0.8846153846153843
 40
0.8846153846153843
 40
0.9230769230769227
 40
0.9230769230769227
 40
0.9230769230769227
 40
0.9230769230769227
 40
0.9615384615384611
 40
0.9615384615384611
 40
0.9615384615384611
 40
0.9615384615384611
 40
1.0
 40
1.0
 40
1.0
 40
1.0
 10
44.0
 20
-146.0
 30
0.0
 10
44.0
 20
-146.0
 30
0.0
 10
50.0
 20
-138.0
 30
0.0
 10
50.0
 20
-138.0
 30
0.0
 10
50.0
 20
-138.0
 30
0.0
 10
50.0
 20
-138.0
 30
0.0
 10
49.200000000000003
 20
-134.90000000000001
 30
0.0
 10
49.200000000000003
 20
-134.90000000000001
 30
0.0
 10
49.200000000000003
 20
-134.90000000000001
 30
0.0
 10
49.200000000000003
 20
-134.90000000000001
 30
0.0
 10
47.0
 20
-131.0
 30
0.0
 10
47.0
 20
-131.0
 30
0.0
 10
47.0
 20
-131.0
 30
0.0
 10
47.0
 20
-131.0
 30
0.0
 10
9.8460999999999999
 20
-106.2307
 30
0.0
 10
9.8460999999999999
 20
-106.2307
 30
0.0
 10
9.8460999999999999
 20
-106.2307
 30
0.0
 10
9.8460999999999999
 20
-106.2307
 30
0.0
 10
9.0999999999999996
 20
-105.8
 30
0.0
 10
9.0999999999999996
 20
-105.8
 30
0.0
 10
9.0999999999999996
 20
-105.8
 30
0.0
 10
9.0999999999999996
 20
-105.8
 30
0.0
 10
-0.0882
 20
-101.35290000000001
 30
0.0
 10
-0.0882
 20
-101.35290000000001
 30
0.0
 10
-0.0882
 20
-101.35290000000001
 30
0.0
 10
-0.0882
 20
-101.35290000000001
 30
0.0
 10
-2.9117000000000002
 20
-100.64700000000001
 30
0.0
 10
-2.9117000000000002
 20
-100.64700000000001
 30
0.0
 10
-2.9117000000000002
 20
-100.64700000000001
 30
0.0
 10
-2.9117000000000002
 20
-100.64700000000001
 30
0.0
 10
-9.0
 20
-100.0
 30
0.0
 10
-9.0
 20
-100.0
 30
0.0
 10
-9.0
 20
-100.0
 30
0.0
 10
-9.0
 20
-100.0
 30
0.0
 10
-20.9117
 20
-103.35290000000001
 30
0.0
 10
-20.9117
 20
-103.35290000000001
 30
0.0
 10
-20.9117
 20
-103.35290000000001
 30
0.0
 10
-20.9117
 20
-103.35290000000001
 30
0.0
 10
-54.899999999999999
 20
-120.2
 30
0.0
 10
-54.899999999999999
 20
-120.2
 30
0.0
 10
-54.899999999999999
 20
-120.2
 30
0.0
 10
-54.899999999999999
 20
-120.2
 30
0.0
 10
-61.8461
 20
-124.2307
 30
0.0
 10
-61.8461
 20
-124.2307
 30
0.0
 10
-61.8461
 20
-124.2307
 30
0.0
 10
-61.8461
 20
-124.2307
 30
0.0
 10
-70.0
 20
-130.0
 30
0.0
 10
-70.0
 20
-130.0
 30
0.0
 10
-70.0
 20
-130.0
 30
0.0
 10
-70.0
 20
-130.0
 30
0.0
 10
-71.0
 20
-136.0
 30
0.0
 10
-71.0
 20
-136.0
 30
0.0
 10
-71.0
 20
-136.0
 30
0.0
 10
-71.0
 20
-136.0
 30
0.0
 10
-67.0
 20
-143.0
 30
0.0
 10
-67.0
 20
-143.0
 30
0.0
 10
-67.0
 20
-143.0
 30
0.0
 10
-67.0
 20
-143.0
 30
0.0
 10
-66.153800000000004
 20
-143.23070000000001
 30
0.0
 10
-66.153800000000004
 20
-143.23070000000001
 30
0.0
 10
-66.153800000000004
 20
-143.23070000000001
 30
0.0
 10
-66.153800000000004
 20
-143.23070000000001
 30
0.0
 10
-64.0
 20
-145.0
 30
0.0
 10
-64.0
 20
-145.0
 30
0.0
 10
-64.0
 20
-145.0
 30
0.0
 10
-64.0
 20
-145.0
 30
0.0
 10
-58.0
 20
-145.0
 30
0.0
 10
-58.0
 20
-145.0
 30
0.0
 10
-58.0
 20
-145.0
 30
0.0
 10
-58.0
 20
-145.0
 30
0.0
 10
-38.100000000000001
 20
-134.80000000000001
 30
0.0
 10
-38.100000000000001
 20
-134.80000000000001
 30
0.0
 10
-38.100000000000001
 20
-134.80000000000001
 30
0.0
 10
-38.100000000000001
 20
-134.80000000000001
 30
0.0
 10
-24.100000000000001
 20
-126.8
 30
0.0
 10
-24.100000000000001
 20
-126.8
 30
0.0
 10
-24.100000000000001
 20
-126.8
 30
0.0
 10
-24.100000000000001
 20
-126.8
 30
0.0
 10
-17.932400000000001
 20
-124.4054
 30
0.0
 10
-17.932400000000001
 20
-124.4054
 30
0.0
 10
-17.932400000000001
 20
-124.4054
 30
0.0
 10
-17.932400000000001
 20
-124.4054
 30
0.0
 10
-12.0
 20
-123.0
 30
0.0
 10
-12.0
 20
-123.0
 30
0.0
 10
-12.0
 20
-123.0
 30
0.0
 10
-12.0
 20
-123.0
 30
0.0
 10
-3.9117000000000002
 20
-124.64700000000001
 30
0.0
 10
-3.9117000000000002
 20
-124.64700000000001
 30
0.0
 10
-3.9117000000000002
 20
-124.64700000000001
 30
0.0
 10
-3.9117000000000002
 20
-124.64700000000001
 30
0.0
 10
-1.0882000000000001
 20
-125.35290000000001
 30
0.0
 10
-1.0882000000000001
 20
-125.35290000000001
 30
0.0
 10
-1.0882000000000001
 20
-125.35290000000001
 30
0.0
 10
-1.0882000000000001
 20
-125.35290000000001
 30
0.0
 10
32.899999999999999
 20
-143.19999999999999
 30
0.0
 10
32.899999999999999
 20
-143.19999999999999
 30
0.0
 10
32.899999999999999
 20
-143.19999999999999
 30
0.0
 10
32.899999999999999
 20
-143.19999999999999
 30
0.0
 10
38.060000000000002
 20
-145.58000000000001
 30
0.0
 10
38.060000000000002
 20
-145.58000000000001
 30
0.0
 10
38.060000000000002
 20
-145.58000000000001
 30
0.0
 10
38.060000000000002
 20
-145.58000000000001
 30
0.0
 10
44.0
 20
-146.0
 30
0.0
 10
44.0
 20
-146.0
 30
0.0
  0
SPLINE
  5
42
100
AcDbEntity
  8
0
 62
     7
100
AcDbSpline
210
0.0
220
0.0
230
1.0
 70
     1
 71
     3
 72
   100
 73
    96
 74
     0
 42
0.0000000001
 43
0.0000000001
 40
0.0
 40
0.0
 40
0.0
 40
0.0
 40
0.0416666666666667
 40
0.0416666666666667
 40
0.0416666666666667
 40
0.0416666666666667
 40
0.0833333333333333
 40
0.0833333333333333
 40
0.0833333333333333
 40
0.0833333333333333
 40
0.125
 40
0.125
 40
0.125
 40
0.125
 40
0.1666666666666667
 40
0.1666666666666667
 40
0.1666666666666667
 40
0.1666666666666667
 40
0.2083333333333333
 40
0.2083333333333333
 40
0.2083333333333333
 40
0.2083333333333333
 40
0.25
 40
0.25
 40
0.25
 40
0.25
 40
0.2916666666666666
 40
0.2916666666666666
 40
0.2916666666666666
 40
0.2916666666666666
 40
0.3333333333333333
 40
0.3333333333333333
 40
0.3333333333333333
 40
0.3333333333333333
 40
0.375
 40
0.375
 40
0.375
 40
0.375
 40
0.4166666666666667
 40
0.4166666666666667
 40
0.4166666666666667
 40
0.4166666666666667
 40
0.4583333333333334
 40
0.4583333333333334
 40
0.4583333333333334
 40
0.4583333333333334
 40
0.5
 40
0.5
 40
0.5
 40
0.5
 40
0.5416666666666666
 40
0.5416666666666666
 40
0.5416666666666666
 40
0.5416666666666666
 40
0.5833333333333333
 40
0.5833333333333333
 40
0.5833333333333333
 40
0.5833333333333333
 40
0.6249999999999999
 40
0.6249999999999999
 40
0.6249999999999999
 40
0.6249999999999999
 40
0.6666666666666665
 40
0.6666666666666665
 40
0.6666666666666665
 40
0.6666666666666665
 40
0.7083333333333332
 40
0.7083333333333332
 40
0.7083333333333332
 40
0.7083333333333332
 40
0.7499999999999998
 40
0.7499999999999998
 40
0.7499999999999998
 40
0.7499999999999998
 40
0.7916666666666664
 40
0.7916666666666664
 40
0.7916666666666664
 40
0.7916666666666664
 40
0.833333333333333
 40
0.833333333333333
 40
0.833333333333333
 40
0.833333333333333
 40
0.8749999999999997
 40
0.8749999999999997
 40
0.8749999999999997
 40
0.8749999999999997
 40
0.9166666666666663
 40
0.9166666666666663
 40
0.9166666666666663
 40
0.9166666666666663
 40
0.9583333333333329
 40
0.9583333333333329
 40
0.9583333333333329
 40
0.9583333333333329
 40
1.0
 40
1.0
 40
1.0
 40
1.0
 10
-46.0
 20
-180.0
 30
0.0
 10
-46.0
 20
-180.0
 30
0.0
 10
-42.100000000000001
 20
-177.80000000000001
 30
0.0
 10
-42.100000000000001
 20
-177.80000000000001
 30
0.0
 10
-42.100000000000001
 20
-177.80000000000001
 30
0.0
 10
-42.100000000000001
 20
-177.80000000000001
 30
0.0
 10
-15.9117
 20
-162.35290000000001
 30
0.0
 10
-15.9117
 20
-162.35290000000001
 30
0.0
 10
-15.9117
 20
-162.35290000000001
 30
0.0
 10
-15.9117
 20
-162.35290000000001
 30
0.0
 10
-12.0
 20
-161.0
 30
0.0
 10
-12.0
 20
-161.0
 30
0.0
 10
-12.0
 20
-161.0
 30
0.0
 10
-12.0
 20
-161.0
 30
0.0
 10
-8.9116999999999997
 20
-161.64699999999999
 30
0.0
 10
-8.9116999999999997
 20
-161.64699999999999
 30
0.0
 10
-8.9116999999999997
 20
-161.64699999999999
 30
0.0
 10
-8.9116999999999997
 20
-161.64699999999999
 30
0.0
 10
-6.0881999999999996
 20
-162.35290000000001
 30
0.0
 10
-6.0881999999999996
 20
-162.35290000000001
 30
0.0
 10
-6.0881999999999996
 20
-162.35290000000001
 30
0.0
 10
-6.0881999999999996
 20
-162.35290000000001
 30
0.0
 10
-0.1538
 20
-165.23070000000001
 30
0.0
 10
-0.1538
 20
-165.23070000000001
 30
0.0
 10
-0.1538
 20
-165.23070000000001
 30
0.0
 10
-0.1538
 20
-165.23070000000001
 30
0.0
 10
10.1
 20
-170.69999999999999
 30
0.0
 10
10.1
 20
-170.69999999999999
 30
0.0
 10
10.1
 20
-170.69999999999999
 30
0.0
 10
10.1
 20
-170.69999999999999
 30
0.0
 10
11.9
 20
-171.30000000000001
 30
0.0
 10
11.9
 20
-171.30000000000001
 30
0.0
 10
11.9
 20
-171.30000000000001
 30
0.0
 10
11.9
 20
-171.30000000000001
 30
0.0
 10
25.0
 20
-176.0
 30
0.0
 10
25.0
 20
-176.0
 30
0.0
 10
25.0
 20
-176.0
 30
0.0
 10
25.0
 20
-176.0
 30
0.0
 10
28.899999999999999
 20
-174.80000000000001
 30
0.0
 10
28.899999999999999
 20
-174.80000000000001
 30
0.0
 10
28.899999999999999
 20
-174.80000000000001
 30
0.0
 10
28.899999999999999
 20
-174.80000000000001
 30
0.0
 10
30.100000000000001
 20
-174.19999999999999
 30
0.0
 10
30.100000000000001
 20
-174.19999999999999
 30
0.0
 10
30.100000000000001
 20
-174.19999999999999
 30
0.0
 10
30.100000000000001
 20
-174.19999999999999
 30
0.0
 10
34.0
 20
-171.0
 30
0.0
 10
34.0
 20
-171.0
 30
0.0
 10
34.0
 20
-171.0
 30
0.0
 10
34.0
 20
-171.0
 30
0.0
 10
35.0
 20
-167.0
 30
0.0
 10
35.0
 20
-167.0
 30
0.0
 10
35.0
 20
-167.0
 30
0.0
 10
35.0
 20
-167.0
 30
0.0
 10
27.0
 20
-159.0
 30
0.0
 10
27.0
 20
-159.0
 30
0.0
 10
27.0
 20
-159.0
 30
0.0
 10
27.0
 20
-159.0
 30
0.0
 10
11.8461
 20
-148.23070000000001
 30
0.0
 10
11.8461
 20
-148.23070000000001
 30
0.0
 10
11.8461
 20
-148.23070000000001
 30
0.0
 10
11.8461
 20
-148.23070000000001
 30
0.0
 10
6.0999999999999996
 20
-144.80000000000001
 30
0.0
 10
6.0999999999999996
 20
-144.80000000000001
 30
0.0
 10
6.0999999999999996
 20
-144.80000000000001
 30
0.0
 10
6.0999999999999996
 20
-144.80000000000001
 30
0.0
 10
-7.0
 20
-139.0
 30
0.0
 10
-7.0
 20
-139.0
 30
0.0
 10
-7.0
 20
-139.0
 30
0.0
 10
-7.0
 20
-139.0
 30
0.0
 10
-17.9117
 20
-141.35290000000001
 30
0.0
 10
-17.9117
 20
-141.35290000000001
 30
0.0
 10
-17.9117
 20
-141.35290000000001
 30
0.0
 10
-17.9117
 20
-141.35290000000001
 30
0.0
 10
-40.899999999999999
 20
-153.19999999999999
 30
0.0
 10
-40.899999999999999
 20
-153.19999999999999
 30
0.0
 10
-40.899999999999999
 20
-153.19999999999999
 30
0.0
 10
-40.899999999999999
 20
-153.19999999999999
 30
0.0
 10
-49.899999999999999
 20
-158.19999999999999
 30
0.0
 10
-49.899999999999999
 20
-158.19999999999999
 30
0.0
 10
-49.899999999999999
 20
-158.19999999999999
 30
0.0
 10
-49.899999999999999
 20
-158.19999999999999
 30
0.0
 10
-55.0
 20
-161.0
 30
0.0
 10
-55.0
 20
-161.0
 30
0.0
 10
-55.0
 20
-161.0
 30
0.0
 10
-55.0
 20
-161.0
 30
0.0
 10
-55.0
 20
-166.0
 30
0.0
 10
-55.0
 20
-166.0
 30
0.0
 10
-55.0
 20
-166.0
 30
0.0
 10
-55.0
 20
-166.0
 30
0.0
 10
-51.230699999999999
 20
-174.15379999999999
 30
0.0
 10
-51.230699999999999
 20
-174.15379999999999
 30
0.0
 10
-51.230699999999999
 20
-174.15379999999999
 30
0.0
 10
-51.230699999999999
 20
-174.15379999999999
 30
0.0
 10
-46.0
 20
-180.0
 30
0.0
 10
-46.0
 20
-180.0
 30
0.0
  0
SPLINE
  5
43
100
AcDbEntity
  8
0
 62
     7
100
AcDbSpline
210
0.0
220
0.0
230
1.0
 70
     1
 71
     3
 72
    76
 73
    72
 74
     0
 42
0.0000000001
 43
0.0000000001
 40
0.0
 40
0.0
 40
0.0
 40
0.0
 40
0.0555555555555556
 40
0.0555555555555556
 40
0.0555555555555556
 40
0.0555555555555556
 40
0.1111111111111111
 40
0.1111111111111111
 40
0.1111111111111111
 40
0.1111111111111111
 40
0.1666666666666667
 40
0.1666666666666667
 40
0.1666666666666667
 40
0.1666666666666667
 40
0.2222222222222222
 40
0.2222222222222222
 40
0.2222222222222222
 40
0.2222222222222222
 40
0.2777777777777778
 40
0.2777777777777778
 40
0.2777777777777778
 40
0.2777777777777778
 40
0.3333333333333334
 40
0.3333333333333334
 40
0.3333333333333334
 40
0.3333333333333334
 40
0.388888888888889
 40
0.388888888888889
 40
0.388888888888889
 40
0.388888888888889
 40
0.4444444444444445
 40
0.4444444444444445
 40
0.4444444444444445
 40
0.4444444444444445
 40
0.5000000000000001
 40
0.5000000000000001
 40
0.5000000000000001
 40
0.5000000000000001
 40
0.5555555555555557
 40
0.5555555555555557
 40
0.5555555555555557
 40
0.5555555555555557
 40
0.6111111111111113
 40
0.6111111111111113
 40
0.6111111111111113
 40
0.6111111111111113
 40
0.6666666666666669
 40
0.6666666666666669
 40
0.6666666666666669
 40
0.6666666666666669
 40
0.7222222222222224
 40
0.7222222222222224
 40
0.7222222222222224
 40
0.7222222222222224
 40
0.777777777777778
 40
0.777777777777778
 40
0.777777777777778
 40
0.777777777777778
 40
0.8333333333333336
 40
0.8333333333333336
 40
0.8333333333333336
 40
0.8333333333333336
 40
0.8888888888888892
 40
0.8888888888888892
 40
0.8888888888888892
 40
0.8888888888888892
 40
0.9444444444444448
 40
0.9444444444444448
 40
0.9444444444444448
 40
0.9444444444444448
 40
1.0
 40
1.0
 40
1.0
 40
1.0
 10
6.0
 20
-207.0
 30
0.0
 10
6.0
 20
-207.0
 30
0.0
 10
9.9000000000000004
 20
-204.80000000000001
 30
0.0
 10
9.9000000000000004
 20
-204.80000000000001
 30
0.0
 10
9.9000000000000004
 20
-204.80000000000001
 30
0.0
 10
9.9000000000000004
 20
-204.80000000000001
 30
0.0
 10
14.0
 20
-202.0
 30
0.0
 10
14.0
 20
-202.0
 30
0.0
 10
14.0
 20
-202.0
 30
0.0
 10
14.0
 20
-202.0
 30
0.0
 10
17.0
 20
-195.0
 30
0.0
 10
17.0
 20
-195.0
 30
0.0
 10
17.0
 20
-195.0
 30
0.0
 10
17.0
 20
-195.0
 30
0.0
 10
7.1538000000000004
 20
-187.76920000000001
 30
0.0
 10
7.1538000000000004
 20
-187.76920000000001
 30
0.0
 10
7.1538000000000004
 20
-187.76920000000001
 30
0.0
 10
7.1538000000000004
 20
-187.76920000000001
 30
0.0
 10
4.1538000000000004
 20
-185.76920000000001
 30
0.0
 10
4.1538000000000004
 20
-185.76920000000001
 30
0.0
 10
4.1538000000000004
 20
-185.76920000000001
 30
0.0
 10
4.1538000000000004
 20
-185.76920000000001
 30
0.0
 10
-5.0
 20
-181.0
 30
0.0
 10
-5.0
 20
-181.0
 30
0.0
 10
-5.0
 20
-181.0
 30
0.0
 10
-5.0
 20
-181.0
 30
0.0
 10
-11.0
 20
-181.0
 30
0.0
 10
-11.0
 20
-181.0
 30
0.0
 10
-11.0
 20
-181.0
 30
0.0
 10
-11.0
 20
-181.0
 30
0.0
 10
-15.923
 20
-182.38460000000001
 30
0.0
 10
-15.923
 20
-182.38460000000001
 30
0.0
 10
-15.923
 20
-182.38460000000001
 30
0.0
 10
-15.923
 20
-182.38460000000001
 30
0.0
 10
-24.8461
 20
-186.23070000000001
 30
0.0
 10
-24.8461
 20
-186.23070000000001
 30
0.0
 10
-24.8461
 20
-186.23070000000001
 30
0.0
 10
-24.8461
 20
-186.23070000000001
 30
0.0
 10
-34.0
 20
-193.0
 30
0.0
 10
-34.0
 20
-193.0
 30
0.0
 10
-34.0
 20
-193.0
 30
0.0
 10
-34.0
 20
-193.0
 30
0.0
 10
-34.700000000000003
 20
-195.09999999999999
 30
0.0
 10
-34.700000000000003
 20
-195.09999999999999
 30
0.0
 10
-34.700000000000003
 20
-195.09999999999999
 30
0.0
 10
-34.700000000000003
 20
-195.09999999999999
 30
0.0
 10
-36.0
 20
-198.0
 30
0.0
 10
-36.0
 20
-198.0
 30
0.0
 10
-36.0
 20
-198.0
 30
0.0
 10
-36.0
 20
-198.0
 30
0.0
 10
-35.200000000000003
 20
-201.09999999999999
 30
0.0
 10
-35.200000000000003
 20
-201.09999999999999
 30
0.0
 10
-35.200000000000003
 20
-201.09999999999999
 30
0.0
 10
-35.200000000000003
 20
-201.09999999999999
 30
0.0
 10
-35.0
 20
-202.0
 30
0.0
 10
-35.0
 20
-202.0
 30
0.0
 10
-35.0
 20
-202.0
 30
0.0
 10
-35.0
 20
-202.0
 30
0.0
 10
-29.0
 20
-205.0
 30
0.0
 10
-29.0
 20
-205.0
 30
0.0
 10
-29.0
 20
-205.0
 30
0.0
 10
-29.0
 20
-205.0
 30
0.0
 10
-10.0
 20
-203.0
 30
0.0
 10
-10.0
 20
-203.0
 30
0.0
 10
-10.0
 20
-203.0
 30
0.0
 10
-10.0
 20
-203.0
 30
0.0
 10
-4.0999999999999996
 20
-205.30000000000001
 30
0.0
 10
-4.0999999999999996
 20
-205.30000000000001
 30
0.0
 10
-4.0999999999999996
 20
-205.30000000000001
 30
0.0
 10
-4.0999999999999996
 20
-205.30000000000001
 30
0.0
 10
6.0
 20
-207.0
 30
0.0
 10
6.0
 20
-207.0
 30
0.0
  0
SPLINE
  5
44
100
AcDbEntity
  8
0
 62
     7
100
AcDbSpline
210
0.0
220
0.0
230
1.0
 70
     1
 71
     3
 72
    84
 73
    80
 74
     0
 42
0.0000000001
 43
0.0000000001
 40
0.0
 40
0.0
 40
0.0
 40
0.0
 40
0.05
 40
0.05
 40
0.05
 40
0.05
 40
0.1
 40
0.1
 40
0.1
 40
0.1
 40
0.15
 40
0.15
 40
0.15
 40
0.15
 40
0.2
 40
0.2
 40
0.2
 40
0.2
 40
0.25
 40
0.25
 40
0.25
 40
0.25
 40
0.3
 40
0.3
 40
0.3
 40
0.3
 40
0.35
 40
0.35
 40
0.35
 40
0.35
 40
0.4
 40
0.4
 40
0.4
 40
0.4
 40
0.45
 40
0.45
 40
0.45
 40
0.45
 40
0.4999999999999999
 40
0.4999999999999999
 40
0.4999999999999999
 40
0.4999999999999999
 40
0.5499999999999999
 40
0.5499999999999999
 40
0.5499999999999999
 40
0.5499999999999999
 40
0.6
 40
0.6
 40
0.6
 40
0.6
 40
0.65
 40
0.65
 40
0.65
 40
0.65
 40
0.7000000000000001
 40
0.7000000000000001
 40
0.7000000000000001
 40
0.7000000000000001
 40
0.7500000000000001
 40
0.7500000000000001
 40
0.7500000000000001
 40
0.7500000000000001
 40
0.8000000000000002
 40
0.8000000000000002
 40
0.8000000000000002
 40
0.8000000000000002
 40
0.8500000000000002
 40
0.8500000000000002
 40
0.8500000000000002
 40
0.8500000000000002
 40
0.9000000000000002
 40
0.9000000000000002
 40
0.9000000000000002
 40
0.9000000000000002
 40
0.9500000000000003
 40
0.9500000000000003
 40
0.9500000000000003
 40
0.9500000000000003
 40
1.0
 40
1.0
 40
1.0
 40
1.0
 10
-10.0
 20
-268.0
 30
0.0
 10
-10.0
 20
-268.0
 30
0.0
 10
-5.0769000000000002
 20
-266.61529999999999
 30
0.0
 10
-5.0769000000000002
 20
-266.61529999999999
 30
0.0
 10
-5.0769000000000002
 20
-266.61529999999999
 30
0.0
 10
-5.0769000000000002
 20
-266.61529999999999
 30
0.0
 10
-1.1799999999999999
 20
-264.75999999999999
 30
0.0
 10
-1.1799999999999999
 20
-264.75999999999999
 30
0.0
 10
-1.1799999999999999
 20
-264.75999999999999
 30
0.0
 10
-1.1799999999999999
 20
-264.75999999999999
 30
0.0
 10
3.0
 20
-262.0
 30
0.0
 10
3.0
 20
-262.0
 30
0.0
 10
3.0
 20
-262.0
 30
0.0
 10
3.0
 20
-262.0
 30
0.0
 10
6.2000000000000002
 20
-256.10000000000002
 30
0.0
 10
6.2000000000000002
 20
-256.10000000000002
 30
0.0
 10
6.2000000000000002
 20
-256.10000000000002
 30
0.0
 10
6.2000000000000002
 20
-256.10000000000002
 30
0.0
 10
7.0
 20
-255.0
 30
0.0
 10
7.0
 20
-255.0
 30
0.0
 10
7.0
 20
-255.0
 30
0.0
 10
7.0
 20
-255.0
 30
0.0
 10
7.0
 20
-245.0
 30
0.0
 10
7.0
 20
-245.0
 30
0.0
 10
7.0
 20
-245.0
 30
0.0
 10
7.0
 20
-245.0
 30
0.0
 10
5.0
 20
-241.0
 30
0.0
 10
5.0
 20
-241.0
 30
0.0
 10
5.0
 20
-241.0
 30
0.0
 10
5.0
 20
-241.0
 30
0.0
 10
-0.8461
 20
-235.76920000000001
 30
0.0
 10
-0.8461
 20
-235.76920000000001
 30
0.0
 10
-0.8461
 20
-235.76920000000001
 30
0.0
 10
-0.8461
 20
-235.76920000000001
 30
0.0
 10
-7.0
 20
-233.0
 30
0.0
 10
-7.0
 20
-233.0
 30
0.0
 10
-7.0
 20
-233.0
 30
0.0
 10
-7.0
 20
-233.0
 30
0.0
 10
-13.0
 20
-233.0
 30
0.0
 10
-13.0
 20
-233.0
 30
0.0
 10
-13.0
 20
-233.0
 30
0.0
 10
-13.0
 20
-233.0
 30
0.0
 10
-16.793099999999999
 20
-234.5172
 30
0.0
 10
-16.793099999999999
 20
-234.5172
 30
0.0
 10
-16.793099999999999
 20
-234.5172
 30
0.0
 10
-16.793099999999999
 20
-234.5172
 30
0.0
 10
-19.1538
 20
-235.76920000000001
 30
0.0
 10
-19.1538
 20
-235.76920000000001
 30
0.0
 10
-19.1538
 20
-235.76920000000001
 30
0.0
 10
-19.1538
 20
-235.76920000000001
 30
0.0
 10
-26.0
 20
-242.0
 30
0.0
 10
-26.0
 20
-242.0
 30
0.0
 10
-26.0
 20
-242.0
 30
0.0
 10
-26.0
 20
-242.0
 30
0.0
 10
-26.300000000000001
 20
-243.90000000000001
 30
0.0
 10
-26.300000000000001
 20
-243.90000000000001
 30
0.0
 10
-26.300000000000001
 20
-243.90000000000001
 30
0.0
 10
-26.300000000000001
 20
-243.90000000000001
 30
0.0
 10
-27.0
 20
-245.0
 30
0.0
 10
-27.0
 20
-245.0
 30
0.0
 10
-27.0
 20
-245.0
 30
0.0
 10
-27.0
 20
-245.0
 30
0.0
 10
-27.0
 20
-256.0
 30
0.0
 10
-27.0
 20
-256.0
 30
0.0
 10
-27.0
 20
-256.0
 30
0.0
 10
-27.0
 20
-256.0
 30
0.0
 10
-24.0
 20
-261.0
 30
0.0
 10
-24.0
 20
-261.0
 30
0.0
 10
-24.0
 20
-261.0
 30
0.0
 10
-24.0
 20
-261.0
 30
0.0
 10
-18.82
 20
-264.75999999999999
 30
0.0
 10
-18.82
 20
-264.75999999999999
 30
0.0
 10
-18.82
 20
-264.75999999999999
 30
0.0
 10
-18.82
 20
-264.75999999999999
 30
0.0
 10
-14.923
 20
-266.61529999999999
 30
0.0
 10
-14.923
 20
-266.61529999999999
 30
0.0
 10
-14.923
 20
-266.61529999999999
 30
0.0
 10
-14.923
 20
-266.61529999999999
 30
0.0
 10
-10.0
 20
-268.0
 30
0.0
 10
-10.0
 20
-268.0
 30
0.0
  0
ENDSEC
  0
SECTION
  2
OBJECTS
  0
DICTIONARY
  5
19
100
AcDbDictionary
280
     0
281
     1
  3
ACAD_GROUP
350
1A
  3
ACAD_MLINESTYLE
350
1B
  3
ACAD_LAYOUT
350
1E
  3
ACAD_PLOTSETTINGS
350
22
  3
ACAD_PLOTSTYLENAME
350
1F
  3
ACAD_WIPEOUT_VARS
350
23
  0
DICTIONARY
  5
1A
102
{ACAD_REACTORS
330
19
102
}
100
AcDbDictionary
280
     0
281
     1
  0
DICTIONARY
  5
1B
102
{ACAD_REACTORS
330
19
102
}
100
AcDbDictionary
280
     0
281
     1
  3
Standard
350
1C
  0
MLINESTYLE
  5
1C
102
{ACAD_REACTORS
330
1B
102
}
100
AcDbMlineStyle
  2
Standard
 70
     0
  3

 62
     0
 51
90.0
 52
90.0
 71
     2
 49
0.5
 62
   256
  6
BYLAYER
 49
-0.5
 62
   256
  6
BYLAYER
  0
ACDBDICTIONARYWDFLT
  5
1F
102
{ACAD_REACTORS
330
19
102
}
100
AcDbDictionary
281
     1
  3
Normal
350
1D
100
AcDbDictionaryWithDefault
340
1D
  0
ACDBPLACEHOLDER
  5
1D
102
{ACAD_REACTORS
330
1F
102
}
  0
LAYOUT
  5
20
102
{ACAD_REACTORS
330
1E
102
}
100
AcDbPlotSettings
  1

  2

  4

  6

 40
0.0
 41
0.0
 42
0.0
 43
0.0
 44
0.0
 45
0.0
 46
0.0
 47
0.0
 48
0.0
 49
0.0
140
0.0
141
0.0
142
1.0
143
1.0
 70
  1024
 72
     0
 73
     0
 74
     0
  7

 75
     0
147
1.0
148
0.0
149
0.0
100
AcDbLayout
  1
Model
 70
     0
 71
     0
 10
0.0
 20
0.0
 11
0.0
 21
0.0
 12
0.0
 22
0.0
 32
0.0
 14
0.0
 24
0.0
 34
0.0
 15
0.0
 25
0.0
 35
0.0
146
0.0
 13
0.0
 23
0.0
 33
0.0
 16
0.0
 26
0.0
 36
0.0
 17
0.0
 27
0.0
 37
0.0
 76
     0
330
A
331
0
345
0
346
0
  0
LAYOUT
  5
21
102
{ACAD_REACTORS
330
1E
102
}
100
AcDbPlotSettings
  1

  2

  4

  6

 40
0.0
 41
0.0
 42
0.0
 43
0.0
 44
0.0
 45
0.0
 46
0.0
 47
0.0
 48
0.0
 49
0.0
140
0.0
141
0.0
142
1.0
143
1.0
 70
     0
 72
     0
 73
     0
 74
     0
  7

 75
     0
147
1.0
148
0.0
149
0.0
100
AcDbLayout
  1
Layout1
 70
     0
 71
     0
 10
0.0
 20
0.0
 11
0.0
 21
0.0
 12
0.0
 22
0.0
 32
0.0
 14
0.0
 24
0.0
 34
0.0
 15
0.0
 25
0.0
 35
0.0
146
0.0
 13
0.0
 23
0.0
 33
0.0
 16
0.0
 26
0.0
 36
0.0
 17
0.0
 27
0.0
 37
0.0
 76
     0
330
B
331
0
345
0
346
0
  0
DICTIONARY
  5
1E
102
{ACAD_REACTORS
330
19
102
}
100
AcDbDictionary
280
     0
281
     1
  3
Layout1
350
21
  3
Model
350
20
  0
DICTIONARY
  5
22
102
{ACAD_REACTORS
330
19
102
}
100
AcDbDictionary
280
     0
281
     1
  0
WIPEOUTVARIABLES
  5
23
100
AcDbWipeoutVariables
 70
     1
  0
ENDSEC
  0
EOF
