  0
SECTION
  2
HEADER
  9
$ACADVER
  1
AC1015
  9
$ACADMAINTVER
 70
     6
  9
$DWGCODEPAGE
  3
DOS850
  9
$INSBASE
 10
0.0
 20
0.0
 30
0.0
  9
$EXTMIN
 10
-1368.108
 20
-536.4038
 30
1.000000E+20
  9
$EXTMAX
 10
-889.108
 20
148.5961
 30
-1.000000E+20
  9
$LIMMIN
 10
0.0
 20
0.0
  9
$LIMMAX
 10
0.0
 20
0.0
  9
$ORTHOMODE
 70
     0
  9
$REGENMODE
 70
     1
  9
$FILLMODE
 70
     1
  9
$QTEXTMODE
 70
     0
  9
$MIRRTEXT
 70
     1
  9
$LTSCALE
 40
1.0
  9
$ATTMODE
 70
     1
  9
$TEXTSIZE
 40
0.2
  9
$TRACEWID
 40
0.05
  9
$TEXTSTYLE
  7
Standard
  9
$CLAYER
  8
0
  9
$CELTYPE
  6
Continuous
  9
$CECOLOR
 62
   256
  9
$CELTSCALE
 40
1.0
  9
$DISPSILH
 70
     0
  9
$DIMSCALE
 40
1.0
  9
$DIMASZ
 40
0.18
  9
$DIMEXO
 40
0.0625
  9
$DIMDLI
 40
0.38
  9
$DIMRND
 40
0.0
  9
$DIMDLE
 40
0.0
  9
$DIMEXE
 40
0.18
  9
$DIMTP
 40
0.0
  9
$DIMTM
 40
0.0
  9
$DIMTXT
 40
0.18
  9
$DIMCEN
 40
0.09
  9
$DIMTSZ
 40
0.0
  9
$DIMTOL
 70
     0
  9
$DIMLIM
 70
     0
  9
$DIMTIH
 70
     1
  9
$DIMTOH
 70
     1
  9
$DIMSE1
 70
     0
  9
$DIMSE2
 70
     0
  9
$DIMTAD
 70
     0
  9
$DIMZIN
 70
     0
  9
$DIMBLK
  1

  9
$DIMASO
 70
     1
  9
$DIMSHO
 70
     1
  9
$DIMPOST
  1

  9
$DIMAPOST
  1

  9
$DIMALT
 70
     0
  9
$DIMALTD
 70
     2
  9
$DIMALTF
 40
25.4
  9
$DIMLFAC
 40
1.0
  9
$DIMTOFL
 70
     0
  9
$DIMTVP
 40
0.0
  9
$DIMTIX
 70
     0
  9
$DIMSOXD
 70
     0
  9
$DIMSAH
 70
     0
  9
$DIMBLK1
  1

  9
$DIMBLK2
  1

  9
$DIMSTYLE
  2
Standard
  9
$DIMCLRD
 70
     0
  9
$DIMCLRE
 70
     0
  9
$DIMCLRT
 70
     0
  9
$DIMTFAC
 40
1.0
  9
$DIMGAP
 40
0.09
  9
$DIMJUST
 70
     0
  9
$DIMSD1
 70
     0
  9
$DIMSD2
 70
     0
  9
$DIMTOLJ
 70
     1
  9
$DIMTZIN
 70
     0
  9
$DIMALTZ
 70
     0
  9
$DIMALTTZ
 70
     0
  9
$DIMUPT
 70
     0
  9
$DIMDEC
 70
     4
  9
$DIMTDEC
 70
     4
  9
$DIMALTU
 70
     2
  9
$DIMALTTD
 70
     2
  9
$DIMTXSTY
  7
Standard
  9
$DIMAUNIT
 70
     0
  9
$DIMADEC
 70
     0
  9
$DIMALTRND
 40
0.0
  9
$DIMAZIN
 70
     0
  9
$DIMDSEP
 70
     0
  9
$DIMATFIT
 70
     3
  9
$DIMFRAC
 70
     0
  9
$DIMLDRBLK
  1

  9
$DIMLUNIT
 70
     2
  9
$DIMLWD
 70
     0
  9
$DIMLWE
 70
     0
  9
$DIMTMOVE
 70
     0
  9
$LUNITS
 70
     2
  9
$LUPREC
 70
     4
  9
$SKETCHINC
 40
0.1
  9
$FILLETRAD
 40
0.0
  9
$AUNITS
 70
     0
  9
$AUPREC
 70
     0
  9
$MENU
  1
acad
  9
$ELEVATION
 40
0.0
  9
$PELEVATION
 40
0.0
  9
$THICKNESS
 40
0.0
  9
$LIMCHECK
 70
     0
  9
$CHAMFERA
 40
0.0
  9
$CHAMFERB
 40
0.0
  9
$CHAMFERC
 40
0.0
  9
$CHAMFERD
 40
0.0
  9
$SKPOLY
 70
     0
  9
$TDCREATE
 40
0.000000000
  9
$TDUCREATE
 40
0.000000000
  9
$TDUPDATE
 40
0.000000000
  9
$TDUUPDATE
 40
0.000000000
  9
$TDINDWG
 40
0.0000000000
  9
$TDUSRTIMER
 40
0.0000000000
  9
$USRTIMER
 70
     1
  9
$ANGBASE
 50
0.0
  9
$ANGDIR
 70
     0
  9
$PDMODE
 70
     0
  9
$PDSIZE
 40
0.0
  9
$PLINEWID
 40
0.0
  9
$SPLFRAME
 70
     0
  9
$SPLINETYPE
 70
     6
  9
$SPLINESEGS
 70
     8
  9
$HANDSEED
  5
32
  9
$SURFTAB1
 70
     6
  9
$SURFTAB2
 70
     6
  9
$SURFTYPE
 70
     6
  9
$SURFU
 70
     6
  9
$SURFV
 70
     6
  9
$UCSBASE
  2

  9
$UCSNAME
  2

  9
$UCSORG
 10
0.0
 20
0.0
 30
0.0
  9
$UCSXDIR
 10
1.0
 20
0.0
 30
0.0
  9
$UCSYDIR
 10
0.0
 20
1.0
 30
0.0
  9
$UCSORTHOREF
  2

  9
$UCSORTHOVIEW
 70
     0
  9
$UCSORGTOP
 10
0.0
 20
0.0
 30
0.0
  9
$UCSORGBOTTOM
 10
0.0
 20
0.0
 30
0.0
  9
$UCSORGLEFT
 10
0.0
 20
0.0
 30
0.0
  9
$UCSORGRIGHT
 10
0.0
 20
0.0
 30
0.0
  9
$UCSORGFRONT
 10
0.0
 20
0.0
 30
0.0
  9
$UCSORGBACK
 10
0.0
 20
0.0
 30
0.0
  9
$PUCSBASE
  2

  9
$PUCSNAME
  2

  9
$PUCSORG
 10
0.0
 20
0.0
 30
0.0
  9
$PUCSXDIR
 10
1.0
 20
0.0
 30
0.0
  9
$PUCSYDIR
 10
0.0
 20
1.0
 30
0.0
  9
$PUCSORTHOREF
  2

  9
$PUCSORTHOVIEW
 70
     0
  9
$PUCSORGTOP
 10
0.0
 20
0.0
 30
0.0
  9
$PUCSORGBOTTOM
 10
0.0
 20
0.0
 30
0.0
  9
$PUCSORGLEFT
 10
0.0
 20
0.0
 30
0.0
  9
$PUCSORGRIGHT
 10
0.0
 20
0.0
 30
0.0
  9
$PUCSORGFRONT
 10
0.0
 20
0.0
 30
0.0
  9
$PUCSORGBACK
 10
0.0
 20
0.0
 30
0.0
  9
$USERI1
 70
     0
  9
$USERI2
 70
     0
  9
$USERI3
 70
     0
  9
$USERI4
 70
     0
  9
$USERI5
 70
     0
  9
$USERR1
 40
0.0
  9
$USERR2
 40
0.0
  9
$USERR3
 40
0.0
  9
$USERR4
 40
0.0
  9
$USERR5
 40
0.0
  9
$WORLDVIEW
 70
     1
  9
$SHADEDGE
 70
     3
  9
$SHADEDIF
 70
    70
  9
$TILEMODE
 70
     1
  9
$MAXACTVP
 70
    16
  9
$PINSBASE
 10
0.0
 20
0.0
 30
0.0
  9
$PLIMCHECK
 70
     0
  9
$PEXTMIN
 10
1.000000E+20
 20
1.000000E+20
 30
1.000000E+20
  9
$PEXTMAX
 10
-1.000000E+20
 20
-1.000000E+20
 30
-1.000000E+20
  9
$PLIMMIN
 10
0.0
 20
0.0
  9
$PLIMMAX
 10
12.0
 20
9.0
  9
$UNITMODE
 70
     0
  9
$VISRETAIN
 70
     0
  9
$PLINEGEN
 70
     1
  9
$PSLTSCALE
 70
     0
  9
$TREEDEPTH
 70
  3020
  9
$CMLSTYLE
  2
Standard
  9
$CMLJUST
 70
     0
  9
$CMLSCALE
 40
1.0
  9
$PROXYGRAPHICS
 70
     0
  9
$MEASUREMENT
 70
     0
  9
$CELWEIGHT
370
     0
  9
$ENDCAPS
280
     0
  9
$JOINSTYLE
280
     0
  9
$LWDISPLAY
290
     0
  9
$INSUNITS
 70
     4
  9
$HYPERLINKBASE
  1

  9
$XEDIT
290
     1
  9
$CEPSNTYPE
380
     0
  9
$PSTYLEMODE
290
     1
  9
$FINGERPRINTGUID
  2

  9
$VERSIONGUID
  2

  9
$EXTNAMES
290
     1
  9
$PSVPSCALE
 40
0.0
  0
ENDSEC
  0
SECTION
  2
CLASSES
  0
CLASS
  1
LWPOLYLINE
  2
AcDbPolyline
  3
AutoCAD 2000
 90
    32768
280
     0
281
     1
  0
CLASS
  1
IMAGE
  2
AcDbRasterImage
  3
ISM
 90
    32895
280
     0
281
     1
  0
CLASS
  1
OLE2FRAME
  2
AcDbOle2Frame
  3
AutoCAD 2000
 90
    32768
280
     0
281
     1
  0
CLASS
  1
HATCH
  2
AcDbHatch
  3
AutoCAD 2000
 90
    32768
280
     0
281
     1
  0
CLASS
  1
DICTIONARYVAR
  2
AcDbDictionaryVar
  3
AutoCAD 2000
 90
    32768
280
     0
281
     0
  0
CLASS
  1
RASTERVARIABLES
  2
AcDbRasterVariables
  3
ISM
 90
    32768
280
     0
281
     0
  0
CLASS
  1
IMAGEDEF
  2
AcDbRasterImageDef
  3
ISM
 90
    32768
280
     0
281
     0
  0
CLASS
  1
IMAGEDEF_REACTOR
  2
AcDbRasterImageDefReactor
  3
ISM
 90
    32769
280
     0
281
     0
  0
CLASS
  1
IDBUFFER
  2
AcDbIdBuffer
  3
AutoCAD 2000
 90
    32768
280
     0
281
     0
  0
CLASS
  1
SPATIAL_FILTER
  2
AcDbSpatialFilter
  3
AutoCAD 2000
 90
    32768
280
     0
281
     0
  0
CLASS
  1
XRECORD
  2
AcDbXrecord
  3
AutoCAD 2000
 90
    32768
280
     0
281
     0
  0
CLASS
  1
SORTENTSTABLE
  2
AcDbSortentsTable
  3
AutoCAD 2000
 90
    32768
280
     0
281
     0
  0
CLASS
  1
LAYER_INDEX
  2
AcDbLayerIndex
  3
AutoCAD 2000
 90
    32768
280
     0
281
     0
  0
CLASS
  1
SPATIAL_INDEX
  2
AcDbSpatialIndex
  3
AutoCAD 2000
 90
    32768
280
     0
281
     0
  0
CLASS
  1
OBJECT_PTR
  2
CAseDLPNTableRecord
  3
"ASE-LPNTableRecord"
 90
    32769
280
     0
281
     0
  0
CLASS
  1
LAYOUT
  2
AcDbLayout
  3
AutoCAD 2000
 90
        0
280
     0
281
     0
  0
CLASS
  1
PLOTSETTINGS
  2
AcDbPlotSettings
  3
AutoCAD 2000
 90
    32768
280
     0
281
     0
  0
CLASS
  1
ACDBDICTIONARYWDFLT
  2
AcDbDictionaryWithDefault
  3
AutoCAD 2000
 90
        0
280
     0
281
     0
  0
CLASS
  1
ACDBPLACEHOLDER
  2
AcDbPlaceHolder
  3
AutoCAD 2000
 90
        0
280
     0
281
     0
  0
CLASS
  1
VBA_PROJECT
  2
AcDbVbaProject
  3
acadvba
 90
    32768
280
     0
281
     0
  0
CLASS
  1
WIPEOUT
  2
AcDbWipeout
  3
WipeOut|AutoCAD Express Tool|expresstools@autodesk.com
 90
    32895
280
     0
281
     1
  0
CLASS
  1
WIPEOUTVARIABLES
  2
AcDbWipeoutVariables
  3
WipeOut|AutoCAD Express Tool|expresstools@autodesk.com
 90
        0
280
     0
281
     0
  0
CLASS
  1
RTEXT
  2
RText
  3
RText|AutoCAD Express Tool|expresstools@autodesk.com
 90
    32768
280
     0
281
     1
  0
CLASS
  1
ARCALIGNEDTEXT
  2
AcDbArcAlignedText
  3
ATEXT|AutoCAD Express Tool|expresstools@autodesk.com
 90
    32768
280
     0
281
     1
  0
ENDSEC
  0
SECTION
  2
TABLES
  0
TABLE
  2
VPORT
  5
7
100
AcDbSymbolTable
 70
     1
  0
VPORT
  5
15
100
AcDbSymbolTableRecord
100
AcDbViewportTableRecord
  2
*ACTIVE
 70
     0
 10
0.0
 20
0.0
 11
1.0
 21
1.0
 12
6.591288
 22
4.579184
 13
0.0
 23
0.0
 14
1.0
 24
1.0
 15
0.0
 25
0.0
 16
0.0
 26
0.0
 36
1.0
 17
0.0
 27
0.0
 37
0.0
 40
9.158369
 41
0.688564
 42
50.0
 43
0.0
 44
0.0
 50
0.0
 51
0.0
 71
     0
 72
   100
 73
     1
 74
     1
 75
     0
 76
     0
 77
     0
 78
     0
281
     0
 65
     0
110
0.0
120
0.0
130
0.0
111
1.0
121
0.0
131
0.0
112
0.0
122
1.0
132
0.0
345
0
346
0
 79
     0
146
0.0
  0
ENDTAB
  0
TABLE
  2
LTYPE
  5
4
100
AcDbSymbolTable
 70
     3
  0
LTYPE
  5
11
100
AcDbSymbolTableRecord
100
AcDbLinetypeTableRecord
  2
ByBlock
 70
    64
  3

 72
    65
 73
     0
 40
0.0
  0
LTYPE
  5
12
100
AcDbSymbolTableRecord
100
AcDbLinetypeTableRecord
  2
ByLayer
 70
    64
  3

 72
    65
 73
     0
 40
0.0
  0
LTYPE
  5
13
100
AcDbSymbolTableRecord
100
AcDbLinetypeTableRecord
  2
Continuous
 70
    64
  3
Solid line
 72
    65
 73
     0
 40
0.0
  0
ENDTAB
  0
TABLE
  2
LAYER
  5
2
100
AcDbSymbolTable
 70
     3
  0
LAYER
  5
14
100
AcDbSymbolTableRecord
100
AcDbLayerTableRecord
  2
0
 70
     0
 62
     7
  6
Continuous
290
     1
370
    -3
390
1D
  0
LAYER
  5
24
100
AcDbSymbolTableRecord
100
AcDbLayerTableRecord
  2
RÚteg 1
 70
     0
 62
     7
  6
Continuous
290
     1
370
    -3
390
1F
  0
LAYER
  5
31
100
AcDbSymbolTableRecord
100
AcDbLayerTableRecord
  2
0
 70
     0
 62
     7
  6
Continuous
290
     1
370
    -3
390
1F
  0
ENDTAB
  0
TABLE
  2
STYLE
  5
3
100
AcDbSymbolTable
 70
     1
  0
STYLE
  5
17
100
AcDbSymbolTableRecord
100
AcDbTextStyleTableRecord
  2
Standard
 70
     0
 40
0.0
 41
1.0
 50
0.0
 71
     0
 42
0.0
  3
txt
  4

  0
ENDTAB
  0
TABLE
  2
VIEW
  5
5
100
AcDbSymbolTable
 70
     0
  0
ENDTAB
  0
TABLE
  2
UCS
  5
6
100
AcDbSymbolTable
 70
     0
  0
ENDTAB
  0
TABLE
  2
APPID
  5
8
100
AcDbSymbolTable
 70
     1
  0
APPID
  5
16
100
AcDbSymbolTableRecord
100
AcDbRegAppTableRecord
  2
ACAD
 70
     0
  0
ENDTAB
  0
TABLE
  2
DIMSTYLE
  5
9
100
AcDbSymbolTable
 70
     1
100
AcDbDimStyleTable
 71
     0
  0
DIMSTYLE
105
18
100
AcDbSymbolTableRecord
100
AcDbDimStyleTableRecord
  2
Standard
 70
     0
  3

  4

 40
1.0
 41
0.18
 42
0.0625
 43
0.38
 44
0.18
 45
0.0
 46
0.0
 47
0.0
 48
0.0
 71
     0
 72
     0
 73
     1
 74
     1
 75
     0
 76
     0
 77
     0
 78
     0
 79
     0
140
0.18
141
0.09
142
0.0
143
25.4
144
1.0
145
0.0
146
1.0
147
0.09
148
0.0
170
     0
171
     2
172
     0
173
     0
174
     0
175
     0
176
     0
177
     0
178
     0
179
     0
271
     4
272
     4
273
     2
274
     2
275
     0
276
     0
277
     2
278
    46
279
     0
280
     0
281
     0
282
     0
283
     1
284
     0
285
     0
286
     0
288
     0
340
17
341
0
342
0
343
0
344
0
371
    -2
372
    -2
  0
ENDTAB
  0
TABLE
  2
BLOCK_RECORD
  5
1
100
AcDbSymbolTable
 70
     0
  0
BLOCK_RECORD
  5
A
100
AcDbSymbolTableRecord
100
AcDbBlockTableRecord
  2
*MODEL_SPACE
340
20
  0
BLOCK_RECORD
  5
B
100
AcDbSymbolTableRecord
100
AcDbBlockTableRecord
  2
*PAPER_SPACE
340
21
  0
ENDTAB
  0
ENDSEC
  0
SECTION
  2
BLOCKS
  0
BLOCK
  5
D
100
AcDbEntity
  8
0
100
AcDbBlockBegin
  2
*MODEL_SPACE
 70
     0
 10
0.0
 20
0.0
 30
0.0
  3
*MODEL_SPACE
  1

  0
ENDBLK
  5
E
100
AcDbEntity
  8
0
100
AcDbBlockEnd
  0
BLOCK
  5
F
100
AcDbEntity
 67
     1
  8
0
100
AcDbBlockBegin
  2
*PAPER_SPACE
 70
     0
 10
0.0
 20
0.0
 30
0.0
  3
*PAPER_SPACE
  1

  0
ENDBLK
  5
10
100
AcDbEntity
 67
     1
  8
0
100
AcDbBlockEnd
  0
ENDSEC
  0
SECTION
  2
ENTITIES
  0
SPLINE
  5
25
100
AcDbEntity
  8
RÚteg 1
 62
     7
100
AcDbSpline
210
0.0
220
0.0
230
1.0
 70
     1
 71
     3
 72
   504
 73
   500
 74
     0
 42
0.0000000001
 43
0.0000000001
 40
0.0
 40
0.0
 40
0.0
 40
0.0
 40
0.008
 40
0.008
 40
0.008
 40
0.008
 40
0.016
 40
0.016
 40
0.016
 40
0.016
 40
0.024
 40
0.024
 40
0.024
 40
0.024
 40
0.032
 40
0.032
 40
0.032
 40
0.032
 40
0.04
 40
0.04
 40
0.04
 40
0.04
 40
0.048
 40
0.048
 40
0.048
 40
0.048
 40
0.056
 40
0.056
 40
0.056
 40
0.056
 40
0.064
 40
0.064
 40
0.064
 40
0.064
 40
0.072
 40
0.072
 40
0.072
 40
0.072
 40
0.08
 40
0.08
 40
0.08
 40
0.08
 40
0.088
 40
0.088
 40
0.088
 40
0.088
 40
0.096
 40
0.096
 40
0.096
 40
0.096
 40
0.104
 40
0.104
 40
0.104
 40
0.104
 40
0.112
 40
0.112
 40
0.112
 40
0.112
 40
0.1200000000000001
 40
0.1200000000000001
 40
0.1200000000000001
 40
0.1200000000000001
 40
0.1280000000000001
 40
0.1280000000000001
 40
0.1280000000000001
 40
0.1280000000000001
 40
0.1360000000000001
 40
0.1360000000000001
 40
0.1360000000000001
 40
0.1360000000000001
 40
0.1440000000000001
 40
0.1440000000000001
 40
0.1440000000000001
 40
0.1440000000000001
 40
0.1520000000000001
 40
0.1520000000000001
 40
0.1520000000000001
 40
0.1520000000000001
 40
0.1600000000000001
 40
0.1600000000000001
 40
0.1600000000000001
 40
0.1600000000000001
 40
0.1680000000000001
 40
0.1680000000000001
 40
0.1680000000000001
 40
0.1680000000000001
 40
0.1760000000000001
 40
0.1760000000000001
 40
0.1760000000000001
 40
0.1760000000000001
 40
0.1840000000000001
 40
0.1840000000000001
 40
0.1840000000000001
 40
0.1840000000000001
 40
0.1920000000000001
 40
0.1920000000000001
 40
0.1920000000000001
 40
0.1920000000000001
 40
0.2000000000000001
 40
0.2000000000000001
 40
0.2000000000000001
 40
0.2000000000000001
 40
0.2080000000000001
 40
0.2080000000000001
 40
0.2080000000000001
 40
0.2080000000000001
 40
0.2160000000000001
 40
0.2160000000000001
 40
0.2160000000000001
 40
0.2160000000000001
 40
0.2240000000000001
 40
0.2240000000000001
 40
0.2240000000000001
 40
0.2240000000000001
 40
0.2320000000000002
 40
0.2320000000000002
 40
0.2320000000000002
 40
0.2320000000000002
 40
0.2400000000000002
 40
0.2400000000000002
 40
0.2400000000000002
 40
0.2400000000000002
 40
0.2480000000000002
 40
0.2480000000000002
 40
0.2480000000000002
 40
0.2480000000000002
 40
0.2560000000000002
 40
0.2560000000000002
 40
0.2560000000000002
 40
0.2560000000000002
 40
0.2640000000000002
 40
0.2640000000000002
 40
0.2640000000000002
 40
0.2640000000000002
 40
0.2720000000000002
 40
0.2720000000000002
 40
0.2720000000000002
 40
0.2720000000000002
 40
0.2800000000000002
 40
0.2800000000000002
 40
0.2800000000000002
 40
0.2800000000000002
 40
0.2880000000000002
 40
0.2880000000000002
 40
0.2880000000000002
 40
0.2880000000000002
 40
0.2960000000000002
 40
0.2960000000000002
 40
0.2960000000000002
 40
0.2960000000000002
 40
0.3040000000000002
 40
0.3040000000000002
 40
0.3040000000000002
 40
0.3040000000000002
 40
0.3120000000000002
 40
0.3120000000000002
 40
0.3120000000000002
 40
0.3120000000000002
 40
0.3200000000000002
 40
0.3200000000000002
 40
0.3200000000000002
 40
0.3200000000000002
 40
0.3280000000000002
 40
0.3280000000000002
 40
0.3280000000000002
 40
0.3280000000000002
 40
0.3360000000000002
 40
0.3360000000000002
 40
0.3360000000000002
 40
0.3360000000000002
 40
0.3440000000000003
 40
0.3440000000000003
 40
0.3440000000000003
 40
0.3440000000000003
 40
0.3520000000000003
 40
0.3520000000000003
 40
0.3520000000000003
 40
0.3520000000000003
 40
0.3600000000000003
 40
0.3600000000000003
 40
0.3600000000000003
 40
0.3600000000000003
 40
0.3680000000000003
 40
0.3680000000000003
 40
0.3680000000000003
 40
0.3680000000000003
 40
0.3760000000000003
 40
0.3760000000000003
 40
0.3760000000000003
 40
0.3760000000000003
 40
0.3840000000000003
 40
0.3840000000000003
 40
0.3840000000000003
 40
0.3840000000000003
 40
0.3920000000000003
 40
0.3920000000000003
 40
0.3920000000000003
 40
0.3920000000000003
 40
0.4000000000000003
 40
0.4000000000000003
 40
0.4000000000000003
 40
0.4000000000000003
 40
0.4080000000000003
 40
0.4080000000000003
 40
0.4080000000000003
 40
0.4080000000000003
 40
0.4160000000000003
 40
0.4160000000000003
 40
0.4160000000000003
 40
0.4160000000000003
 40
0.4240000000000003
 40
0.4240000000000003
 40
0.4240000000000003
 40
0.4240000000000003
 40
0.4320000000000003
 40
0.4320000000000003
 40
0.4320000000000003
 40
0.4320000000000003
 40
0.4400000000000003
 40
0.4400000000000003
 40
0.4400000000000003
 40
0.4400000000000003
 40
0.4480000000000003
 40
0.4480000000000003
 40
0.4480000000000003
 40
0.4480000000000003
 40
0.4560000000000004
 40
0.4560000000000004
 40
0.4560000000000004
 40
0.4560000000000004
 40
0.4640000000000004
 40
0.4640000000000004
 40
0.4640000000000004
 40
0.4640000000000004
 40
0.4720000000000004
 40
0.4720000000000004
 40
0.4720000000000004
 40
0.4720000000000004
 40
0.4800000000000004
 40
0.4800000000000004
 40
0.4800000000000004
 40
0.4800000000000004
 40
0.4880000000000004
 40
0.4880000000000004
 40
0.4880000000000004
 40
0.4880000000000004
 40
0.4960000000000004
 40
0.4960000000000004
 40
0.4960000000000004
 40
0.4960000000000004
 40
0.5040000000000003
 40
0.5040000000000003
 40
0.5040000000000003
 40
0.5040000000000003
 40
0.5120000000000003
 40
0.5120000000000003
 40
0.5120000000000003
 40
0.5120000000000003
 40
0.5200000000000004
 40
0.5200000000000004
 40
0.5200000000000004
 40
0.5200000000000004
 40
0.5280000000000004
 40
0.5280000000000004
 40
0.5280000000000004
 40
0.5280000000000004
 40
0.5360000000000004
 40
0.5360000000000004
 40
0.5360000000000004
 40
0.5360000000000004
 40
0.5440000000000004
 40
0.5440000000000004
 40
0.5440000000000004
 40
0.5440000000000004
 40
0.5520000000000004
 40
0.5520000000000004
 40
0.5520000000000004
 40
0.5520000000000004
 40
0.5600000000000004
 40
0.5600000000000004
 40
0.5600000000000004
 40
0.5600000000000004
 40
0.5680000000000004
 40
0.5680000000000004
 40
0.5680000000000004
 40
0.5680000000000004
 40
0.5760000000000004
 40
0.5760000000000004
 40
0.5760000000000004
 40
0.5760000000000004
 40
0.5840000000000004
 40
0.5840000000000004
 40
0.5840000000000004
 40
0.5840000000000004
 40
0.5920000000000004
 40
0.5920000000000004
 40
0.5920000000000004
 40
0.5920000000000004
 40
0.6000000000000004
 40
0.6000000000000004
 40
0.6000000000000004
 40
0.6000000000000004
 40
0.6080000000000004
 40
0.6080000000000004
 40
0.6080000000000004
 40
0.6080000000000004
 40
0.6160000000000004
 40
0.6160000000000004
 40
0.6160000000000004
 40
0.6160000000000004
 40
0.6240000000000004
 40
0.6240000000000004
 40
0.6240000000000004
 40
0.6240000000000004
 40
0.6320000000000005
 40
0.6320000000000005
 40
0.6320000000000005
 40
0.6320000000000005
 40
0.6400000000000005
 40
0.6400000000000005
 40
0.6400000000000005
 40
0.6400000000000005
 40
0.6480000000000005
 40
0.6480000000000005
 40
0.6480000000000005
 40
0.6480000000000005
 40
0.6560000000000005
 40
0.6560000000000005
 40
0.6560000000000005
 40
0.6560000000000005
 40
0.6640000000000005
 40
0.6640000000000005
 40
0.6640000000000005
 40
0.6640000000000005
 40
0.6720000000000005
 40
0.6720000000000005
 40
0.6720000000000005
 40
0.6720000000000005
 40
0.6800000000000005
 40
0.6800000000000005
 40
0.6800000000000005
 40
0.6800000000000005
 40
0.6880000000000005
 40
0.6880000000000005
 40
0.6880000000000005
 40
0.6880000000000005
 40
0.6960000000000005
 40
0.6960000000000005
 40
0.6960000000000005
 40
0.6960000000000005
 40
0.7040000000000005
 40
0.7040000000000005
 40
0.7040000000000005
 40
0.7040000000000005
 40
0.7120000000000005
 40
0.7120000000000005
 40
0.7120000000000005
 40
0.7120000000000005
 40
0.7200000000000005
 40
0.7200000000000005
 40
0.7200000000000005
 40
0.7200000000000005
 40
0.7280000000000005
 40
0.7280000000000005
 40
0.7280000000000005
 40
0.7280000000000005
 40
0.7360000000000005
 40
0.7360000000000005
 40
0.7360000000000005
 40
0.7360000000000005
 40
0.7440000000000006
 40
0.7440000000000006
 40
0.7440000000000006
 40
0.7440000000000006
 40
0.7520000000000006
 40
0.7520000000000006
 40
0.7520000000000006
 40
0.7520000000000006
 40
0.7600000000000006
 40
0.7600000000000006
 40
0.7600000000000006
 40
0.7600000000000006
 40
0.7680000000000006
 40
0.7680000000000006
 40
0.7680000000000006
 40
0.7680000000000006
 40
0.7760000000000006
 40
0.7760000000000006
 40
0.7760000000000006
 40
0.7760000000000006
 40
0.7840000000000006
 40
0.7840000000000006
 40
0.7840000000000006
 40
0.7840000000000006
 40
0.7920000000000006
 40
0.7920000000000006
 40
0.7920000000000006
 40
0.7920000000000006
 40
0.8000000000000006
 40
0.8000000000000006
 40
0.8000000000000006
 40
0.8000000000000006
 40
0.8080000000000006
 40
0.8080000000000006
 40
0.8080000000000006
 40
0.8080000000000006
 40
0.8160000000000006
 40
0.8160000000000006
 40
0.8160000000000006
 40
0.8160000000000006
 40
0.8240000000000006
 40
0.8240000000000006
 40
0.8240000000000006
 40
0.8240000000000006
 40
0.8320000000000006
 40
0.8320000000000006
 40
0.8320000000000006
 40
0.8320000000000006
 40
0.8400000000000006
 40
0.8400000000000006
 40
0.8400000000000006
 40
0.8400000000000006
 40
0.8480000000000006
 40
0.8480000000000006
 40
0.8480000000000006
 40
0.8480000000000006
 40
0.8560000000000007
 40
0.8560000000000007
 40
0.8560000000000007
 40
0.8560000000000007
 40
0.8640000000000007
 40
0.8640000000000007
 40
0.8640000000000007
 40
0.8640000000000007
 40
0.8720000000000007
 40
0.8720000000000007
 40
0.8720000000000007
 40
0.8720000000000007
 40
0.8800000000000007
 40
0.8800000000000007
 40
0.8800000000000007
 40
0.8800000000000007
 40
0.8880000000000007
 40
0.8880000000000007
 40
0.8880000000000007
 40
0.8880000000000007
 40
0.8960000000000007
 40
0.8960000000000007
 40
0.8960000000000007
 40
0.8960000000000007
 40
0.9040000000000007
 40
0.9040000000000007
 40
0.9040000000000007
 40
0.9040000000000007
 40
0.9120000000000007
 40
0.9120000000000007
 40
0.9120000000000007
 40
0.9120000000000007
 40
0.9200000000000007
 40
0.9200000000000007
 40
0.9200000000000007
 40
0.9200000000000007
 40
0.9280000000000007
 40
0.9280000000000007
 40
0.9280000000000007
 40
0.9280000000000007
 40
0.9360000000000007
 40
0.9360000000000007
 40
0.9360000000000007
 40
0.9360000000000007
 40
0.9440000000000007
 40
0.9440000000000007
 40
0.9440000000000007
 40
0.9440000000000007
 40
0.9520000000000007
 40
0.9520000000000007
 40
0.9520000000000007
 40
0.9520000000000007
 40
0.9600000000000007
 40
0.9600000000000007
 40
0.9600000000000007
 40
0.9600000000000007
 40
0.9680000000000008
 40
0.9680000000000008
 40
0.9680000000000008
 40
0.9680000000000008
 40
0.9760000000000008
 40
0.9760000000000008
 40
0.9760000000000008
 40
0.9760000000000008
 40
0.9840000000000008
 40
0.9840000000000008
 40
0.9840000000000008
 40
0.9840000000000008
 40
0.9920000000000008
 40
0.9920000000000008
 40
0.9920000000000008
 40
0.9920000000000008
 40
1.0
 40
1.0
 40
1.0
 40
1.0
 10
-1101.1079999999999
 20
-536.40380000000005
 30
0.0
 10
-1097.1414
 20
-535.30380000000002
 30
0.0
 10
-1093.1747
 20
-534.2038
 30
0.0
 10
-1089.2080000000001
 20
-533.10379999999998
 30
0.0
 10
-1089.2080000000001
 20
-533.10379999999998
 30
0.0
 10
-1086.2347
 20
-531.45709999999997
 30
0.0
 10
-1083.2614000000001
 20
-529.81039999999996
 30
0.0
 10
-1080.288
 20
-528.16380000000004
 30
0.0
 10
-1080.288
 20
-528.16380000000004
 30
0.0
 10
-1075.8347000000001
 20
-524.65710000000001
 30
0.0
 10
-1071.3814
 20
-521.15039999999999
 30
0.0
 10
-1066.9280000000001
 20
-517.64380000000006
 30
0.0
 10
-1066.9280000000001
 20
-517.64380000000006
 30
0.0
 10
-1046.2701
 20
-506.3073
 30
0.0
 10
-1025.6122
 20
-494.97089999999997
 30
0.0
 10
-1004.9542
 20
-483.6345
 30
0.0
 10
-1004.9542
 20
-483.6345
 30
0.0
 10
-998.97220000000004
 20
-480.62419999999997
 30
0.0
 10
-992.99009999999998
 20
-477.61399999999998
 30
0.0
 10
-987.00800000000004
 20
-474.60379999999998
 30
0.0
 10
-987.00800000000004
 20
-474.60379999999998
 30
0.0
 10
-975.76800000000003
 20
-468.79039999999998
 30
0.0
 10
-964.52800000000002
 20
-462.97710000000001
 30
0.0
 10
-953.28800000000001
 20
-457.16379999999998
 30
0.0
 10
-953.28800000000001
 20
-457.16379999999998
 30
0.0
 10
-951.89469999999994
 20
-456.24380000000002
 30
0.0
 10
-950.50139999999999
 20
-455.32380000000001
 30
0.0
 10
-949.10799999999995
 20
-454.40379999999999
 30
0.0
 10
-949.10799999999995
 20
-454.40379999999999
 30
0.0
 10
-943.02670000000001
 20
-446.8021
 30
0.0
 10
-936.94539999999995
 20
-439.20049999999998
 30
0.0
 10
-930.86410000000001
 20
-431.59890000000001
 30
0.0
 10
-930.86410000000001
 20
-431.59890000000001
 30
0.0
 10
-929.6934
 20
-430.1354
 30
0.0
 10
-928.52269999999999
 20
-428.67200000000003
 30
0.0
 10
-927.35199999999998
 20
-427.20859999999999
 30
0.0
 10
-927.35199999999998
 20
-427.20859999999999
 30
0.0
 10
-923.67070000000001
 20
-421.5736
 30
0.0
 10
-919.98940000000005
 20
-415.93869999999998
 30
0.0
 10
-916.30799999999999
 20
-410.30380000000002
 30
0.0
 10
-916.30799999999999
 20
-410.30380000000002
 30
0.0
 10
-914.30799999999999
 20
-406.30380000000002
 30
0.0
 10
-912.30799999999999
 20
-402.30380000000002
 30
0.0
 10
-910.30799999999999
 20
-398.30380000000002
 30
0.0
 10
-910.30799999999999
 20
-398.30380000000002
 30
0.0
 10
-907.00800000000004
 20
-390.97039999999998
 30
0.0
 10
-903.70799999999997
 20
-383.63709999999998
 30
0.0
 10
-900.40800000000002
 20
-376.30380000000002
 30
0.0
 10
-900.40800000000002
 20
-376.30380000000002
 30
0.0
 10
-899.70799999999997
 20
-374.30380000000002
 30
0.0
 10
-899.00800000000004
 20
-372.30380000000002
 30
0.0
 10
-898.30799999999999
 20
-370.30380000000002
 30
0.0
 10
-898.30799999999999
 20
-370.30380000000002
 30
0.0
 10
-897.02570000000003
 20
-365.30770000000001
 30
0.0
 10
-895.74339999999995
 20
-360.3116
 30
0.0
 10
-894.46100000000001
 20
-355.31549999999999
 30
0.0
 10
-894.46100000000001
 20
-355.31549999999999
 30
0.0
 10
-893.89239999999995
 20
-353.041
 30
0.0
 10
-893.32380000000001
 20
-350.76650000000001
 30
0.0
 10
-892.75509999999997
 20
-348.49200000000002
 30
0.0
 10
-892.75509999999997
 20
-348.49200000000002
 30
0.0
 10
-891.5394
 20
-341.79590000000002
 30
0.0
 10
-890.32370000000003
 20
-335.09980000000002
 30
0.0
 10
-889.10799999999995
 20
-328.40379999999999
 30
0.0
 10
-889.10799999999995
 20
-328.40379999999999
 30
0.0
 10
-889.10799999999995
 20
-311.07040000000001
 30
0.0
 10
-889.10799999999995
 20
-293.7371
 30
0.0
 10
-889.10799999999995
 20
-276.40379999999999
 30
0.0
 10
-889.10799999999995
 20
-276.40379999999999
 30
0.0
 10
-889.58500000000004
 20
-273.755
 30
0.0
 10
-890.06190000000004
 20
-271.10629999999998
 30
0.0
 10
-890.53880000000004
 20
-268.45760000000001
 30
0.0
 10
-890.53880000000004
 20
-268.45760000000001
 30
0.0
 10
-891.96190000000001
 20
-262.07299999999998
 30
0.0
 10
-893.38499999999999
 20
-255.6884
 30
0.0
 10
-894.80799999999999
 20
-249.3038
 30
0.0
 10
-894.80799999999999
 20
-249.3038
 30
0.0
 10
-895.34140000000002
 20
-247.7038
 30
0.0
 10
-895.87469999999996
 20
-246.10380000000001
 30
0.0
 10
-896.40800000000002
 20
-244.50380000000001
 30
0.0
 10
-896.40800000000002
 20
-244.50380000000001
 30
0.0
 10
-900.37469999999996
 20
-235.50380000000001
 30
0.0
 10
-904.34140000000002
 20
-226.50380000000001
 30
0.0
 10
-908.30799999999999
 20
-217.50380000000001
 30
0.0
 10
-908.30799999999999
 20
-217.50380000000001
 30
0.0
 10
-908.80799999999999
 20
-216.43709999999999
 30
0.0
 10
-909.30799999999999
 20
-215.37039999999999
 30
0.0
 10
-909.80799999999999
 20
-214.3038
 30
0.0
 10
-909.80799999999999
 20
-214.3038
 30
0.0
 10
-911.98500000000001
 20
-209.7217
 30
0.0
 10
-914.16189999999995
 20
-205.1397
 30
0.0
 10
-916.33879999999999
 20
-200.55770000000001
 30
0.0
 10
-916.33879999999999
 20
-200.55770000000001
 30
0.0
 10
-917.33879999999999
 20
-198.89109999999999
 30
0.0
 10
-918.33879999999999
 20
-197.2244
 30
0.0
 10
-919.33879999999999
 20
-195.55770000000001
 30
0.0
 10
-919.33879999999999
 20
-195.55770000000001
 30
0.0
 10
-921.06960000000004
 20
-192.96799999999999
 30
0.0
 10
-922.80039999999997
 20
-190.3783
 30
0.0
 10
-924.53110000000004
 20
-187.7885
 30
0.0
 10
-924.53110000000004
 20
-187.7885
 30
0.0
 10
-921.8048
 20
-184.2619
 30
0.0
 10
-919.07839999999999
 20
-180.7353
 30
0.0
 10
-916.35199999999998
 20
-177.20869999999999
 30
0.0
 10
-916.35199999999998
 20
-177.20869999999999
 30
0.0
 10
-912.53740000000005
 20
-171.30709999999999
 30
0.0
 10
-908.72270000000003
 20
-165.40549999999999
 30
0.0
 10
-904.90800000000002
 20
-159.50389999999999
 30
0.0
 10
-904.90800000000002
 20
-159.50389999999999
 30
0.0
 10
-904.2414
 20
-158.17060000000001
 30
0.0
 10
-903.57470000000001
 20
-156.8373
 30
0.0
 10
-902.90800000000002
 20
-155.50389999999999
 30
0.0
 10
-902.90800000000002
 20
-155.50389999999999
 30
0.0
 10
-900.42570000000001
 20
-147.77449999999999
 30
0.0
 10
-897.9434
 20
-140.04509999999999
 30
0.0
 10
-895.46100000000001
 20
-132.31559999999999
 30
0.0
 10
-895.46100000000001
 20
-132.31559999999999
 30
0.0
 10
-895.22569999999996
 20
-131.37450000000001
 30
0.0
 10
-894.99040000000002
 20
-130.4333
 30
0.0
 10
-894.75509999999997
 20
-129.49209999999999
 30
0.0
 10
-894.75509999999997
 20
-129.49209999999999
 30
0.0
 10
-894.20609999999999
 20
-127.1294
 30
0.0
 10
-893.65710000000001
 20
-124.7667
 30
0.0
 10
-893.10799999999995
 20
-122.40389999999999
 30
0.0
 10
-893.10799999999995
 20
-122.40389999999999
 30
0.0
 10
-893.10799999999995
 20
-115.0706
 30
0.0
 10
-893.10799999999995
 20
-107.7373
 30
0.0
 10
-893.10799999999995
 20
-100.40389999999999
 30
0.0
 10
-893.10799999999995
 20
-100.40389999999999
 30
0.0
 10
-894.87469999999996
 20
-94.770600000000002
 30
0.0
 10
-896.64139999999998
 20
-89.137299999999996
 30
0.0
 10
-898.40800000000002
 20
-83.503900000000002
 30
0.0
 10
-898.40800000000002
 20
-83.503900000000002
 30
0.0
 10
-899.2414
 20
-81.770600000000002
 30
0.0
 10
-900.07470000000001
 20
-80.037300000000002
 30
0.0
 10
-900.90800000000002
 20
-78.303899999999999
 30
0.0
 10
-900.90800000000002
 20
-78.303899999999999
 30
0.0
 10
-902.64139999999998
 20
-75.670599999999993
 30
0.0
 10
-904.37469999999996
 20
-73.037300000000002
 30
0.0
 10
-906.10799999999995
 20
-70.403899999999993
 30
0.0
 10
-906.10799999999995
 20
-70.403899999999993
 30
0.0
 10
-910.77470000000005
 20
-65.737300000000005
 30
0.0
 10
-915.44140000000004
 20
-61.070599999999999
 30
0.0
 10
-920.10799999999995
 20
-56.4039
 30
0.0
 10
-920.10799999999995
 20
-56.4039
 30
0.0
 10
-927.50639999999999
 20
-50.485199999999999
 30
0.0
 10
-934.90480000000002
 20
-44.566499999999998
 30
0.0
 10
-942.30319999999995
 20
-38.647799999999997
 30
0.0
 10
-942.30319999999995
 20
-38.647799999999997
 30
0.0
 10
-942.57150000000001
 20
-38.566499999999998
 30
0.0
 10
-942.83979999999997
 20
-38.485199999999999
 30
0.0
 10
-943.10799999999995
 20
-38.4039
 30
0.0
 10
-943.10799999999995
 20
-38.4039
 30
0.0
 10
-943.77470000000005
 20
-37.737299999999998
 30
0.0
 10
-944.44140000000004
 20
-37.070599999999999
 30
0.0
 10
-945.10799999999995
 20
-36.4039
 30
0.0
 10
-945.10799999999995
 20
-36.4039
 30
0.0
 10
-944.87469999999996
 20
-35.703899999999997
 30
0.0
 10
-944.64139999999998
 20
-35.003900000000002
 30
0.0
 10
-944.40800000000002
 20
-34.303899999999999
 30
0.0
 10
-944.40800000000002
 20
-34.303899999999999
 30
0.0
 10
-943.64139999999998
 20
-31.337299999999999
 30
0.0
 10
-942.87469999999996
 20
-28.3706
 30
0.0
 10
-942.10799999999995
 20
-25.4039
 30
0.0
 10
-942.10799999999995
 20
-25.4039
 30
0.0
 10
-942.65710000000001
 20
-23.707799999999999
 30
0.0
 10
-943.20609999999999
 20
-22.011700000000001
 30
0.0
 10
-943.75509999999997
 20
-20.3156
 30
0.0
 10
-943.75509999999997
 20
-20.3156
 30
0.0
 10
-945.13940000000002
 20
-16.311699999999998
 30
0.0
 10
-946.52369999999996
 20
-12.3078
 30
0.0
 10
-947.90800000000002
 20
-8.3039000000000005
 30
0.0
 10
-947.90800000000002
 20
-8.3039000000000005
 30
0.0
 10
-950.89779999999996
 20
-2.9525999999999999
 30
0.0
 10
-953.88760000000002
 20
2.3986999999999998
 30
0.0
 10
-956.87729999999999
 20
7.75
 30
0.0
 10
-956.87729999999999
 20
7.75
 30
0.0
 10
-963.36990000000003
 20
16.6281
 30
0.0
 10
-969.86249999999995
 20
25.5062
 30
0.0
 10
-976.35509999999999
 20
34.384399999999999
 30
0.0
 10
-976.35509999999999
 20
34.384399999999999
 30
0.0
 10
-978.19039999999995
 20
36.525500000000001
 30
0.0
 10
-980.02570000000003
 20
38.666699999999999
 30
0.0
 10
-981.86099999999999
 20
40.807899999999997
 30
0.0
 10
-981.86099999999999
 20
40.807899999999997
 30
0.0
 10
-986.86670000000004
 20
45.820399999999999
 30
0.0
 10
-991.87239999999997
 20
50.832900000000002
 30
0.0
 10
-996.87800000000004
 20
55.845399999999998
 30
0.0
 10
-996.87800000000004
 20
55.845399999999998
 30
0.0
 10
-1001.0314
 20
59.679200000000002
 30
0.0
 10
-1005.1848
 20
63.512999999999998
 30
0.0
 10
-1009.3381000000001
 20
67.346900000000005
 30
0.0
 10
-1009.3381000000001
 20
67.346900000000005
 30
0.0
 10
-1012.6281
 20
69.696600000000004
 30
0.0
 10
-1015.9181
 20
72.046300000000002
 30
0.0
 10
-1019.208
 20
74.396100000000004
 30
0.0
 10
-1019.208
 20
74.396100000000004
 30
0.0
 10
-1021.568
 20
76.049400000000006
 30
0.0
 10
-1023.928
 20
77.702699999999993
 30
0.0
 10
-1026.288
 20
79.356099999999998
 30
0.0
 10
-1026.288
 20
79.356099999999998
 30
0.0
 10
-1033.5947000000001
 20
83.702699999999993
 30
0.0
 10
-1040.9014
 20
88.049400000000006
 30
0.0
 10
-1048.2080000000001
 20
92.396100000000004
 30
0.0
 10
-1048.2080000000001
 20
92.396100000000004
 30
0.0
 10
-1052.4747
 20
94.529399999999995
 30
0.0
 10
-1056.7414000000001
 20
96.662700000000001
 30
0.0
 10
-1061.008
 20
98.796099999999996
 30
0.0
 10
-1061.008
 20
98.796099999999996
 30
0.0
 10
-1068.6747
 20
101.82940000000001
 30
0.0
 10
-1076.3414
 20
104.8627
 30
0.0
 10
-1084.008
 20
107.8961
 30
0.0
 10
-1084.008
 20
107.8961
 30
0.0
 10
-1085.008
 20
108.2294
 30
0.0
 10
-1086.008
 20
108.56270000000001
 30
0.0
 10
-1087.008
 20
108.8961
 30
0.0
 10
-1087.008
 20
108.8961
 30
0.0
 10
-1090.7080000000001
 20
110.1294
 30
0.0
 10
-1094.4079999999999
 20
111.3627
 30
0.0
 10
-1098.1079999999999
 20
112.59610000000001
 30
0.0
 10
-1098.1079999999999
 20
112.59610000000001
 30
0.0
 10
-1097.7746999999999
 20
112.9294
 30
0.0
 10
-1097.4413999999999
 20
113.2627
 30
0.0
 10
-1097.1079999999999
 20
113.59610000000001
 30
0.0
 10
-1097.1079999999999
 20
113.59610000000001
 30
0.0
 10
-1097.1079999999999
 20
116.9294
 30
0.0
 10
-1097.1079999999999
 20
120.2627
 30
0.0
 10
-1097.1079999999999
 20
123.59610000000001
 30
0.0
 10
-1097.1079999999999
 20
123.59610000000001
 30
0.0
 10
-1097.3414
 20
123.9627
 30
0.0
 10
-1097.5746999999999
 20
124.32940000000001
 30
0.0
 10
-1097.808
 20
124.6961
 30
0.0
 10
-1097.808
 20
124.6961
 30
0.0
 10
-1099.3214
 20
127.9361
 30
0.0
 10
-1100.8347000000001
 20
131.17609999999999
 30
0.0
 10
-1102.348
 20
134.4161
 30
0.0
 10
-1102.348
 20
134.4161
 30
0.0
 10
-1103.268
 20
135.80940000000001
 30
0.0
 10
-1104.1880000000001
 20
137.20269999999999
 30
0.0
 10
-1105.1079999999999
 20
138.59610000000001
 30
0.0
 10
-1105.1079999999999
 20
138.59610000000001
 30
0.0
 10
-1107.4079999999999
 20
140.32939999999999
 30
0.0
 10
-1109.7080000000001
 20
142.06270000000001
 30
0.0
 10
-1112.008
 20
143.7961
 30
0.0
 10
-1112.008
 20
143.7961
 30
0.0
 10
-1112.6747
 20
144.1294
 30
0.0
 10
-1113.3414
 20
144.46270000000001
 30
0.0
 10
-1114.008
 20
144.7961
 30
0.0
 10
-1114.008
 20
144.7961
 30
0.0
 10
-1116.3490999999999
 20
145.52430000000001
 30
0.0
 10
-1118.6901
 20
146.2525
 30
0.0
 10
-1121.0310999999999
 20
146.98079999999999
 30
0.0
 10
-1121.0310999999999
 20
146.98079999999999
 30
0.0
 10
-1122.7234000000001
 20
147.51920000000001
 30
0.0
 10
-1124.4157
 20
148.05760000000001
 30
0.0
 10
-1126.1079999999999
 20
148.59610000000001
 30
0.0
 10
-1126.1079999999999
 20
148.59610000000001
 30
0.0
 10
-1127.8003000000001
 20
148.39099999999999
 30
0.0
 10
-1129.4926
 20
148.1859
 30
0.0
 10
-1131.1849
 20
147.98079999999999
 30
0.0
 10
-1131.1849
 20
147.98079999999999
 30
0.0
 10
-1134.1335999999999
 20
147.39099999999999
 30
0.0
 10
-1137.0823
 20
146.80119999999999
 30
0.0
 10
-1140.0309999999999
 20
146.2115
 30
0.0
 10
-1140.0309999999999
 20
146.2115
 30
0.0
 10
-1143.0565999999999
 20
144.673
 30
0.0
 10
-1146.0823
 20
143.1345
 30
0.0
 10
-1149.1079999999999
 20
141.59610000000001
 30
0.0
 10
-1149.1079999999999
 20
141.59610000000001
 30
0.0
 10
-1150.4413
 20
140.2627
 30
0.0
 10
-1151.7746
 20
138.92939999999999
 30
0.0
 10
-1153.1079999999999
 20
137.59610000000001
 30
0.0
 10
-1153.1079999999999
 20
137.59610000000001
 30
0.0
 10
-1154.6976999999999
 20
134.87809999999999
 30
0.0
 10
-1156.2873999999999
 20
132.1602
 30
0.0
 10
-1157.8771999999999
 20
129.44229999999999
 30
0.0
 10
-1157.8771999999999
 20
129.44229999999999
 30
0.0
 10
-1158.0208
 20
129.1935
 30
0.0
 10
-1158.1643999999999
 20
128.94479999999999
 30
0.0
 10
-1158.308
 20
128.6961
 30
0.0
 10
-1158.308
 20
128.6961
 30
0.0
 10
-1158.7616
 20
126.9798
 30
0.0
 10
-1159.2152000000001
 20
125.2636
 30
0.0
 10
-1159.6688999999999
 20
123.5474
 30
0.0
 10
-1159.6688999999999
 20
123.5474
 30
0.0
 10
-1159.8986
 20
120.6469
 30
0.0
 10
-1160.1283000000001
 20
117.7465
 30
0.0
 10
-1160.3579999999999
 20
114.84610000000001
 30
0.0
 10
-1160.3579999999999
 20
114.84610000000001
 30
0.0
 10
-1161.6413
 20
114.9961
 30
0.0
 10
-1162.9246000000001
 20
115.1461
 30
0.0
 10
-1164.2080000000001
 20
115.2961
 30
0.0
 10
-1164.2080000000001
 20
115.2961
 30
0.0
 10
-1164.808
 20
115.4961
 30
0.0
 10
-1165.4079999999999
 20
115.6961
 30
0.0
 10
-1166.008
 20
115.8961
 30
0.0
 10
-1166.008
 20
115.8961
 30
0.0
 10
-1166.3746000000001
 20
116.1294
 30
0.0
 10
-1166.7412999999999
 20
116.3627
 30
0.0
 10
-1167.1079999999999
 20
116.59610000000001
 30
0.0
 10
-1167.1079999999999
 20
116.59610000000001
 30
0.0
 10
-1168.7746
 20
116.59610000000001
 30
0.0
 10
-1170.4413
 20
116.59610000000001
 30
0.0
 10
-1172.1079999999999
 20
116.59610000000001
 30
0.0
 10
-1172.1079999999999
 20
116.59610000000001
 30
0.0
 10
-1180.4119000000001
 20
114.47839999999999
 30
0.0
 10
-1188.7157999999999
 20
112.3608
 30
0.0
 10
-1197.0197000000001
 20
110.2432
 30
0.0
 10
-1197.0197000000001
 20
110.2432
 30
0.0
 10
-1202.0197000000001
 20
108.9098
 30
0.0
 10
-1207.0197000000001
 20
107.5765
 30
0.0
 10
-1212.0197000000001
 20
106.2432
 30
0.0
 10
-1212.0197000000001
 20
106.2432
 30
0.0
 10
-1225.6823999999999
 20
101.2941
 30
0.0
 10
-1239.3452
 20
96.345100000000002
 30
0.0
 10
-1253.008
 20
91.396100000000004
 30
0.0
 10
-1253.008
 20
91.396100000000004
 30
0.0
 10
-1256.008
 20
90.062700000000007
 30
0.0
 10
-1259.008
 20
88.729399999999998
 30
0.0
 10
-1262.008
 20
87.396100000000004
 30
0.0
 10
-1262.008
 20
87.396100000000004
 30
0.0
 10
-1270.4079999999999
 20
82.862700000000004
 30
0.0
 10
-1278.808
 20
78.329400000000007
 30
0.0
 10
-1287.2080000000001
 20
73.796099999999996
 30
0.0
 10
-1287.2080000000001
 20
73.796099999999996
 30
0.0
 10
-1291.568
 20
70.476100000000002
 30
0.0
 10
-1295.9280000000001
 20
67.156099999999995
 30
0.0
 10
-1300.288
 20
63.836100000000002
 30
0.0
 10
-1300.288
 20
63.836100000000002
 30
0.0
 10
-1303.8946000000001
 20
60.756100000000004
 30
0.0
 10
-1307.5012999999999
 20
57.676099999999998
 30
0.0
 10
-1311.1079999999999
 20
54.5961
 30
0.0
 10
-1311.1079999999999
 20
54.5961
 30
0.0
 10
-1314.508
 20
50.296100000000003
 30
0.0
 10
-1317.9079999999999
 20
45.996099999999998
 30
0.0
 10
-1321.308
 20
41.696100000000001
 30
0.0
 10
-1321.308
 20
41.696100000000001
 30
0.0
 10
-1325.1413
 20
34.629399999999997
 30
0.0
 10
-1328.9746
 20
27.5627
 30
0.0
 10
-1332.808
 20
20.496099999999998
 30
0.0
 10
-1332.808
 20
20.496099999999998
 30
0.0
 10
-1333.3413
 20
18.896100000000001
 30
0.0
 10
-1333.8746000000001
 20
17.296099999999999
 30
0.0
 10
-1334.4079999999999
 20
15.696099999999999
 30
0.0
 10
-1334.4079999999999
 20
15.696099999999999
 30
0.0
 10
-1335.857
 20
11.300000000000001
 30
0.0
 10
-1337.306
 20
6.9039000000000001
 30
0.0
 10
-1338.7550000000001
 20
2.5078999999999998
 30
0.0
 10
-1338.7550000000001
 20
2.5078999999999998
 30
0.0
 10
-1339.3235999999999
 20
0.2334
 30
0.0
 10
-1339.8922
 20
-2.0411000000000001
 30
0.0
 10
-1340.4609
 20
-4.3155999999999999
 30
0.0
 10
-1340.4609
 20
-4.3155999999999999
 30
0.0
 10
-1341.8200999999999
 20
-11.9938
 30
0.0
 10
-1343.1794
 20
-19.671900000000001
 30
0.0
 10
-1344.5387000000001
 20
-27.350000000000001
 30
0.0
 10
-1344.5387000000001
 20
-27.350000000000001
 30
0.0
 10
-1345.0617999999999
 20
-30.367999999999999
 30
0.0
 10
-1345.5849000000001
 20
-33.386000000000003
 30
0.0
 10
-1346.1079999999999
 20
-36.4039
 30
0.0
 10
-1346.1079999999999
 20
-36.4039
 30
0.0
 10
-1346.1079999999999
 20
-45.070599999999999
 30
0.0
 10
-1346.1079999999999
 20
-53.737299999999998
 30
0.0
 10
-1346.1079999999999
 20
-62.4039
 30
0.0
 10
-1346.1079999999999
 20
-62.4039
 30
0.0
 10
-1344.2977000000001
 20
-80.052599999999998
 30
0.0
 10
-1342.4874
 20
-97.701300000000003
 30
0.0
 10
-1340.6772000000001
 20
-115.34999999999999
 30
0.0
 10
-1340.6772000000001
 20
-115.34999999999999
 30
0.0
 10
-1340.1541
 20
-120.0347
 30
0.0
 10
-1339.6310000000001
 20
-124.7193
 30
0.0
 10
-1339.1079999999999
 20
-129.40389999999999
 30
0.0
 10
-1339.1079999999999
 20
-129.40389999999999
 30
0.0
 10
-1339.1079999999999
 20
-144.7373
 30
0.0
 10
-1339.1079999999999
 20
-160.07060000000001
 30
0.0
 10
-1339.1079999999999
 20
-175.40389999999999
 30
0.0
 10
-1339.1079999999999
 20
-175.40389999999999
 30
0.0
 10
-1345.4413
 20
-180.07060000000001
 30
0.0
 10
-1351.7746
 20
-184.7373
 30
0.0
 10
-1358.1079999999999
 20
-189.40389999999999
 30
0.0
 10
-1358.1079999999999
 20
-189.40389999999999
 30
0.0
 10
-1358.508
 20
-190.3706
 30
0.0
 10
-1358.9079999999999
 20
-191.3373
 30
0.0
 10
-1359.308
 20
-192.3039
 30
0.0
 10
-1359.308
 20
-192.3039
 30
0.0
 10
-1361.4570000000001
 20
-196.69999999999999
 30
0.0
 10
-1363.606
 20
-201.096
 30
0.0
 10
-1365.7550000000001
 20
-205.49199999999999
 30
0.0
 10
-1365.7550000000001
 20
-205.49199999999999
 30
0.0
 10
-1366.3561999999999
 20
-210.1156
 30
0.0
 10
-1366.9575
 20
-214.73920000000001
 30
0.0
 10
-1367.5588
 20
-219.36279999999999
 30
0.0
 10
-1367.5588
 20
-219.36279999999999
 30
0.0
 10
-1367.7418
 20
-226.04310000000001
 30
0.0
 10
-1367.9249
 20
-232.7234
 30
0.0
 10
-1368.1079999999999
 20
-239.40379999999999
 30
0.0
 10
-1368.1079999999999
 20
-239.40379999999999
 30
0.0
 10
-1366.8746000000001
 20
-244.43709999999999
 30
0.0
 10
-1365.6413
 20
-249.47040000000001
 30
0.0
 10
-1364.4079999999999
 20
-254.50380000000001
 30
0.0
 10
-1364.4079999999999
 20
-254.50380000000001
 30
0.0
 10
-1363.2280000000001
 20
-257.41039999999998
 30
0.0
 10
-1362.048
 20
-260.31709999999998
 30
0.0
 10
-1360.8679999999999
 20
-263.22379999999998
 30
0.0
 10
-1360.8679999999999
 20
-263.22379999999998
 30
0.0
 10
-1359.8666000000001
 20
-264.55200000000002
 30
0.0
 10
-1358.8652999999999
 20
-265.88029999999998
 30
0.0
 10
-1357.864
 20
-267.20859999999999
 30
0.0
 10
-1357.864
 20
-267.20859999999999
 30
0.0
 10
-1355.6120000000001
 20
-269.94029999999998
 30
0.0
 10
-1353.3599999999999
 20
-272.67200000000003
 30
0.0
 10
-1351.1079999999999
 20
-275.40379999999999
 30
0.0
 10
-1351.1079999999999
 20
-275.40379999999999
 30
0.0
 10
-1350.1413
 20
-275.80380000000002
 30
0.0
 10
-1349.1746000000001
 20
-276.2038
 30
0.0
 10
-1348.2080000000001
 20
-276.60379999999998
 30
0.0
 10
-1348.2080000000001
 20
-276.60379999999998
 30
0.0
 10
-1346.508
 20
-277.53710000000001
 30
0.0
 10
-1344.808
 20
-278.47039999999998
 30
0.0
 10
-1343.1079999999999
 20
-279.40379999999999
 30
0.0
 10
-1343.1079999999999
 20
-279.40379999999999
 30
0.0
 10
-1343.1079999999999
 20
-283.7371
 30
0.0
 10
-1343.1079999999999
 20
-288.07040000000001
 30
0.0
 10
-1343.1079999999999
 20
-292.40379999999999
 30
0.0
 10
-1343.1079999999999
 20
-292.40379999999999
 30
0.0
 10
-1343.4413
 20
-292.7371
 30
0.0
 10
-1343.7746
 20
-293.07040000000001
 30
0.0
 10
-1344.1079999999999
 20
-293.40379999999999
 30
0.0
 10
-1344.1079999999999
 20
-293.40379999999999
 30
0.0
 10
-1343.5849000000001
 20
-304.42169999999999
 30
0.0
 10
-1343.0617999999999
 20
-315.43959999999998
 30
0.0
 10
-1342.5387000000001
 20
-326.45760000000001
 30
0.0
 10
-1342.5387000000001
 20
-326.45760000000001
 30
0.0
 10
-1342.2515000000001
 20
-328.755
 30
0.0
 10
-1341.9643000000001
 20
-331.05239999999998
 30
0.0
 10
-1341.6772000000001
 20
-333.34989999999999
 30
0.0
 10
-1341.6772000000001
 20
-333.34989999999999
 30
0.0
 10
-1340.3697999999999
 20
-338.67169999999999
 30
0.0
 10
-1339.0624
 20
-343.99360000000001
 30
0.0
 10
-1337.7550000000001
 20
-349.31549999999999
 30
0.0
 10
-1337.7550000000001
 20
-349.31549999999999
 30
0.0
 10
-1336.6569
 20
-353.041
 30
0.0
 10
-1335.5589
 20
-356.76650000000001
 30
0.0
 10
-1334.4609
 20
-360.49200000000002
 30
0.0
 10
-1334.4609
 20
-360.49200000000002
 30
0.0
 10
-1332.6098999999999
 20
-365.42919999999998
 30
0.0
 10
-1330.7589
 20
-370.36649999999997
 30
0.0
 10
-1328.9079999999999
 20
-375.30380000000002
 30
0.0
 10
-1328.9079999999999
 20
-375.30380000000002
 30
0.0
 10
-1326.0413000000001
 20
-380.7038
 30
0.0
 10
-1323.1746000000001
 20
-386.10379999999998
 30
0.0
 10
-1320.308
 20
-391.50380000000001
 30
0.0
 10
-1320.308
 20
-391.50380000000001
 30
0.0
 10
-1315.828
 20
-399.07709999999997
 30
0.0
 10
-1311.348
 20
-406.65039999999999
 30
0.0
 10
-1306.8679999999999
 20
-414.22379999999998
 30
0.0
 10
-1306.8679999999999
 20
-414.22379999999998
 30
0.0
 10
-1303.6958999999999
 20
-418.34879999999998
 30
0.0
 10
-1300.5238999999999
 20
-422.47379999999998
 30
0.0
 10
-1297.3518999999999
 20
-426.59890000000001
 30
0.0
 10
-1297.3518999999999
 20
-426.59890000000001
 30
0.0
 10
-1292.9372000000001
 20
-431.86720000000003
 30
0.0
 10
-1288.5226
 20
-437.13549999999998
 30
0.0
 10
-1284.1079999999999
 20
-442.40379999999999
 30
0.0
 10
-1284.1079999999999
 20
-442.40379999999999
 30
0.0
 10
-1280.7746
 20
-445.7371
 30
0.0
 10
-1277.4413
 20
-449.07040000000001
 30
0.0
 10
-1274.1079999999999
 20
-452.40379999999999
 30
0.0
 10
-1274.1079999999999
 20
-452.40379999999999
 30
0.0
 10
-1269.0396000000001
 20
-456.6551
 30
0.0
 10
-1263.9712999999999
 20
-460.90640000000002
 30
0.0
 10
-1258.903
 20
-465.15780000000001
 30
0.0
 10
-1258.903
 20
-465.15780000000001
 30
0.0
 10
-1252.6713
 20
-469.63979999999998
 30
0.0
 10
-1246.4395999999999
 20
-474.12180000000001
 30
0.0
 10
-1240.2080000000001
 20
-478.60379999999998
 30
0.0
 10
-1240.2080000000001
 20
-478.60379999999998
 30
0.0
 10
-1237.79
 20
-480.1268
 30
0.0
 10
-1235.3720000000001
 20
-481.6499
 30
0.0
 10
-1232.9540999999999
 20
-483.173
 30
0.0
 10
-1232.9540999999999
 20
-483.173
 30
0.0
 10
-1224.6387
 20
-487.51659999999998
 30
0.0
 10
-1216.3233
 20
-491.86020000000002
 30
0.0
 10
-1208.008
 20
-496.2038
 30
0.0
 10
-1208.008
 20
-496.2038
 30
0.0
 10
-1206.4079999999999
 20
-497.00380000000001
 30
0.0
 10
-1204.808
 20
-497.80380000000002
 30
0.0
 10
-1203.2080000000001
 20
-498.60379999999998
 30
0.0
 10
-1203.2080000000001
 20
-498.60379999999998
 30
0.0
 10
-1185.8746000000001
 20
-505.60379999999998
 30
0.0
 10
-1168.5413000000001
 20
-512.60379999999998
 30
0.0
 10
-1151.2080000000001
 20
-519.60379999999998
 30
0.0
 10
-1151.2080000000001
 20
-519.60379999999998
 30
0.0
 10
-1136.8234
 20
-525.06020000000001
 30
0.0
 10
-1122.4387999999999
 20
-530.51660000000004
 30
0.0
 10
-1108.0542
 20
-535.97299999999996
 30
0.0
 10
-1108.0542
 20
-535.97299999999996
 30
0.0
 10
-1105.7388000000001
 20
-536.11659999999995
 30
0.0
 10
-1103.4233999999999
 20
-536.26020000000005
 30
0.0
 10
-1101.1079999999999
 20
-536.40380000000005
 30
0.0
  0
SPLINE
  5
26
100
AcDbEntity
  8
RÚteg 1
 62
     7
100
AcDbSpline
210
0.0
220
0.0
230
1.0
 70
     1
 71
     3
 72
    56
 73
    52
 74
     0
 42
0.0000000001
 43
0.0000000001
 40
0.0
 40
0.0
 40
0.0
 40
0.0
 40
0.0769230769230769
 40
0.0769230769230769
 40
0.0769230769230769
 40
0.0769230769230769
 40
0.1538461538461539
 40
0.1538461538461539
 40
0.1538461538461539
 40
0.1538461538461539
 40
0.2307692307692308
 40
0.2307692307692308
 40
0.2307692307692308
 40
0.2307692307692308
 40
0.3076923076923077
 40
0.3076923076923077
 40
0.3076923076923077
 40
0.3076923076923077
 40
0.3846153846153846
 40
0.3846153846153846
 40
0.3846153846153846
 40
0.3846153846153846
 40
0.4615384615384616
 40
0.4615384615384616
 40
0.4615384615384616
 40
0.4615384615384616
 40
0.5384615384615386
 40
0.5384615384615386
 40
0.5384615384615386
 40
0.5384615384615386
 40
0.6153846153846154
 40
0.6153846153846154
 40
0.6153846153846154
 40
0.6153846153846154
 40
0.6923076923076923
 40
0.6923076923076923
 40
0.6923076923076923
 40
0.6923076923076923
 40
0.7692307692307692
 40
0.7692307692307692
 40
0.7692307692307692
 40
0.7692307692307692
 40
0.846153846153846
 40
0.846153846153846
 40
0.846153846153846
 40
0.846153846153846
 40
0.9230769230769229
 40
0.9230769230769229
 40
0.9230769230769229
 40
0.9230769230769229
 40
1.0
 40
1.0
 40
1.0
 40
1.0
 10
-1127.1079999999999
 20
106.59610000000001
 30
0.0
 10
-1127.1079999999999
 20
106.59610000000001
 30
0.0
 10
-1126.008
 20
107.2961
 30
0.0
 10
-1126.008
 20
107.2961
 30
0.0
 10
-1126.008
 20
107.2961
 30
0.0
 10
-1126.008
 20
107.2961
 30
0.0
 10
-1124.1079999999999
 20
107.59610000000001
 30
0.0
 10
-1124.1079999999999
 20
107.59610000000001
 30
0.0
 10
-1124.1079999999999
 20
107.59610000000001
 30
0.0
 10
-1124.1079999999999
 20
107.59610000000001
 30
0.0
 10
-1119.1079999999999
 20
112.59610000000001
 30
0.0
 10
-1119.1079999999999
 20
112.59610000000001
 30
0.0
 10
-1119.1079999999999
 20
112.59610000000001
 30
0.0
 10
-1119.1079999999999
 20
112.59610000000001
 30
0.0
 10
-1118.7551000000001
 20
117.6844
 30
0.0
 10
-1118.7551000000001
 20
117.6844
 30
0.0
 10
-1118.7551000000001
 20
117.6844
 30
0.0
 10
-1118.7551000000001
 20
117.6844
 30
0.0
 10
-1120.1079999999999
 20
122.59610000000001
 30
0.0
 10
-1120.1079999999999
 20
122.59610000000001
 30
0.0
 10
-1120.1079999999999
 20
122.59610000000001
 30
0.0
 10
-1120.1079999999999
 20
122.59610000000001
 30
0.0
 10
-1124.1079999999999
 20
126.59610000000001
 30
0.0
 10
-1124.1079999999999
 20
126.59610000000001
 30
0.0
 10
-1124.1079999999999
 20
126.59610000000001
 30
0.0
 10
-1124.1079999999999
 20
126.59610000000001
 30
0.0
 10
-1133.1079999999999
 20
126.59610000000001
 30
0.0
 10
-1133.1079999999999
 20
126.59610000000001
 30
0.0
 10
-1133.1079999999999
 20
126.59610000000001
 30
0.0
 10
-1133.1079999999999
 20
126.59610000000001
 30
0.0
 10
-1138.1079999999999
 20
121.59610000000001
 30
0.0
 10
-1138.1079999999999
 20
121.59610000000001
 30
0.0
 10
-1138.1079999999999
 20
121.59610000000001
 30
0.0
 10
-1138.1079999999999
 20
121.59610000000001
 30
0.0
 10
-1139.1079999999999
 20
117.59610000000001
 30
0.0
 10
-1139.1079999999999
 20
117.59610000000001
 30
0.0
 10
-1139.1079999999999
 20
117.59610000000001
 30
0.0
 10
-1139.1079999999999
 20
117.59610000000001
 30
0.0
 10
-1138.1079999999999
 20
112.59610000000001
 30
0.0
 10
-1138.1079999999999
 20
112.59610000000001
 30
0.0
 10
-1138.1079999999999
 20
112.59610000000001
 30
0.0
 10
-1138.1079999999999
 20
112.59610000000001
 30
0.0
 10
-1133.1079999999999
 20
107.59610000000001
 30
0.0
 10
-1133.1079999999999
 20
107.59610000000001
 30
0.0
 10
-1133.1079999999999
 20
107.59610000000001
 30
0.0
 10
-1133.1079999999999
 20
107.59610000000001
 30
0.0
 10
-1130.0197000000001
 20
106.9491
 30
0.0
 10
-1130.0197000000001
 20
106.9491
 30
0.0
 10
-1130.0197000000001
 20
106.9491
 30
0.0
 10
-1130.0197000000001
 20
106.9491
 30
0.0
 10
-1127.1079999999999
 20
106.59610000000001
 30
0.0
 10
-1127.1079999999999
 20
106.59610000000001
 30
0.0
  0
SPLINE
  5
27
100
AcDbEntity
  8
RÚteg 1
 62
     7
100
AcDbSpline
210
0.0
220
0.0
230
1.0
 70
     1
 71
     3
 72
   132
 73
   128
 74
     0
 42
0.0000000001
 43
0.0000000001
 40
0.0
 40
0.0
 40
0.0
 40
0.0
 40
0.03125
 40
0.03125
 40
0.03125
 40
0.03125
 40
0.0625
 40
0.0625
 40
0.0625
 40
0.0625
 40
0.09375
 40
0.09375
 40
0.09375
 40
0.09375
 40
0.125
 40
0.125
 40
0.125
 40
0.125
 40
0.15625
 40
0.15625
 40
0.15625
 40
0.15625
 40
0.1875
 40
0.1875
 40
0.1875
 40
0.1875
 40
0.21875
 40
0.21875
 40
0.21875
 40
0.21875
 40
0.25
 40
0.25
 40
0.25
 40
0.25
 40
0.28125
 40
0.28125
 40
0.28125
 40
0.28125
 40
0.3125
 40
0.3125
 40
0.3125
 40
0.3125
 40
0.34375
 40
0.34375
 40
0.34375
 40
0.34375
 40
0.375
 40
0.375
 40
0.375
 40
0.375
 40
0.40625
 40
0.40625
 40
0.40625
 40
0.40625
 40
0.4375
 40
0.4375
 40
0.4375
 40
0.4375
 40
0.46875
 40
0.46875
 40
0.46875
 40
0.46875
 40
0.5
 40
0.5
 40
0.5
 40
0.5
 40
0.53125
 40
0.53125
 40
0.53125
 40
0.53125
 40
0.5625
 40
0.5625
 40
0.5625
 40
0.5625
 40
0.59375
 40
0.59375
 40
0.59375
 40
0.59375
 40
0.625
 40
0.625
 40
0.625
 40
0.625
 40
0.65625
 40
0.65625
 40
0.65625
 40
0.65625
 40
0.6875
 40
0.6875
 40
0.6875
 40
0.6875
 40
0.71875
 40
0.71875
 40
0.71875
 40
0.71875
 40
0.75
 40
0.75
 40
0.75
 40
0.75
 40
0.78125
 40
0.78125
 40
0.78125
 40
0.78125
 40
0.8125
 40
0.8125
 40
0.8125
 40
0.8125
 40
0.84375
 40
0.84375
 40
0.84375
 40
0.84375
 40
0.875
 40
0.875
 40
0.875
 40
0.875
 40
0.90625
 40
0.90625
 40
0.90625
 40
0.90625
 40
0.9375
 40
0.9375
 40
0.9375
 40
0.9375
 40
0.96875
 40
0.96875
 40
0.96875
 40
0.96875
 40
1.0
 40
1.0
 40
1.0
 40
1.0
 10
-976.10799999999995
 20
-28.4039
 30
0.0
 10
-976.10799999999995
 20
-28.4039
 30
0.0
 10
-974.70799999999997
 20
-26.203900000000001
 30
0.0
 10
-974.70799999999997
 20
-26.203900000000001
 30
0.0
 10
-974.70799999999997
 20
-26.203900000000001
 30
0.0
 10
-974.70799999999997
 20
-26.203900000000001
 30
0.0
 10
-981.34799999999996
 20
-11.5839
 30
0.0
 10
-981.34799999999996
 20
-11.5839
 30
0.0
 10
-981.34799999999996
 20
-11.5839
 30
0.0
 10
-981.34799999999996
 20
-11.5839
 30
0.0
 10
-1004.352
 20
18.401
 30
0.0
 10
-1004.352
 20
18.401
 30
0.0
 10
-1004.352
 20
18.401
 30
0.0
 10
-1004.352
 20
18.401
 30
0.0
 10
-1007.8641
 20
22.7913
 30
0.0
 10
-1007.8641
 20
22.7913
 30
0.0
 10
-1007.8641
 20
22.7913
 30
0.0
 10
-1007.8641
 20
22.7913
 30
0.0
 10
-1015.8818
 20
30.844999999999999
 30
0.0
 10
-1015.8818
 20
30.844999999999999
 30
0.0
 10
-1015.8818
 20
30.844999999999999
 30
0.0
 10
-1015.8818
 20
30.844999999999999
 30
0.0
 10
-1026.3343
 20
40.347299999999997
 30
0.0
 10
-1026.3343
 20
40.347299999999997
 30
0.0
 10
-1026.3343
 20
40.347299999999997
 30
0.0
 10
-1026.3343
 20
40.347299999999997
 30
0.0
 10
-1037.008
 20
48.796100000000003
 30
0.0
 10
-1037.008
 20
48.796100000000003
 30
0.0
 10
-1037.008
 20
48.796100000000003
 30
0.0
 10
-1037.008
 20
48.796100000000003
 30
0.0
 10
-1044.2619
 20
53.365400000000001
 30
0.0
 10
-1044.2619
 20
53.365400000000001
 30
0.0
 10
-1044.2619
 20
53.365400000000001
 30
0.0
 10
-1044.2619
 20
53.365400000000001
 30
0.0
 10
-1065.2080000000001
 20
65.396100000000004
 30
0.0
 10
-1065.2080000000001
 20
65.396100000000004
 30
0.0
 10
-1065.2080000000001
 20
65.396100000000004
 30
0.0
 10
-1065.2080000000001
 20
65.396100000000004
 30
0.0
 10
-1082.008
 20
73.796099999999996
 30
0.0
 10
-1082.008
 20
73.796099999999996
 30
0.0
 10
-1082.008
 20
73.796099999999996
 30
0.0
 10
-1082.008
 20
73.796099999999996
 30
0.0
 10
-1095.1963000000001
 20
78.243200000000002
 30
0.0
 10
-1095.1963000000001
 20
78.243200000000002
 30
0.0
 10
-1095.1963000000001
 20
78.243200000000002
 30
0.0
 10
-1095.1963000000001
 20
78.243200000000002
 30
0.0
 10
-1101.008
 20
79.896100000000004
 30
0.0
 10
-1101.008
 20
79.896100000000004
 30
0.0
 10
-1101.008
 20
79.896100000000004
 30
0.0
 10
-1101.008
 20
79.896100000000004
 30
0.0
 10
-1124.1079999999999
 20
85.596100000000007
 30
0.0
 10
-1124.1079999999999
 20
85.596100000000007
 30
0.0
 10
-1124.1079999999999
 20
85.596100000000007
 30
0.0
 10
-1124.1079999999999
 20
85.596100000000007
 30
0.0
 10
-1136.1079999999999
 20
85.596100000000007
 30
0.0
 10
-1136.1079999999999
 20
85.596100000000007
 30
0.0
 10
-1136.1079999999999
 20
85.596100000000007
 30
0.0
 10
-1136.1079999999999
 20
85.596100000000007
 30
0.0
 10
-1139.008
 20
84.296099999999996
 30
0.0
 10
-1139.008
 20
84.296099999999996
 30
0.0
 10
-1139.008
 20
84.296099999999996
 30
0.0
 10
-1139.008
 20
84.296099999999996
 30
0.0
 10
-1140.2080000000001
 20
83.796099999999996
 30
0.0
 10
-1140.2080000000001
 20
83.796099999999996
 30
0.0
 10
-1140.2080000000001
 20
83.796099999999996
 30
0.0
 10
-1140.2080000000001
 20
83.796099999999996
 30
0.0
 10
-1147.1079999999999
 20
77.596100000000007
 30
0.0
 10
-1147.1079999999999
 20
77.596100000000007
 30
0.0
 10
-1147.1079999999999
 20
77.596100000000007
 30
0.0
 10
-1147.1079999999999
 20
77.596100000000007
 30
0.0
 10
-1155.4079999999999
 20
61.696100000000001
 30
0.0
 10
-1155.4079999999999
 20
61.696100000000001
 30
0.0
 10
-1155.4079999999999
 20
61.696100000000001
 30
0.0
 10
-1155.4079999999999
 20
61.696100000000001
 30
0.0
 10
-1155.9079999999999
 20
60.496099999999998
 30
0.0
 10
-1155.9079999999999
 20
60.496099999999998
 30
0.0
 10
-1155.9079999999999
 20
60.496099999999998
 30
0.0
 10
-1155.9079999999999
 20
60.496099999999998
 30
0.0
 10
-1166.4079999999999
 20
29.696100000000001
 30
0.0
 10
-1166.4079999999999
 20
29.696100000000001
 30
0.0
 10
-1166.4079999999999
 20
29.696100000000001
 30
0.0
 10
-1166.4079999999999
 20
29.696100000000001
 30
0.0
 10
-1168.5134
 20
19.663699999999999
 30
0.0
 10
-1168.5134
 20
19.663699999999999
 30
0.0
 10
-1168.5134
 20
19.663699999999999
 30
0.0
 10
-1168.5134
 20
19.663699999999999
 30
0.0
 10
-1172.1079999999999
 20
-0.4039
 30
0.0
 10
-1172.1079999999999
 20
-0.4039
 30
0.0
 10
-1172.1079999999999
 20
-0.4039
 30
0.0
 10
-1172.1079999999999
 20
-0.4039
 30
0.0
 10
-1172.1079999999999
 20
-6.4039000000000001
 30
0.0
 10
-1172.1079999999999
 20
-6.4039000000000001
 30
0.0
 10
-1172.1079999999999
 20
-6.4039000000000001
 30
0.0
 10
-1172.1079999999999
 20
-6.4039000000000001
 30
0.0
 10
-1170.1079999999999
 20
-8.4039000000000001
 30
0.0
 10
-1170.1079999999999
 20
-8.4039000000000001
 30
0.0
 10
-1170.1079999999999
 20
-8.4039000000000001
 30
0.0
 10
-1170.1079999999999
 20
-8.4039000000000001
 30
0.0
 10
-1163.0634
 20
-7.8494000000000002
 30
0.0
 10
-1163.0634
 20
-7.8494000000000002
 30
0.0
 10
-1163.0634
 20
-7.8494000000000002
 30
0.0
 10
-1163.0634
 20
-7.8494000000000002
 30
0.0
 10
-1115.1079999999999
 20
-4.4039000000000001
 30
0.0
 10
-1115.1079999999999
 20
-4.4039000000000001
 30
0.0
 10
-1115.1079999999999
 20
-4.4039000000000001
 30
0.0
 10
-1115.1079999999999
 20
-4.4039000000000001
 30
0.0
 10
-1064.1079999999999
 20
-4.4039000000000001
 30
0.0
 10
-1064.1079999999999
 20
-4.4039000000000001
 30
0.0
 10
-1064.1079999999999
 20
-4.4039000000000001
 30
0.0
 10
-1064.1079999999999
 20
-4.4039000000000001
 30
0.0
 10
-1054.1525999999999
 20
-5.8494000000000002
 30
0.0
 10
-1054.1525999999999
 20
-5.8494000000000002
 30
0.0
 10
-1054.1525999999999
 20
-5.8494000000000002
 30
0.0
 10
-1054.1525999999999
 20
-5.8494000000000002
 30
0.0
 10
-1033.1963000000001
 20
-9.7568000000000001
 30
0.0
 10
-1033.1963000000001
 20
-9.7568000000000001
 30
0.0
 10
-1033.1963000000001
 20
-9.7568000000000001
 30
0.0
 10
-1033.1963000000001
 20
-9.7568000000000001
 30
0.0
 10
-1029.1963000000001
 20
-10.7568
 30
0.0
 10
-1029.1963000000001
 20
-10.7568
 30
0.0
 10
-1029.1963000000001
 20
-10.7568
 30
0.0
 10
-1029.1963000000001
 20
-10.7568
 30
0.0
 10
-994.20799999999997
 20
-22.703900000000001
 30
0.0
 10
-994.20799999999997
 20
-22.703900000000001
 30
0.0
 10
-994.20799999999997
 20
-22.703900000000001
 30
0.0
 10
-994.20799999999997
 20
-22.703900000000001
 30
0.0
 10
-976.10799999999995
 20
-28.4039
 30
0.0
 10
-976.10799999999995
 20
-28.4039
 30
0.0
  0
SPLINE
  5
28
100
AcDbEntity
  8
RÚteg 1
 62
     7
100
AcDbSpline
210
0.0
220
0.0
230
1.0
 70
     1
 71
     3
 72
   272
 73
   268
 74
     0
 42
0.0000000001
 43
0.0000000001
 40
0.0
 40
0.0
 40
0.0
 40
0.0
 40
0.0149253731343284
 40
0.0149253731343284
 40
0.0149253731343284
 40
0.0149253731343284
 40
0.0298507462686567
 40
0.0298507462686567
 40
0.0298507462686567
 40
0.0298507462686567
 40
0.0447761194029851
 40
0.0447761194029851
 40
0.0447761194029851
 40
0.0447761194029851
 40
0.0597014925373134
 40
0.0597014925373134
 40
0.0597014925373134
 40
0.0597014925373134
 40
0.0746268656716418
 40
0.0746268656716418
 40
0.0746268656716418
 40
0.0746268656716418
 40
0.0895522388059701
 40
0.0895522388059701
 40
0.0895522388059701
 40
0.0895522388059701
 40
0.1044776119402985
 40
0.1044776119402985
 40
0.1044776119402985
 40
0.1044776119402985
 40
0.1194029850746269
 40
0.1194029850746269
 40
0.1194029850746269
 40
0.1194029850746269
 40
0.1343283582089552
 40
0.1343283582089552
 40
0.1343283582089552
 40
0.1343283582089552
 40
0.1492537313432836
 40
0.1492537313432836
 40
0.1492537313432836
 40
0.1492537313432836
 40
0.1641791044776119
 40
0.1641791044776119
 40
0.1641791044776119
 40
0.1641791044776119
 40
0.1791044776119403
 40
0.1791044776119403
 40
0.1791044776119403
 40
0.1791044776119403
 40
0.1940298507462686
 40
0.1940298507462686
 40
0.1940298507462686
 40
0.1940298507462686
 40
0.208955223880597
 40
0.208955223880597
 40
0.208955223880597
 40
0.208955223880597
 40
0.2238805970149253
 40
0.2238805970149253
 40
0.2238805970149253
 40
0.2238805970149253
 40
0.2388059701492536
 40
0.2388059701492536
 40
0.2388059701492536
 40
0.2388059701492536
 40
0.253731343283582
 40
0.253731343283582
 40
0.253731343283582
 40
0.253731343283582
 40
0.2686567164179103
 40
0.2686567164179103
 40
0.2686567164179103
 40
0.2686567164179103
 40
0.2835820895522387
 40
0.2835820895522387
 40
0.2835820895522387
 40
0.2835820895522387
 40
0.298507462686567
 40
0.298507462686567
 40
0.298507462686567
 40
0.298507462686567
 40
0.3134328358208954
 40
0.3134328358208954
 40
0.3134328358208954
 40
0.3134328358208954
 40
0.3283582089552237
 40
0.3283582089552237
 40
0.3283582089552237
 40
0.3283582089552237
 40
0.3432835820895521
 40
0.3432835820895521
 40
0.3432835820895521
 40
0.3432835820895521
 40
0.3582089552238804
 40
0.3582089552238804
 40
0.3582089552238804
 40
0.3582089552238804
 40
0.3731343283582088
 40
0.3731343283582088
 40
0.3731343283582088
 40
0.3731343283582088
 40
0.3880597014925371
 40
0.3880597014925371
 40
0.3880597014925371
 40
0.3880597014925371
 40
0.4029850746268655
 40
0.4029850746268655
 40
0.4029850746268655
 40
0.4029850746268655
 40
0.4179104477611938
 40
0.4179104477611938
 40
0.4179104477611938
 40
0.4179104477611938
 40
0.4328358208955221
 40
0.4328358208955221
 40
0.4328358208955221
 40
0.4328358208955221
 40
0.4477611940298505
 40
0.4477611940298505
 40
0.4477611940298505
 40
0.4477611940298505
 40
0.4626865671641788
 40
0.4626865671641788
 40
0.4626865671641788
 40
0.4626865671641788
 40
0.4776119402985072
 40
0.4776119402985072
 40
0.4776119402985072
 40
0.4776119402985072
 40
0.4925373134328355
 40
0.4925373134328355
 40
0.4925373134328355
 40
0.4925373134328355
 40
0.5074626865671639
 40
0.5074626865671639
 40
0.5074626865671639
 40
0.5074626865671639
 40
0.5223880597014923
 40
0.5223880597014923
 40
0.5223880597014923
 40
0.5223880597014923
 40
0.5373134328358207
 40
0.5373134328358207
 40
0.5373134328358207
 40
0.5373134328358207
 40
0.5522388059701491
 40
0.5522388059701491
 40
0.5522388059701491
 40
0.5522388059701491
 40
0.5671641791044775
 40
0.5671641791044775
 40
0.5671641791044775
 40
0.5671641791044775
 40
0.5820895522388059
 40
0.5820895522388059
 40
0.5820895522388059
 40
0.5820895522388059
 40
0.5970149253731343
 40
0.5970149253731343
 40
0.5970149253731343
 40
0.5970149253731343
 40
0.6119402985074627
 40
0.6119402985074627
 40
0.6119402985074627
 40
0.6119402985074627
 40
0.6268656716417911
 40
0.6268656716417911
 40
0.6268656716417911
 40
0.6268656716417911
 40
0.6417910447761195
 40
0.6417910447761195
 40
0.6417910447761195
 40
0.6417910447761195
 40
0.6567164179104479
 40
0.6567164179104479
 40
0.6567164179104479
 40
0.6567164179104479
 40
0.6716417910447763
 40
0.6716417910447763
 40
0.6716417910447763
 40
0.6716417910447763
 40
0.6865671641791047
 40
0.6865671641791047
 40
0.6865671641791047
 40
0.6865671641791047
 40
0.7014925373134331
 40
0.7014925373134331
 40
0.7014925373134331
 40
0.7014925373134331
 40
0.7164179104477615
 40
0.7164179104477615
 40
0.7164179104477615
 40
0.7164179104477615
 40
0.7313432835820899
 40
0.7313432835820899
 40
0.7313432835820899
 40
0.7313432835820899
 40
0.7462686567164183
 40
0.7462686567164183
 40
0.7462686567164183
 40
0.7462686567164183
 40
0.7611940298507467
 40
0.7611940298507467
 40
0.7611940298507467
 40
0.7611940298507467
 40
0.7761194029850751
 40
0.7761194029850751
 40
0.7761194029850751
 40
0.7761194029850751
 40
0.7910447761194035
 40
0.7910447761194035
 40
0.7910447761194035
 40
0.7910447761194035
 40
0.8059701492537319
 40
0.8059701492537319
 40
0.8059701492537319
 40
0.8059701492537319
 40
0.8208955223880603
 40
0.8208955223880603
 40
0.8208955223880603
 40
0.8208955223880603
 40
0.8358208955223887
 40
0.8358208955223887
 40
0.8358208955223887
 40
0.8358208955223887
 40
0.8507462686567171
 40
0.8507462686567171
 40
0.8507462686567171
 40
0.8507462686567171
 40
0.8656716417910455
 40
0.8656716417910455
 40
0.8656716417910455
 40
0.8656716417910455
 40
0.8805970149253739
 40
0.8805970149253739
 40
0.8805970149253739
 40
0.8805970149253739
 40
0.8955223880597023
 40
0.8955223880597023
 40
0.8955223880597023
 40
0.8955223880597023
 40
0.9104477611940307
 40
0.9104477611940307
 40
0.9104477611940307
 40
0.9104477611940307
 40
0.9253731343283591
 40
0.9253731343283591
 40
0.9253731343283591
 40
0.9253731343283591
 40
0.9402985074626875
 40
0.9402985074626875
 40
0.9402985074626875
 40
0.9402985074626875
 40
0.9552238805970159
 40
0.9552238805970159
 40
0.9552238805970159
 40
0.9552238805970159
 40
0.9701492537313443
 40
0.9701492537313443
 40
0.9701492537313443
 40
0.9701492537313443
 40
0.9850746268656727
 40
0.9850746268656727
 40
0.9850746268656727
 40
0.9850746268656727
 40
1.0
 40
1.0
 40
1.0
 40
1.0
 10
-953.10799999999995
 20
-169.40389999999999
 30
0.0
 10
-953.10799999999995
 20
-169.40389999999999
 30
0.0
 10
-949.10799999999995
 20
-167.40389999999999
 30
0.0
 10
-949.10799999999995
 20
-167.40389999999999
 30
0.0
 10
-949.10799999999995
 20
-167.40389999999999
 30
0.0
 10
-949.10799999999995
 20
-167.40389999999999
 30
0.0
 10
-940.87729999999999
 20
-157.55770000000001
 30
0.0
 10
-940.87729999999999
 20
-157.55770000000001
 30
0.0
 10
-940.87729999999999
 20
-157.55770000000001
 30
0.0
 10
-940.87729999999999
 20
-157.55770000000001
 30
0.0
 10
-935.90800000000002
 20
-150.50389999999999
 30
0.0
 10
-935.90800000000002
 20
-150.50389999999999
 30
0.0
 10
-935.90800000000002
 20
-150.50389999999999
 30
0.0
 10
-935.90800000000002
 20
-150.50389999999999
 30
0.0
 10
-929.46100000000001
 20
-137.31559999999999
 30
0.0
 10
-929.46100000000001
 20
-137.31559999999999
 30
0.0
 10
-929.46100000000001
 20
-137.31559999999999
 30
0.0
 10
-929.46100000000001
 20
-137.31559999999999
 30
0.0
 10
-927.80799999999999
 20
-131.50389999999999
 30
0.0
 10
-927.80799999999999
 20
-131.50389999999999
 30
0.0
 10
-927.80799999999999
 20
-131.50389999999999
 30
0.0
 10
-927.80799999999999
 20
-131.50389999999999
 30
0.0
 10
-924.10799999999995
 20
-113.40389999999999
 30
0.0
 10
-924.10799999999995
 20
-113.40389999999999
 30
0.0
 10
-924.10799999999995
 20
-113.40389999999999
 30
0.0
 10
-924.10799999999995
 20
-113.40389999999999
 30
0.0
 10
-924.10799999999995
 20
-107.40389999999999
 30
0.0
 10
-924.10799999999995
 20
-107.40389999999999
 30
0.0
 10
-924.10799999999995
 20
-107.40389999999999
 30
0.0
 10
-924.10799999999995
 20
-107.40389999999999
 30
0.0
 10
-925.51350000000002
 20
-101.4714
 30
0.0
 10
-925.51350000000002
 20
-101.4714
 30
0.0
 10
-925.51350000000002
 20
-101.4714
 30
0.0
 10
-925.51350000000002
 20
-101.4714
 30
0.0
 10
-927.34799999999996
 20
-95.5839
 30
0.0
 10
-927.34799999999996
 20
-95.5839
 30
0.0
 10
-927.34799999999996
 20
-95.5839
 30
0.0
 10
-927.34799999999996
 20
-95.5839
 30
0.0
 10
-936.10799999999995
 20
-84.403899999999993
 30
0.0
 10
-936.10799999999995
 20
-84.403899999999993
 30
0.0
 10
-936.10799999999995
 20
-84.403899999999993
 30
0.0
 10
-936.10799999999995
 20
-84.403899999999993
 30
0.0
 10
-946.91290000000004
 20
-75.159899999999993
 30
0.0
 10
-946.91290000000004
 20
-75.159899999999993
 30
0.0
 10
-946.91290000000004
 20
-75.159899999999993
 30
0.0
 10
-946.91290000000004
 20
-75.159899999999993
 30
0.0
 10
-956.30319999999995
 20
-67.647800000000004
 30
0.0
 10
-956.30319999999995
 20
-67.647800000000004
 30
0.0
 10
-956.30319999999995
 20
-67.647800000000004
 30
0.0
 10
-956.30319999999995
 20
-67.647800000000004
 30
0.0
 10
-982.20799999999997
 20
-49.603900000000003
 30
0.0
 10
-982.20799999999997
 20
-49.603900000000003
 30
0.0
 10
-982.20799999999997
 20
-49.603900000000003
 30
0.0
 10
-982.20799999999997
 20
-49.603900000000003
 30
0.0
 10
-995.00800000000004
 20
-42.203899999999997
 30
0.0
 10
-995.00800000000004
 20
-42.203899999999997
 30
0.0
 10
-995.00800000000004
 20
-42.203899999999997
 30
0.0
 10
-995.00800000000004
 20
-42.203899999999997
 30
0.0
 10
-1016.008
 20
-33.203899999999997
 30
0.0
 10
-1016.008
 20
-33.203899999999997
 30
0.0
 10
-1016.008
 20
-33.203899999999997
 30
0.0
 10
-1016.008
 20
-33.203899999999997
 30
0.0
 10
-1029.1963000000001
 20
-28.756799999999998
 30
0.0
 10
-1029.1963000000001
 20
-28.756799999999998
 30
0.0
 10
-1029.1963000000001
 20
-28.756799999999998
 30
0.0
 10
-1029.1963000000001
 20
-28.756799999999998
 30
0.0
 10
-1032.0198
 20
-28.050899999999999
 30
0.0
 10
-1032.0198
 20
-28.050899999999999
 30
0.0
 10
-1032.0198
 20
-28.050899999999999
 30
0.0
 10
-1032.0198
 20
-28.050899999999999
 30
0.0
 10
-1068.1389999999999
 20
-19.868500000000001
 30
0.0
 10
-1068.1389999999999
 20
-19.868500000000001
 30
0.0
 10
-1068.1389999999999
 20
-19.868500000000001
 30
0.0
 10
-1068.1389999999999
 20
-19.868500000000001
 30
0.0
 10
-1082.0771
 20
-18.9392
 30
0.0
 10
-1082.0771
 20
-18.9392
 30
0.0
 10
-1082.0771
 20
-18.9392
 30
0.0
 10
-1082.0771
 20
-18.9392
 30
0.0
 10
-1125.1079999999999
 20
-18.4039
 30
0.0
 10
-1125.1079999999999
 20
-18.4039
 30
0.0
 10
-1125.1079999999999
 20
-18.4039
 30
0.0
 10
-1125.1079999999999
 20
-18.4039
 30
0.0
 10
-1154.0591999999999
 20
-21.8429
 30
0.0
 10
-1154.0591999999999
 20
-21.8429
 30
0.0
 10
-1154.0591999999999
 20
-21.8429
 30
0.0
 10
-1154.0591999999999
 20
-21.8429
 30
0.0
 10
-1164.0634
 20
-22.849399999999999
 30
0.0
 10
-1164.0634
 20
-22.849399999999999
 30
0.0
 10
-1164.0634
 20
-22.849399999999999
 30
0.0
 10
-1164.0634
 20
-22.849399999999999
 30
0.0
 10
-1172.008
 20
-24.603899999999999
 30
0.0
 10
-1172.008
 20
-24.603899999999999
 30
0.0
 10
-1172.008
 20
-24.603899999999999
 30
0.0
 10
-1172.008
 20
-24.603899999999999
 30
0.0
 10
-1181.1079999999999
 20
-29.4039
 30
0.0
 10
-1181.1079999999999
 20
-29.4039
 30
0.0
 10
-1181.1079999999999
 20
-29.4039
 30
0.0
 10
-1181.1079999999999
 20
-29.4039
 30
0.0
 10
-1190.9079999999999
 20
-51.503900000000002
 30
0.0
 10
-1190.9079999999999
 20
-51.503900000000002
 30
0.0
 10
-1190.9079999999999
 20
-51.503900000000002
 30
0.0
 10
-1190.9079999999999
 20
-51.503900000000002
 30
0.0
 10
-1195.308
 20
-62.303899999999999
 30
0.0
 10
-1195.308
 20
-62.303899999999999
 30
0.0
 10
-1195.308
 20
-62.303899999999999
 30
0.0
 10
-1195.308
 20
-62.303899999999999
 30
0.0
 10
-1212.9079999999999
 20
-99.503900000000002
 30
0.0
 10
-1212.9079999999999
 20
-99.503900000000002
 30
0.0
 10
-1212.9079999999999
 20
-99.503900000000002
 30
0.0
 10
-1212.9079999999999
 20
-99.503900000000002
 30
0.0
 10
-1213.1079999999999
 20
-100.40389999999999
 30
0.0
 10
-1213.1079999999999
 20
-100.40389999999999
 30
0.0
 10
-1213.1079999999999
 20
-100.40389999999999
 30
0.0
 10
-1213.1079999999999
 20
-100.40389999999999
 30
0.0
 10
-1208.1079999999999
 20
-102.40389999999999
 30
0.0
 10
-1208.1079999999999
 20
-102.40389999999999
 30
0.0
 10
-1208.1079999999999
 20
-102.40389999999999
 30
0.0
 10
-1208.1079999999999
 20
-102.40389999999999
 30
0.0
 10
-1201.1079999999999
 20
-102.40389999999999
 30
0.0
 10
-1201.1079999999999
 20
-102.40389999999999
 30
0.0
 10
-1201.1079999999999
 20
-102.40389999999999
 30
0.0
 10
-1201.1079999999999
 20
-102.40389999999999
 30
0.0
 10
-1181.0541000000001
 20
-98.834599999999995
 30
0.0
 10
-1181.0541000000001
 20
-98.834599999999995
 30
0.0
 10
-1181.0541000000001
 20
-98.834599999999995
 30
0.0
 10
-1181.0541000000001
 20
-98.834599999999995
 30
0.0
 10
-1154.1079999999999
 20
-95.403899999999993
 30
0.0
 10
-1154.1079999999999
 20
-95.403899999999993
 30
0.0
 10
-1154.1079999999999
 20
-95.403899999999993
 30
0.0
 10
-1154.1079999999999
 20
-95.403899999999993
 30
0.0
 10
-1144.1079999999999
 20
-95.403899999999993
 30
0.0
 10
-1144.1079999999999
 20
-95.403899999999993
 30
0.0
 10
-1144.1079999999999
 20
-95.403899999999993
 30
0.0
 10
-1144.1079999999999
 20
-95.403899999999993
 30
0.0
 10
-1138.1755000000001
 20
-96.809299999999993
 30
0.0
 10
-1138.1755000000001
 20
-96.809299999999993
 30
0.0
 10
-1138.1755000000001
 20
-96.809299999999993
 30
0.0
 10
-1138.1755000000001
 20
-96.809299999999993
 30
0.0
 10
-1133.2618
 20
-98.634600000000006
 30
0.0
 10
-1133.2618
 20
-98.634600000000006
 30
0.0
 10
-1133.2618
 20
-98.634600000000006
 30
0.0
 10
-1133.2618
 20
-98.634600000000006
 30
0.0
 10
-1130.1079999999999
 20
-100.40389999999999
 30
0.0
 10
-1130.1079999999999
 20
-100.40389999999999
 30
0.0
 10
-1130.1079999999999
 20
-100.40389999999999
 30
0.0
 10
-1130.1079999999999
 20
-100.40389999999999
 30
0.0
 10
-1127.9079999999999
 20
-104.3039
 30
0.0
 10
-1127.9079999999999
 20
-104.3039
 30
0.0
 10
-1127.9079999999999
 20
-104.3039
 30
0.0
 10
-1127.9079999999999
 20
-104.3039
 30
0.0
 10
-1126.9079999999999
 20
-106.3039
 30
0.0
 10
-1126.9079999999999
 20
-106.3039
 30
0.0
 10
-1126.9079999999999
 20
-106.3039
 30
0.0
 10
-1126.9079999999999
 20
-106.3039
 30
0.0
 10
-1136.1079999999999
 20
-118.40389999999999
 30
0.0
 10
-1136.1079999999999
 20
-118.40389999999999
 30
0.0
 10
-1136.1079999999999
 20
-118.40389999999999
 30
0.0
 10
-1136.1079999999999
 20
-118.40389999999999
 30
0.0
 10
-1130.1079999999999
 20
-124.40389999999999
 30
0.0
 10
-1130.1079999999999
 20
-124.40389999999999
 30
0.0
 10
-1130.1079999999999
 20
-124.40389999999999
 30
0.0
 10
-1130.1079999999999
 20
-124.40389999999999
 30
0.0
 10
-1120.0310999999999
 20
-128.01920000000001
 30
0.0
 10
-1120.0310999999999
 20
-128.01920000000001
 30
0.0
 10
-1120.0310999999999
 20
-128.01920000000001
 30
0.0
 10
-1120.0310999999999
 20
-128.01920000000001
 30
0.0
 10
-1115.008
 20
-129.2039
 30
0.0
 10
-1115.008
 20
-129.2039
 30
0.0
 10
-1115.008
 20
-129.2039
 30
0.0
 10
-1115.008
 20
-129.2039
 30
0.0
 10
-1110.1079999999999
 20
-132.40389999999999
 30
0.0
 10
-1110.1079999999999
 20
-132.40389999999999
 30
0.0
 10
-1110.1079999999999
 20
-132.40389999999999
 30
0.0
 10
-1110.1079999999999
 20
-132.40389999999999
 30
0.0
 10
-1111.1079999999999
 20
-134.40389999999999
 30
0.0
 10
-1111.1079999999999
 20
-134.40389999999999
 30
0.0
 10
-1111.1079999999999
 20
-134.40389999999999
 30
0.0
 10
-1111.1079999999999
 20
-134.40389999999999
 30
0.0
 10
-1114.008
 20
-135.7039
 30
0.0
 10
-1114.008
 20
-135.7039
 30
0.0
 10
-1114.008
 20
-135.7039
 30
0.0
 10
-1114.008
 20
-135.7039
 30
0.0
 10
-1115.1963000000001
 20
-136.05090000000001
 30
0.0
 10
-1115.1963000000001
 20
-136.05090000000001
 30
0.0
 10
-1115.1963000000001
 20
-136.05090000000001
 30
0.0
 10
-1115.1963000000001
 20
-136.05090000000001
 30
0.0
 10
-1118.1079999999999
 20
-136.40389999999999
 30
0.0
 10
-1118.1079999999999
 20
-136.40389999999999
 30
0.0
 10
-1118.1079999999999
 20
-136.40389999999999
 30
0.0
 10
-1118.1079999999999
 20
-136.40389999999999
 30
0.0
 10
-1121.1079999999999
 20
-139.40389999999999
 30
0.0
 10
-1121.1079999999999
 20
-139.40389999999999
 30
0.0
 10
-1121.1079999999999
 20
-139.40389999999999
 30
0.0
 10
-1121.1079999999999
 20
-139.40389999999999
 30
0.0
 10
-1120.308
 20
-141.50389999999999
 30
0.0
 10
-1120.308
 20
-141.50389999999999
 30
0.0
 10
-1120.308
 20
-141.50389999999999
 30
0.0
 10
-1120.308
 20
-141.50389999999999
 30
0.0
 10
-1119.1079999999999
 20
-143.40389999999999
 30
0.0
 10
-1119.1079999999999
 20
-143.40389999999999
 30
0.0
 10
-1119.1079999999999
 20
-143.40389999999999
 30
0.0
 10
-1119.1079999999999
 20
-143.40389999999999
 30
0.0
 10
-1111.0310999999999
 20
-146.01920000000001
 30
0.0
 10
-1111.0310999999999
 20
-146.01920000000001
 30
0.0
 10
-1111.0310999999999
 20
-146.01920000000001
 30
0.0
 10
-1111.0310999999999
 20
-146.01920000000001
 30
0.0
 10
-1102.1079999999999
 20
-147.40389999999999
 30
0.0
 10
-1102.1079999999999
 20
-147.40389999999999
 30
0.0
 10
-1102.1079999999999
 20
-147.40389999999999
 30
0.0
 10
-1102.1079999999999
 20
-147.40389999999999
 30
0.0
 10
-1083.288
 20
-142.16390000000001
 30
0.0
 10
-1083.288
 20
-142.16390000000001
 30
0.0
 10
-1083.288
 20
-142.16390000000001
 30
0.0
 10
-1083.288
 20
-142.16390000000001
 30
0.0
 10
-1077.1079999999999
 20
-137.40389999999999
 30
0.0
 10
-1077.1079999999999
 20
-137.40389999999999
 30
0.0
 10
-1077.1079999999999
 20
-137.40389999999999
 30
0.0
 10
-1077.1079999999999
 20
-137.40389999999999
 30
0.0
 10
-1073.308
 20
-129.3039
 30
0.0
 10
-1073.308
 20
-129.3039
 30
0.0
 10
-1073.308
 20
-129.3039
 30
0.0
 10
-1073.308
 20
-129.3039
 30
0.0
 10
-1071.308
 20
-124.3039
 30
0.0
 10
-1071.308
 20
-124.3039
 30
0.0
 10
-1071.308
 20
-124.3039
 30
0.0
 10
-1071.308
 20
-124.3039
 30
0.0
 10
-1068.4927
 20
-114.32689999999999
 30
0.0
 10
-1068.4927
 20
-114.32689999999999
 30
0.0
 10
-1068.4927
 20
-114.32689999999999
 30
0.0
 10
-1068.4927
 20
-114.32689999999999
 30
0.0
 10
-1067.1079999999999
 20
-108.40389999999999
 30
0.0
 10
-1067.1079999999999
 20
-108.40389999999999
 30
0.0
 10
-1067.1079999999999
 20
-108.40389999999999
 30
0.0
 10
-1067.1079999999999
 20
-108.40389999999999
 30
0.0
 10
-1064.2080000000001
 20
-106.2039
 30
0.0
 10
-1064.2080000000001
 20
-106.2039
 30
0.0
 10
-1064.2080000000001
 20
-106.2039
 30
0.0
 10
-1064.2080000000001
 20
-106.2039
 30
0.0
 10
-1063.1079999999999
 20
-105.40389999999999
 30
0.0
 10
-1063.1079999999999
 20
-105.40389999999999
 30
0.0
 10
-1063.1079999999999
 20
-105.40389999999999
 30
0.0
 10
-1063.1079999999999
 20
-105.40389999999999
 30
0.0
 10
-1057.1079999999999
 20
-105.40389999999999
 30
0.0
 10
-1057.1079999999999
 20
-105.40389999999999
 30
0.0
 10
-1057.1079999999999
 20
-105.40389999999999
 30
0.0
 10
-1057.1079999999999
 20
-105.40389999999999
 30
0.0
 10
-1042.2080000000001
 20
-110.7039
 30
0.0
 10
-1042.2080000000001
 20
-110.7039
 30
0.0
 10
-1042.2080000000001
 20
-110.7039
 30
0.0
 10
-1042.2080000000001
 20
-110.7039
 30
0.0
 10
-1041.008
 20
-111.1039
 30
0.0
 10
-1041.008
 20
-111.1039
 30
0.0
 10
-1041.008
 20
-111.1039
 30
0.0
 10
-1041.008
 20
-111.1039
 30
0.0
 10
-1011.2619
 20
-125.63460000000001
 30
0.0
 10
-1011.2619
 20
-125.63460000000001
 30
0.0
 10
-1011.2619
 20
-125.63460000000001
 30
0.0
 10
-1011.2619
 20
-125.63460000000001
 30
0.0
 10
-1000.9542
 20
-132.17310000000001
 30
0.0
 10
-1000.9542
 20
-132.17310000000001
 30
0.0
 10
-1000.9542
 20
-132.17310000000001
 30
0.0
 10
-1000.9542
 20
-132.17310000000001
 30
0.0
 10
-981.28800000000001
 20
-145.6439
 30
0.0
 10
-981.28800000000001
 20
-145.6439
 30
0.0
 10
-981.28800000000001
 20
-145.6439
 30
0.0
 10
-981.28800000000001
 20
-145.6439
 30
0.0
 10
-953.10799999999995
 20
-169.40389999999999
 30
0.0
 10
-953.10799999999995
 20
-169.40389999999999
 30
0.0
  0
SPLINE
  5
29
100
AcDbEntity
  8
RÚteg 1
 62
     7
100
AcDbSpline
210
0.0
220
0.0
230
1.0
 70
     1
 71
     3
 72
   136
 73
   132
 74
     0
 42
0.0000000001
 43
0.0000000001
 40
0.0
 40
0.0
 40
0.0
 40
0.0
 40
0.0303030303030303
 40
0.0303030303030303
 40
0.0303030303030303
 40
0.0303030303030303
 40
0.0606060606060606
 40
0.0606060606060606
 40
0.0606060606060606
 40
0.0606060606060606
 40
0.0909090909090909
 40
0.0909090909090909
 40
0.0909090909090909
 40
0.0909090909090909
 40
0.1212121212121212
 40
0.1212121212121212
 40
0.1212121212121212
 40
0.1212121212121212
 40
0.1515151515151515
 40
0.1515151515151515
 40
0.1515151515151515
 40
0.1515151515151515
 40
0.1818181818181818
 40
0.1818181818181818
 40
0.1818181818181818
 40
0.1818181818181818
 40
0.2121212121212121
 40
0.2121212121212121
 40
0.2121212121212121
 40
0.2121212121212121
 40
0.2424242424242424
 40
0.2424242424242424
 40
0.2424242424242424
 40
0.2424242424242424
 40
0.2727272727272727
 40
0.2727272727272727
 40
0.2727272727272727
 40
0.2727272727272727
 40
0.303030303030303
 40
0.303030303030303
 40
0.303030303030303
 40
0.303030303030303
 40
0.3333333333333333
 40
0.3333333333333333
 40
0.3333333333333333
 40
0.3333333333333333
 40
0.3636363636363635
 40
0.3636363636363635
 40
0.3636363636363635
 40
0.3636363636363635
 40
0.3939393939393938
 40
0.3939393939393938
 40
0.3939393939393938
 40
0.3939393939393938
 40
0.4242424242424241
 40
0.4242424242424241
 40
0.4242424242424241
 40
0.4242424242424241
 40
0.4545454545454544
 40
0.4545454545454544
 40
0.4545454545454544
 40
0.4545454545454544
 40
0.4848484848484846
 40
0.4848484848484846
 40
0.4848484848484846
 40
0.4848484848484846
 40
0.5151515151515149
 40
0.5151515151515149
 40
0.5151515151515149
 40
0.5151515151515149
 40
0.5454545454545452
 40
0.5454545454545452
 40
0.5454545454545452
 40
0.5454545454545452
 40
0.5757575757575755
 40
0.5757575757575755
 40
0.5757575757575755
 40
0.5757575757575755
 40
0.6060606060606057
 40
0.6060606060606057
 40
0.6060606060606057
 40
0.6060606060606057
 40
0.636363636363636
 40
0.636363636363636
 40
0.636363636363636
 40
0.636363636363636
 40
0.6666666666666663
 40
0.6666666666666663
 40
0.6666666666666663
 40
0.6666666666666663
 40
0.6969696969696966
 40
0.6969696969696966
 40
0.6969696969696966
 40
0.6969696969696966
 40
0.7272727272727269
 40
0.7272727272727269
 40
0.7272727272727269
 40
0.7272727272727269
 40
0.7575757575757571
 40
0.7575757575757571
 40
0.7575757575757571
 40
0.7575757575757571
 40
0.7878787878787874
 40
0.7878787878787874
 40
0.7878787878787874
 40
0.7878787878787874
 40
0.8181818181818177
 40
0.8181818181818177
 40
0.8181818181818177
 40
0.8181818181818177
 40
0.848484848484848
 40
0.848484848484848
 40
0.848484848484848
 40
0.848484848484848
 40
0.8787878787878782
 40
0.8787878787878782
 40
0.8787878787878782
 40
0.8787878787878782
 40
0.9090909090909085
 40
0.9090909090909085
 40
0.9090909090909085
 40
0.9090909090909085
 40
0.9393939393939388
 40
0.9393939393939388
 40
0.9393939393939388
 40
0.9393939393939388
 40
0.9696969696969691
 40
0.9696969696969691
 40
0.9696969696969691
 40
0.9696969696969691
 40
1.0
 40
1.0
 40
1.0
 40
1.0
 10
-1304.1079999999999
 20
-177.40389999999999
 30
0.0
 10
-1304.1079999999999
 20
-177.40389999999999
 30
0.0
 10
-1301.1079999999999
 20
-175.40389999999999
 30
0.0
 10
-1301.1079999999999
 20
-175.40389999999999
 30
0.0
 10
-1301.1079999999999
 20
-175.40389999999999
 30
0.0
 10
-1301.1079999999999
 20
-175.40389999999999
 30
0.0
 10
-1297.8771999999999
 20
-170.55770000000001
 30
0.0
 10
-1297.8771999999999
 20
-170.55770000000001
 30
0.0
 10
-1297.8771999999999
 20
-170.55770000000001
 30
0.0
 10
-1297.8771999999999
 20
-170.55770000000001
 30
0.0
 10
-1296.3387
 20
-168.25
 30
0.0
 10
-1296.3387
 20
-168.25
 30
0.0
 10
-1296.3387
 20
-168.25
 30
0.0
 10
-1296.3387
 20
-168.25
 30
0.0
 10
-1284.8608999999999
 20
-151.6156
 30
0.0
 10
-1284.8608999999999
 20
-151.6156
 30
0.0
 10
-1284.8608999999999
 20
-151.6156
 30
0.0
 10
-1284.8608999999999
 20
-151.6156
 30
0.0
 10
-1255.3557000000001
 20
-118.187
 30
0.0
 10
-1255.3557000000001
 20
-118.187
 30
0.0
 10
-1255.3557000000001
 20
-118.187
 30
0.0
 10
-1255.3557000000001
 20
-118.187
 30
0.0
 10
-1233.8771999999999
 20
-92.557699999999997
 30
0.0
 10
-1233.8771999999999
 20
-92.557699999999997
 30
0.0
 10
-1233.8771999999999
 20
-92.557699999999997
 30
0.0
 10
-1233.8771999999999
 20
-92.557699999999997
 30
0.0
 10
-1228.3387
 20
-84.25
 30
0.0
 10
-1228.3387
 20
-84.25
 30
0.0
 10
-1228.3387
 20
-84.25
 30
0.0
 10
-1228.3387
 20
-84.25
 30
0.0
 10
-1219.308
 20
-67.303899999999999
 30
0.0
 10
-1219.308
 20
-67.303899999999999
 30
0.0
 10
-1219.308
 20
-67.303899999999999
 30
0.0
 10
-1219.308
 20
-67.303899999999999
 30
0.0
 10
-1216.9079999999999
 20
-62.503900000000002
 30
0.0
 10
-1216.9079999999999
 20
-62.503900000000002
 30
0.0
 10
-1216.9079999999999
 20
-62.503900000000002
 30
0.0
 10
-1216.9079999999999
 20
-62.503900000000002
 30
0.0
 10
-1210.4609
 20
-47.315600000000003
 30
0.0
 10
-1210.4609
 20
-47.315600000000003
 30
0.0
 10
-1210.4609
 20
-47.315600000000003
 30
0.0
 10
-1210.4609
 20
-47.315600000000003
 30
0.0
 10
-1203.4609
 20
-21.3156
 30
0.0
 10
-1203.4609
 20
-21.3156
 30
0.0
 10
-1203.4609
 20
-21.3156
 30
0.0
 10
-1203.4609
 20
-21.3156
 30
0.0
 10
-1186.808
 20
42.496099999999998
 30
0.0
 10
-1186.808
 20
42.496099999999998
 30
0.0
 10
-1186.808
 20
42.496099999999998
 30
0.0
 10
-1186.808
 20
42.496099999999998
 30
0.0
 10
-1186.4079999999999
 20
43.696100000000001
 30
0.0
 10
-1186.4079999999999
 20
43.696100000000001
 30
0.0
 10
-1186.4079999999999
 20
43.696100000000001
 30
0.0
 10
-1186.4079999999999
 20
43.696100000000001
 30
0.0
 10
-1180.9079999999999
 20
57.496099999999998
 30
0.0
 10
-1180.9079999999999
 20
57.496099999999998
 30
0.0
 10
-1180.9079999999999
 20
57.496099999999998
 30
0.0
 10
-1180.9079999999999
 20
57.496099999999998
 30
0.0
 10
-1179.9079999999999
 20
59.496099999999998
 30
0.0
 10
-1179.9079999999999
 20
59.496099999999998
 30
0.0
 10
-1179.9079999999999
 20
59.496099999999998
 30
0.0
 10
-1179.9079999999999
 20
59.496099999999998
 30
0.0
 10
-1168.1079999999999
 20
83.596100000000007
 30
0.0
 10
-1168.1079999999999
 20
83.596100000000007
 30
0.0
 10
-1168.1079999999999
 20
83.596100000000007
 30
0.0
 10
-1168.1079999999999
 20
83.596100000000007
 30
0.0
 10
-1169.1079999999999
 20
84.596100000000007
 30
0.0
 10
-1169.1079999999999
 20
84.596100000000007
 30
0.0
 10
-1169.1079999999999
 20
84.596100000000007
 30
0.0
 10
-1169.1079999999999
 20
84.596100000000007
 30
0.0
 10
-1171.1079999999999
 20
84.596100000000007
 30
0.0
 10
-1171.1079999999999
 20
84.596100000000007
 30
0.0
 10
-1171.1079999999999
 20
84.596100000000007
 30
0.0
 10
-1171.1079999999999
 20
84.596100000000007
 30
0.0
 10
-1198.008
 20
77.296099999999996
 30
0.0
 10
-1198.008
 20
77.296099999999996
 30
0.0
 10
-1198.008
 20
77.296099999999996
 30
0.0
 10
-1198.008
 20
77.296099999999996
 30
0.0
 10
-1202.0197000000001
 20
76.243200000000002
 30
0.0
 10
-1202.0197000000001
 20
76.243200000000002
 30
0.0
 10
-1202.0197000000001
 20
76.243200000000002
 30
0.0
 10
-1202.0197000000001
 20
76.243200000000002
 30
0.0
 10
-1236.008
 20
64.396100000000004
 30
0.0
 10
-1236.008
 20
64.396100000000004
 30
0.0
 10
-1236.008
 20
64.396100000000004
 30
0.0
 10
-1236.008
 20
64.396100000000004
 30
0.0
 10
-1255.2080000000001
 20
55.796100000000003
 30
0.0
 10
-1255.2080000000001
 20
55.796100000000003
 30
0.0
 10
-1255.2080000000001
 20
55.796100000000003
 30
0.0
 10
-1255.2080000000001
 20
55.796100000000003
 30
0.0
 10
-1275.903
 20
43.350200000000001
 30
0.0
 10
-1275.903
 20
43.350200000000001
 30
0.0
 10
-1275.903
 20
43.350200000000001
 30
0.0
 10
-1275.903
 20
43.350200000000001
 30
0.0
 10
-1281.3128999999999
 20
38.842100000000002
 30
0.0
 10
-1281.3128999999999
 20
38.842100000000002
 30
0.0
 10
-1281.3128999999999
 20
38.842100000000002
 30
0.0
 10
-1281.3128999999999
 20
38.842100000000002
 30
0.0
 10
-1295.1079999999999
 20
25.5961
 30
0.0
 10
-1295.1079999999999
 20
25.5961
 30
0.0
 10
-1295.1079999999999
 20
25.5961
 30
0.0
 10
-1295.1079999999999
 20
25.5961
 30
0.0
 10
-1303.9079999999999
 20
8.4961000000000002
 30
0.0
 10
-1303.9079999999999
 20
8.4961000000000002
 30
0.0
 10
-1303.9079999999999
 20
8.4961000000000002
 30
0.0
 10
-1303.9079999999999
 20
8.4961000000000002
 30
0.0
 10
-1305.4079999999999
 20
4.6961000000000004
 30
0.0
 10
-1305.4079999999999
 20
4.6961000000000004
 30
0.0
 10
-1305.4079999999999
 20
4.6961000000000004
 30
0.0
 10
-1305.4079999999999
 20
4.6961000000000004
 30
0.0
 10
-1312.6688999999999
 20
-26.4526
 30
0.0
 10
-1312.6688999999999
 20
-26.4526
 30
0.0
 10
-1312.6688999999999
 20
-26.4526
 30
0.0
 10
-1312.6688999999999
 20
-26.4526
 30
0.0
 10
-1315.1079999999999
 20
-45.4039
 30
0.0
 10
-1315.1079999999999
 20
-45.4039
 30
0.0
 10
-1315.1079999999999
 20
-45.4039
 30
0.0
 10
-1315.1079999999999
 20
-45.4039
 30
0.0
 10
-1308.5936999999999
 20
-141.41730000000001
 30
0.0
 10
-1308.5936999999999
 20
-141.41730000000001
 30
0.0
 10
-1308.5936999999999
 20
-141.41730000000001
 30
0.0
 10
-1308.5936999999999
 20
-141.41730000000001
 30
0.0
 10
-1308.1079999999999
 20
-176.40389999999999
 30
0.0
 10
-1308.1079999999999
 20
-176.40389999999999
 30
0.0
 10
-1308.1079999999999
 20
-176.40389999999999
 30
0.0
 10
-1308.1079999999999
 20
-176.40389999999999
 30
0.0
 10
-1307.1079999999999
 20
-177.40389999999999
 30
0.0
 10
-1307.1079999999999
 20
-177.40389999999999
 30
0.0
 10
-1307.1079999999999
 20
-177.40389999999999
 30
0.0
 10
-1307.1079999999999
 20
-177.40389999999999
 30
0.0
 10
-1304.1079999999999
 20
-177.40389999999999
 30
0.0
 10
-1304.1079999999999
 20
-177.40389999999999
 30
0.0
  0
SPLINE
  5
2A
100
AcDbEntity
  8
RÚteg 1
 62
     7
100
AcDbSpline
210
0.0
220
0.0
230
1.0
 70
     1
 71
     3
 72
    80
 73
    76
 74
     0
 42
0.0000000001
 43
0.0000000001
 40
0.0
 40
0.0
 40
0.0
 40
0.0
 40
0.0526315789473684
 40
0.0526315789473684
 40
0.0526315789473684
 40
0.0526315789473684
 40
0.1052631578947368
 40
0.1052631578947368
 40
0.1052631578947368
 40
0.1052631578947368
 40
0.1578947368421053
 40
0.1578947368421053
 40
0.1578947368421053
 40
0.1578947368421053
 40
0.2105263157894737
 40
0.2105263157894737
 40
0.2105263157894737
 40
0.2105263157894737
 40
0.2631578947368421
 40
0.2631578947368421
 40
0.2631578947368421
 40
0.2631578947368421
 40
0.3157894736842105
 40
0.3157894736842105
 40
0.3157894736842105
 40
0.3157894736842105
 40
0.3684210526315789
 40
0.3684210526315789
 40
0.3684210526315789
 40
0.3684210526315789
 40
0.4210526315789474
 40
0.4210526315789474
 40
0.4210526315789474
 40
0.4210526315789474
 40
0.4736842105263158
 40
0.4736842105263158
 40
0.4736842105263158
 40
0.4736842105263158
 40
0.5263157894736842
 40
0.5263157894736842
 40
0.5263157894736842
 40
0.5263157894736842
 40
0.5789473684210527
 40
0.5789473684210527
 40
0.5789473684210527
 40
0.5789473684210527
 40
0.631578947368421
 40
0.631578947368421
 40
0.631578947368421
 40
0.631578947368421
 40
0.6842105263157894
 40
0.6842105263157894
 40
0.6842105263157894
 40
0.6842105263157894
 40
0.7368421052631577
 40
0.7368421052631577
 40
0.7368421052631577
 40
0.7368421052631577
 40
0.7894736842105261
 40
0.7894736842105261
 40
0.7894736842105261
 40
0.7894736842105261
 40
0.8421052631578945
 40
0.8421052631578945
 40
0.8421052631578945
 40
0.8421052631578945
 40
0.8947368421052628
 40
0.8947368421052628
 40
0.8947368421052628
 40
0.8947368421052628
 40
0.9473684210526312
 40
0.9473684210526312
 40
0.9473684210526312
 40
0.9473684210526312
 40
1.0
 40
1.0
 40
1.0
 40
1.0
 10
-1050.1079999999999
 20
-181.40389999999999
 30
0.0
 10
-1050.1079999999999
 20
-181.40389999999999
 30
0.0
 10
-1043.008
 20
-179.60390000000001
 30
0.0
 10
-1043.008
 20
-179.60390000000001
 30
0.0
 10
-1043.008
 20
-179.60390000000001
 30
0.0
 10
-1043.008
 20
-179.60390000000001
 30
0.0
 10
-1040.1079999999999
 20
-178.40389999999999
 30
0.0
 10
-1040.1079999999999
 20
-178.40389999999999
 30
0.0
 10
-1040.1079999999999
 20
-178.40389999999999
 30
0.0
 10
-1040.1079999999999
 20
-178.40389999999999
 30
0.0
 10
-1037.1079999999999
 20
-175.40389999999999
 30
0.0
 10
-1037.1079999999999
 20
-175.40389999999999
 30
0.0
 10
-1037.1079999999999
 20
-175.40389999999999
 30
0.0
 10
-1037.1079999999999
 20
-175.40389999999999
 30
0.0
 10
-1036.1079999999999
 20
-172.40389999999999
 30
0.0
 10
-1036.1079999999999
 20
-172.40389999999999
 30
0.0
 10
-1036.1079999999999
 20
-172.40389999999999
 30
0.0
 10
-1036.1079999999999
 20
-172.40389999999999
 30
0.0
 10
-1036.7551000000001
 20
-168.31559999999999
 30
0.0
 10
-1036.7551000000001
 20
-168.31559999999999
 30
0.0
 10
-1036.7551000000001
 20
-168.31559999999999
 30
0.0
 10
-1036.7551000000001
 20
-168.31559999999999
 30
0.0
 10
-1037.7551000000001
 20
-164.31559999999999
 30
0.0
 10
-1037.7551000000001
 20
-164.31559999999999
 30
0.0
 10
-1037.7551000000001
 20
-164.31559999999999
 30
0.0
 10
-1037.7551000000001
 20
-164.31559999999999
 30
0.0
 10
-1040.1079999999999
 20
-155.40389999999999
 30
0.0
 10
-1040.1079999999999
 20
-155.40389999999999
 30
0.0
 10
-1040.1079999999999
 20
-155.40389999999999
 30
0.0
 10
-1040.1079999999999
 20
-155.40389999999999
 30
0.0
 10
-1046.008
 20
-150.2039
 30
0.0
 10
-1046.008
 20
-150.2039
 30
0.0
 10
-1046.008
 20
-150.2039
 30
0.0
 10
-1046.008
 20
-150.2039
 30
0.0
 10
-1049.1079999999999
 20
-148.40389999999999
 30
0.0
 10
-1049.1079999999999
 20
-148.40389999999999
 30
0.0
 10
-1049.1079999999999
 20
-148.40389999999999
 30
0.0
 10
-1049.1079999999999
 20
-148.40389999999999
 30
0.0
 10
-1056.1079999999999
 20
-148.40389999999999
 30
0.0
 10
-1056.1079999999999
 20
-148.40389999999999
 30
0.0
 10
-1056.1079999999999
 20
-148.40389999999999
 30
0.0
 10
-1056.1079999999999
 20
-148.40389999999999
 30
0.0
 10
-1059.008
 20
-149.7039
 30
0.0
 10
-1059.008
 20
-149.7039
 30
0.0
 10
-1059.008
 20
-149.7039
 30
0.0
 10
-1059.008
 20
-149.7039
 30
0.0
 10
-1060.2080000000001
 20
-150.2039
 30
0.0
 10
-1060.2080000000001
 20
-150.2039
 30
0.0
 10
-1060.2080000000001
 20
-150.2039
 30
0.0
 10
-1060.2080000000001
 20
-150.2039
 30
0.0
 10
-1066.1079999999999
 20
-155.40389999999999
 30
0.0
 10
-1066.1079999999999
 20
-155.40389999999999
 30
0.0
 10
-1066.1079999999999
 20
-155.40389999999999
 30
0.0
 10
-1066.1079999999999
 20
-155.40389999999999
 30
0.0
 10
-1067.308
 20
-158.3039
 30
0.0
 10
-1067.308
 20
-158.3039
 30
0.0
 10
-1067.308
 20
-158.3039
 30
0.0
 10
-1067.308
 20
-158.3039
 30
0.0
 10
-1069.1079999999999
 20
-164.40389999999999
 30
0.0
 10
-1069.1079999999999
 20
-164.40389999999999
 30
0.0
 10
-1069.1079999999999
 20
-164.40389999999999
 30
0.0
 10
-1069.1079999999999
 20
-164.40389999999999
 30
0.0
 10
-1069.1079999999999
 20
-176.40389999999999
 30
0.0
 10
-1069.1079999999999
 20
-176.40389999999999
 30
0.0
 10
-1069.1079999999999
 20
-176.40389999999999
 30
0.0
 10
-1069.1079999999999
 20
-176.40389999999999
 30
0.0
 10
-1068.1079999999999
 20
-178.40389999999999
 30
0.0
 10
-1068.1079999999999
 20
-178.40389999999999
 30
0.0
 10
-1068.1079999999999
 20
-178.40389999999999
 30
0.0
 10
-1068.1079999999999
 20
-178.40389999999999
 30
0.0
 10
-1063.0405000000001
 20
-179.9984
 30
0.0
 10
-1063.0405000000001
 20
-179.9984
 30
0.0
 10
-1063.0405000000001
 20
-179.9984
 30
0.0
 10
-1063.0405000000001
 20
-179.9984
 30
0.0
 10
-1050.1079999999999
 20
-181.40389999999999
 30
0.0
 10
-1050.1079999999999
 20
-181.40389999999999
 30
0.0
  0
SPLINE
  5
2B
100
AcDbEntity
  8
RÚteg 1
 62
     7
100
AcDbSpline
210
0.0
220
0.0
230
1.0
 70
     1
 71
     3
 72
    80
 73
    76
 74
     0
 42
0.0000000001
 43
0.0000000001
 40
0.0
 40
0.0
 40
0.0
 40
0.0
 40
0.0526315789473684
 40
0.0526315789473684
 40
0.0526315789473684
 40
0.0526315789473684
 40
0.1052631578947368
 40
0.1052631578947368
 40
0.1052631578947368
 40
0.1052631578947368
 40
0.1578947368421053
 40
0.1578947368421053
 40
0.1578947368421053
 40
0.1578947368421053
 40
0.2105263157894737
 40
0.2105263157894737
 40
0.2105263157894737
 40
0.2105263157894737
 40
0.2631578947368421
 40
0.2631578947368421
 40
0.2631578947368421
 40
0.2631578947368421
 40
0.3157894736842105
 40
0.3157894736842105
 40
0.3157894736842105
 40
0.3157894736842105
 40
0.3684210526315789
 40
0.3684210526315789
 40
0.3684210526315789
 40
0.3684210526315789
 40
0.4210526315789474
 40
0.4210526315789474
 40
0.4210526315789474
 40
0.4210526315789474
 40
0.4736842105263158
 40
0.4736842105263158
 40
0.4736842105263158
 40
0.4736842105263158
 40
0.5263157894736842
 40
0.5263157894736842
 40
0.5263157894736842
 40
0.5263157894736842
 40
0.5789473684210527
 40
0.5789473684210527
 40
0.5789473684210527
 40
0.5789473684210527
 40
0.631578947368421
 40
0.631578947368421
 40
0.631578947368421
 40
0.631578947368421
 40
0.6842105263157894
 40
0.6842105263157894
 40
0.6842105263157894
 40
0.6842105263157894
 40
0.7368421052631577
 40
0.7368421052631577
 40
0.7368421052631577
 40
0.7368421052631577
 40
0.7894736842105261
 40
0.7894736842105261
 40
0.7894736842105261
 40
0.7894736842105261
 40
0.8421052631578945
 40
0.8421052631578945
 40
0.8421052631578945
 40
0.8421052631578945
 40
0.8947368421052628
 40
0.8947368421052628
 40
0.8947368421052628
 40
0.8947368421052628
 40
0.9473684210526312
 40
0.9473684210526312
 40
0.9473684210526312
 40
0.9473684210526312
 40
1.0
 40
1.0
 40
1.0
 40
1.0
 10
-1167.1079999999999
 20
-187.40389999999999
 30
0.0
 10
-1167.1079999999999
 20
-187.40389999999999
 30
0.0
 10
-1161.1079999999999
 20
-184.40389999999999
 30
0.0
 10
-1161.1079999999999
 20
-184.40389999999999
 30
0.0
 10
-1161.1079999999999
 20
-184.40389999999999
 30
0.0
 10
-1161.1079999999999
 20
-184.40389999999999
 30
0.0
 10
-1159.4609
 20
-179.31559999999999
 30
0.0
 10
-1159.4609
 20
-179.31559999999999
 30
0.0
 10
-1159.4609
 20
-179.31559999999999
 30
0.0
 10
-1159.4609
 20
-179.31559999999999
 30
0.0
 10
-1158.7550000000001
 20
-176.49209999999999
 30
0.0
 10
-1158.7550000000001
 20
-176.49209999999999
 30
0.0
 10
-1158.7550000000001
 20
-176.49209999999999
 30
0.0
 10
-1158.7550000000001
 20
-176.49209999999999
 30
0.0
 10
-1157.1079999999999
 20
-171.40389999999999
 30
0.0
 10
-1157.1079999999999
 20
-171.40389999999999
 30
0.0
 10
-1157.1079999999999
 20
-171.40389999999999
 30
0.0
 10
-1157.1079999999999
 20
-171.40389999999999
 30
0.0
 10
-1157.1079999999999
 20
-161.40389999999999
 30
0.0
 10
-1157.1079999999999
 20
-161.40389999999999
 30
0.0
 10
-1157.1079999999999
 20
-161.40389999999999
 30
0.0
 10
-1157.1079999999999
 20
-161.40389999999999
 30
0.0
 10
-1158.308
 20
-159.50389999999999
 30
0.0
 10
-1158.308
 20
-159.50389999999999
 30
0.0
 10
-1158.308
 20
-159.50389999999999
 30
0.0
 10
-1158.308
 20
-159.50389999999999
 30
0.0
 10
-1160.1079999999999
 20
-155.40389999999999
 30
0.0
 10
-1160.1079999999999
 20
-155.40389999999999
 30
0.0
 10
-1160.1079999999999
 20
-155.40389999999999
 30
0.0
 10
-1160.1079999999999
 20
-155.40389999999999
 30
0.0
 10
-1167.008
 20
-151.2039
 30
0.0
 10
-1167.008
 20
-151.2039
 30
0.0
 10
-1167.008
 20
-151.2039
 30
0.0
 10
-1167.008
 20
-151.2039
 30
0.0
 10
-1171.1079999999999
 20
-149.40389999999999
 30
0.0
 10
-1171.1079999999999
 20
-149.40389999999999
 30
0.0
 10
-1171.1079999999999
 20
-149.40389999999999
 30
0.0
 10
-1171.1079999999999
 20
-149.40389999999999
 30
0.0
 10
-1181.1079999999999
 20
-149.40389999999999
 30
0.0
 10
-1181.1079999999999
 20
-149.40389999999999
 30
0.0
 10
-1181.1079999999999
 20
-149.40389999999999
 30
0.0
 10
-1181.1079999999999
 20
-149.40389999999999
 30
0.0
 10
-1190.1079999999999
 20
-153.40389999999999
 30
0.0
 10
-1190.1079999999999
 20
-153.40389999999999
 30
0.0
 10
-1190.1079999999999
 20
-153.40389999999999
 30
0.0
 10
-1190.1079999999999
 20
-153.40389999999999
 30
0.0
 10
-1192.3387
 20
-156.25
 30
0.0
 10
-1192.3387
 20
-156.25
 30
0.0
 10
-1192.3387
 20
-156.25
 30
0.0
 10
-1192.3387
 20
-156.25
 30
0.0
 10
-1197.7233000000001
 20
-166.48079999999999
 30
0.0
 10
-1197.7233000000001
 20
-166.48079999999999
 30
0.0
 10
-1197.7233000000001
 20
-166.48079999999999
 30
0.0
 10
-1197.7233000000001
 20
-166.48079999999999
 30
0.0
 10
-1199.1079999999999
 20
-171.40389999999999
 30
0.0
 10
-1199.1079999999999
 20
-171.40389999999999
 30
0.0
 10
-1199.1079999999999
 20
-171.40389999999999
 30
0.0
 10
-1199.1079999999999
 20
-171.40389999999999
 30
0.0
 10
-1198.1079999999999
 20
-178.40389999999999
 30
0.0
 10
-1198.1079999999999
 20
-178.40389999999999
 30
0.0
 10
-1198.1079999999999
 20
-178.40389999999999
 30
0.0
 10
-1198.1079999999999
 20
-178.40389999999999
 30
0.0
 10
-1195.1079999999999
 20
-181.40389999999999
 30
0.0
 10
-1195.1079999999999
 20
-181.40389999999999
 30
0.0
 10
-1195.1079999999999
 20
-181.40389999999999
 30
0.0
 10
-1195.1079999999999
 20
-181.40389999999999
 30
0.0
 10
-1193.008
 20
-182.2039
 30
0.0
 10
-1193.008
 20
-182.2039
 30
0.0
 10
-1193.008
 20
-182.2039
 30
0.0
 10
-1193.008
 20
-182.2039
 30
0.0
 10
-1179.0404000000001
 20
-185.9984
 30
0.0
 10
-1179.0404000000001
 20
-185.9984
 30
0.0
 10
-1179.0404000000001
 20
-185.9984
 30
0.0
 10
-1179.0404000000001
 20
-185.9984
 30
0.0
 10
-1167.1079999999999
 20
-187.40389999999999
 30
0.0
 10
-1167.1079999999999
 20
-187.40389999999999
 30
0.0
  0
SPLINE
  5
2C
100
AcDbEntity
  8
RÚteg 1
 62
     7
100
AcDbSpline
210
0.0
220
0.0
230
1.0
 70
     1
 71
     3
 72
    76
 73
    72
 74
     0
 42
0.0000000001
 43
0.0000000001
 40
0.0
 40
0.0
 40
0.0
 40
0.0
 40
0.0555555555555556
 40
0.0555555555555556
 40
0.0555555555555556
 40
0.0555555555555556
 40
0.1111111111111111
 40
0.1111111111111111
 40
0.1111111111111111
 40
0.1111111111111111
 40
0.1666666666666667
 40
0.1666666666666667
 40
0.1666666666666667
 40
0.1666666666666667
 40
0.2222222222222222
 40
0.2222222222222222
 40
0.2222222222222222
 40
0.2222222222222222
 40
0.2777777777777778
 40
0.2777777777777778
 40
0.2777777777777778
 40
0.2777777777777778
 40
0.3333333333333334
 40
0.3333333333333334
 40
0.3333333333333334
 40
0.3333333333333334
 40
0.388888888888889
 40
0.388888888888889
 40
0.388888888888889
 40
0.388888888888889
 40
0.4444444444444445
 40
0.4444444444444445
 40
0.4444444444444445
 40
0.4444444444444445
 40
0.5000000000000001
 40
0.5000000000000001
 40
0.5000000000000001
 40
0.5000000000000001
 40
0.5555555555555557
 40
0.5555555555555557
 40
0.5555555555555557
 40
0.5555555555555557
 40
0.6111111111111113
 40
0.6111111111111113
 40
0.6111111111111113
 40
0.6111111111111113
 40
0.6666666666666669
 40
0.6666666666666669
 40
0.6666666666666669
 40
0.6666666666666669
 40
0.7222222222222224
 40
0.7222222222222224
 40
0.7222222222222224
 40
0.7222222222222224
 40
0.777777777777778
 40
0.777777777777778
 40
0.777777777777778
 40
0.777777777777778
 40
0.8333333333333336
 40
0.8333333333333336
 40
0.8333333333333336
 40
0.8333333333333336
 40
0.8888888888888892
 40
0.8888888888888892
 40
0.8888888888888892
 40
0.8888888888888892
 40
0.9444444444444448
 40
0.9444444444444448
 40
0.9444444444444448
 40
0.9444444444444448
 40
1.0
 40
1.0
 40
1.0
 40
1.0
 10
-1113.1079999999999
 20
-206.40379999999999
 30
0.0
 10
-1113.1079999999999
 20
-206.40379999999999
 30
0.0
 10
-1103.008
 20
-203.60380000000001
 30
0.0
 10
-1103.008
 20
-203.60380000000001
 30
0.0
 10
-1103.008
 20
-203.60380000000001
 30
0.0
 10
-1103.008
 20
-203.60380000000001
 30
0.0
 10
-1096.1079999999999
 20
-200.40389999999999
 30
0.0
 10
-1096.1079999999999
 20
-200.40389999999999
 30
0.0
 10
-1096.1079999999999
 20
-200.40389999999999
 30
0.0
 10
-1096.1079999999999
 20
-200.40389999999999
 30
0.0
 10
-1090.1079999999999
 20
-191.40389999999999
 30
0.0
 10
-1090.1079999999999
 20
-191.40389999999999
 30
0.0
 10
-1090.1079999999999
 20
-191.40389999999999
 30
0.0
 10
-1090.1079999999999
 20
-191.40389999999999
 30
0.0
 10
-1090.1079999999999
 20
-188.40389999999999
 30
0.0
 10
-1090.1079999999999
 20
-188.40389999999999
 30
0.0
 10
-1090.1079999999999
 20
-188.40389999999999
 30
0.0
 10
-1090.1079999999999
 20
-188.40389999999999
 30
0.0
 10
-1091.4079999999999
 20
-185.50389999999999
 30
0.0
 10
-1091.4079999999999
 20
-185.50389999999999
 30
0.0
 10
-1091.4079999999999
 20
-185.50389999999999
 30
0.0
 10
-1091.4079999999999
 20
-185.50389999999999
 30
0.0
 10
-1096.1079999999999
 20
-177.40389999999999
 30
0.0
 10
-1096.1079999999999
 20
-177.40389999999999
 30
0.0
 10
-1096.1079999999999
 20
-177.40389999999999
 30
0.0
 10
-1096.1079999999999
 20
-177.40389999999999
 30
0.0
 10
-1103.008
 20
-173.2039
 30
0.0
 10
-1103.008
 20
-173.2039
 30
0.0
 10
-1103.008
 20
-173.2039
 30
0.0
 10
-1103.008
 20
-173.2039
 30
0.0
 10
-1109.1079999999999
 20
-170.40389999999999
 30
0.0
 10
-1109.1079999999999
 20
-170.40389999999999
 30
0.0
 10
-1109.1079999999999
 20
-170.40389999999999
 30
0.0
 10
-1109.1079999999999
 20
-170.40389999999999
 30
0.0
 10
-1125.1079999999999
 20
-170.40389999999999
 30
0.0
 10
-1125.1079999999999
 20
-170.40389999999999
 30
0.0
 10
-1125.1079999999999
 20
-170.40389999999999
 30
0.0
 10
-1125.1079999999999
 20
-170.40389999999999
 30
0.0
 10
-1128.2080000000001
 20
-172.2039
 30
0.0
 10
-1128.2080000000001
 20
-172.2039
 30
0.0
 10
-1128.2080000000001
 20
-172.2039
 30
0.0
 10
-1128.2080000000001
 20
-172.2039
 30
0.0
 10
-1140.1079999999999
 20
-179.40389999999999
 30
0.0
 10
-1140.1079999999999
 20
-179.40389999999999
 30
0.0
 10
-1140.1079999999999
 20
-179.40389999999999
 30
0.0
 10
-1140.1079999999999
 20
-179.40389999999999
 30
0.0
 10
-1144.1079999999999
 20
-184.40389999999999
 30
0.0
 10
-1144.1079999999999
 20
-184.40389999999999
 30
0.0
 10
-1144.1079999999999
 20
-184.40389999999999
 30
0.0
 10
-1144.1079999999999
 20
-184.40389999999999
 30
0.0
 10
-1140.308
 20
-193.50389999999999
 30
0.0
 10
-1140.308
 20
-193.50389999999999
 30
0.0
 10
-1140.308
 20
-193.50389999999999
 30
0.0
 10
-1140.308
 20
-193.50389999999999
 30
0.0
 10
-1135.1079999999999
 20
-201.40389999999999
 30
0.0
 10
-1135.1079999999999
 20
-201.40389999999999
 30
0.0
 10
-1135.1079999999999
 20
-201.40389999999999
 30
0.0
 10
-1135.1079999999999
 20
-201.40389999999999
 30
0.0
 10
-1129.0197000000001
 20
-204.05080000000001
 30
0.0
 10
-1129.0197000000001
 20
-204.05080000000001
 30
0.0
 10
-1129.0197000000001
 20
-204.05080000000001
 30
0.0
 10
-1129.0197000000001
 20
-204.05080000000001
 30
0.0
 10
-1126.1962000000001
 20
-204.7567
 30
0.0
 10
-1126.1962000000001
 20
-204.7567
 30
0.0
 10
-1126.1962000000001
 20
-204.7567
 30
0.0
 10
-1126.1962000000001
 20
-204.7567
 30
0.0
 10
-1121.0592999999999
 20
-205.96469999999999
 30
0.0
 10
-1121.0592999999999
 20
-205.96469999999999
 30
0.0
 10
-1121.0592999999999
 20
-205.96469999999999
 30
0.0
 10
-1121.0592999999999
 20
-205.96469999999999
 30
0.0
 10
-1113.1079999999999
 20
-206.40379999999999
 30
0.0
 10
-1113.1079999999999
 20
-206.40379999999999
 30
0.0
  0
SPLINE
  5
2D
100
AcDbEntity
  8
RÚteg 1
 62
     7
100
AcDbSpline
210
0.0
220
0.0
230
1.0
 70
     1
 71
     3
 72
    76
 73
    72
 74
     0
 42
0.0000000001
 43
0.0000000001
 40
0.0
 40
0.0
 40
0.0
 40
0.0
 40
0.0555555555555556
 40
0.0555555555555556
 40
0.0555555555555556
 40
0.0555555555555556
 40
0.1111111111111111
 40
0.1111111111111111
 40
0.1111111111111111
 40
0.1111111111111111
 40
0.1666666666666667
 40
0.1666666666666667
 40
0.1666666666666667
 40
0.1666666666666667
 40
0.2222222222222222
 40
0.2222222222222222
 40
0.2222222222222222
 40
0.2222222222222222
 40
0.2777777777777778
 40
0.2777777777777778
 40
0.2777777777777778
 40
0.2777777777777778
 40
0.3333333333333334
 40
0.3333333333333334
 40
0.3333333333333334
 40
0.3333333333333334
 40
0.388888888888889
 40
0.388888888888889
 40
0.388888888888889
 40
0.388888888888889
 40
0.4444444444444445
 40
0.4444444444444445
 40
0.4444444444444445
 40
0.4444444444444445
 40
0.5000000000000001
 40
0.5000000000000001
 40
0.5000000000000001
 40
0.5000000000000001
 40
0.5555555555555557
 40
0.5555555555555557
 40
0.5555555555555557
 40
0.5555555555555557
 40
0.6111111111111113
 40
0.6111111111111113
 40
0.6111111111111113
 40
0.6111111111111113
 40
0.6666666666666669
 40
0.6666666666666669
 40
0.6666666666666669
 40
0.6666666666666669
 40
0.7222222222222224
 40
0.7222222222222224
 40
0.7222222222222224
 40
0.7222222222222224
 40
0.777777777777778
 40
0.777777777777778
 40
0.777777777777778
 40
0.777777777777778
 40
0.8333333333333336
 40
0.8333333333333336
 40
0.8333333333333336
 40
0.8333333333333336
 40
0.8888888888888892
 40
0.8888888888888892
 40
0.8888888888888892
 40
0.8888888888888892
 40
0.9444444444444448
 40
0.9444444444444448
 40
0.9444444444444448
 40
0.9444444444444448
 40
1.0
 40
1.0
 40
1.0
 40
1.0
 10
-1328.1079999999999
 20
-251.40379999999999
 30
0.0
 10
-1328.1079999999999
 20
-251.40379999999999
 30
0.0
 10
-1323.3387
 20
-245.2499
 30
0.0
 10
-1323.3387
 20
-245.2499
 30
0.0
 10
-1323.3387
 20
-245.2499
 30
0.0
 10
-1323.3387
 20
-245.2499
 30
0.0
 10
-1319.4609
 20
-231.31549999999999
 30
0.0
 10
-1319.4609
 20
-231.31549999999999
 30
0.0
 10
-1319.4609
 20
-231.31549999999999
 30
0.0
 10
-1319.4609
 20
-231.31549999999999
 30
0.0
 10
-1318.4609
 20
-227.31549999999999
 30
0.0
 10
-1318.4609
 20
-227.31549999999999
 30
0.0
 10
-1318.4609
 20
-227.31549999999999
 30
0.0
 10
-1318.4609
 20
-227.31549999999999
 30
0.0
 10
-1314.308
 20
-217.3038
 30
0.0
 10
-1314.308
 20
-217.3038
 30
0.0
 10
-1314.308
 20
-217.3038
 30
0.0
 10
-1314.308
 20
-217.3038
 30
0.0
 10
-1313.4079999999999
 20
-215.3038
 30
0.0
 10
-1313.4079999999999
 20
-215.3038
 30
0.0
 10
-1313.4079999999999
 20
-215.3038
 30
0.0
 10
-1313.4079999999999
 20
-215.3038
 30
0.0
 10
-1310.1079999999999
 20
-205.40379999999999
 30
0.0
 10
-1310.1079999999999
 20
-205.40379999999999
 30
0.0
 10
-1310.1079999999999
 20
-205.40379999999999
 30
0.0
 10
-1310.1079999999999
 20
-205.40379999999999
 30
0.0
 10
-1313.1079999999999
 20
-201.40389999999999
 30
0.0
 10
-1313.1079999999999
 20
-201.40389999999999
 30
0.0
 10
-1313.1079999999999
 20
-201.40389999999999
 30
0.0
 10
-1313.1079999999999
 20
-201.40389999999999
 30
0.0
 10
-1318.1079999999999
 20
-201.40389999999999
 30
0.0
 10
-1318.1079999999999
 20
-201.40389999999999
 30
0.0
 10
-1318.1079999999999
 20
-201.40389999999999
 30
0.0
 10
-1318.1079999999999
 20
-201.40389999999999
 30
0.0
 10
-1322.2080000000001
 20
-203.2038
 30
0.0
 10
-1322.2080000000001
 20
-203.2038
 30
0.0
 10
-1322.2080000000001
 20
-203.2038
 30
0.0
 10
-1322.2080000000001
 20
-203.2038
 30
0.0
 10
-1330.1079999999999
 20
-206.40379999999999
 30
0.0
 10
-1330.1079999999999
 20
-206.40379999999999
 30
0.0
 10
-1330.1079999999999
 20
-206.40379999999999
 30
0.0
 10
-1330.1079999999999
 20
-206.40379999999999
 30
0.0
 10
-1333.1079999999999
 20
-209.40379999999999
 30
0.0
 10
-1333.1079999999999
 20
-209.40379999999999
 30
0.0
 10
-1333.1079999999999
 20
-209.40379999999999
 30
0.0
 10
-1333.1079999999999
 20
-209.40379999999999
 30
0.0
 10
-1333.808
 20
-211.50380000000001
 30
0.0
 10
-1333.808
 20
-211.50380000000001
 30
0.0
 10
-1333.808
 20
-211.50380000000001
 30
0.0
 10
-1333.808
 20
-211.50380000000001
 30
0.0
 10
-1334.4079999999999
 20
-213.3038
 30
0.0
 10
-1334.4079999999999
 20
-213.3038
 30
0.0
 10
-1334.4079999999999
 20
-213.3038
 30
0.0
 10
-1334.4079999999999
 20
-213.3038
 30
0.0
 10
-1337.1079999999999
 20
-223.40379999999999
 30
0.0
 10
-1337.1079999999999
 20
-223.40379999999999
 30
0.0
 10
-1337.1079999999999
 20
-223.40379999999999
 30
0.0
 10
-1337.1079999999999
 20
-223.40379999999999
 30
0.0
 10
-1337.1079999999999
 20
-233.40379999999999
 30
0.0
 10
-1337.1079999999999
 20
-233.40379999999999
 30
0.0
 10
-1337.1079999999999
 20
-233.40379999999999
 30
0.0
 10
-1337.1079999999999
 20
-233.40379999999999
 30
0.0
 10
-1335.6772000000001
 20
-241.34989999999999
 30
0.0
 10
-1335.6772000000001
 20
-241.34989999999999
 30
0.0
 10
-1335.6772000000001
 20
-241.34989999999999
 30
0.0
 10
-1335.6772000000001
 20
-241.34989999999999
 30
0.0
 10
-1331.1079999999999
 20
-250.40379999999999
 30
0.0
 10
-1331.1079999999999
 20
-250.40379999999999
 30
0.0
 10
-1331.1079999999999
 20
-250.40379999999999
 30
0.0
 10
-1331.1079999999999
 20
-250.40379999999999
 30
0.0
 10
-1328.1079999999999
 20
-251.40379999999999
 30
0.0
 10
-1328.1079999999999
 20
-251.40379999999999
 30
0.0
  0
SPLINE
  5
2E
100
AcDbEntity
  8
RÚteg 1
 62
     7
100
AcDbSpline
210
0.0
220
0.0
230
1.0
 70
     1
 71
     3
 72
   120
 73
   116
 74
     0
 42
0.0000000001
 43
0.0000000001
 40
0.0
 40
0.0
 40
0.0
 40
0.0
 40
0.0344827586206897
 40
0.0344827586206897
 40
0.0344827586206897
 40
0.0344827586206897
 40
0.0689655172413793
 40
0.0689655172413793
 40
0.0689655172413793
 40
0.0689655172413793
 40
0.103448275862069
 40
0.103448275862069
 40
0.103448275862069
 40
0.103448275862069
 40
0.1379310344827586
 40
0.1379310344827586
 40
0.1379310344827586
 40
0.1379310344827586
 40
0.1724137931034483
 40
0.1724137931034483
 40
0.1724137931034483
 40
0.1724137931034483
 40
0.206896551724138
 40
0.206896551724138
 40
0.206896551724138
 40
0.206896551724138
 40
0.2413793103448276
 40
0.2413793103448276
 40
0.2413793103448276
 40
0.2413793103448276
 40
0.2758620689655173
 40
0.2758620689655173
 40
0.2758620689655173
 40
0.2758620689655173
 40
0.310344827586207
 40
0.310344827586207
 40
0.310344827586207
 40
0.310344827586207
 40
0.3448275862068966
 40
0.3448275862068966
 40
0.3448275862068966
 40
0.3448275862068966
 40
0.3793103448275863
 40
0.3793103448275863
 40
0.3793103448275863
 40
0.3793103448275863
 40
0.413793103448276
 40
0.413793103448276
 40
0.413793103448276
 40
0.413793103448276
 40
0.4482758620689656
 40
0.4482758620689656
 40
0.4482758620689656
 40
0.4482758620689656
 40
0.4827586206896553
 40
0.4827586206896553
 40
0.4827586206896553
 40
0.4827586206896553
 40
0.517241379310345
 40
0.517241379310345
 40
0.517241379310345
 40
0.517241379310345
 40
0.5517241379310346
 40
0.5517241379310346
 40
0.5517241379310346
 40
0.5517241379310346
 40
0.5862068965517242
 40
0.5862068965517242
 40
0.5862068965517242
 40
0.5862068965517242
 40
0.6206896551724138
 40
0.6206896551724138
 40
0.6206896551724138
 40
0.6206896551724138
 40
0.6551724137931034
 40
0.6551724137931034
 40
0.6551724137931034
 40
0.6551724137931034
 40
0.689655172413793
 40
0.689655172413793
 40
0.689655172413793
 40
0.689655172413793
 40
0.7241379310344827
 40
0.7241379310344827
 40
0.7241379310344827
 40
0.7241379310344827
 40
0.7586206896551723
 40
0.7586206896551723
 40
0.7586206896551723
 40
0.7586206896551723
 40
0.7931034482758619
 40
0.7931034482758619
 40
0.7931034482758619
 40
0.7931034482758619
 40
0.8275862068965515
 40
0.8275862068965515
 40
0.8275862068965515
 40
0.8275862068965515
 40
0.8620689655172411
 40
0.8620689655172411
 40
0.8620689655172411
 40
0.8620689655172411
 40
0.8965517241379307
 40
0.8965517241379307
 40
0.8965517241379307
 40
0.8965517241379307
 40
0.9310344827586203
 40
0.9310344827586203
 40
0.9310344827586203
 40
0.9310344827586203
 40
0.9655172413793099
 40
0.9655172413793099
 40
0.9655172413793099
 40
0.9655172413793099
 40
1.0
 40
1.0
 40
1.0
 40
1.0
 10
-1183.1079999999999
 20
-291.40379999999999
 30
0.0
 10
-1183.1079999999999
 20
-291.40379999999999
 30
0.0
 10
-1163.008
 20
-287.7038
 30
0.0
 10
-1163.008
 20
-287.7038
 30
0.0
 10
-1163.008
 20
-287.7038
 30
0.0
 10
-1163.008
 20
-287.7038
 30
0.0
 10
-1146.2618
 20
-281.173
 30
0.0
 10
-1146.2618
 20
-281.173
 30
0.0
 10
-1146.2618
 20
-281.173
 30
0.0
 10
-1146.2618
 20
-281.173
 30
0.0
 10
-1142.008
 20
-278.60379999999998
 30
0.0
 10
-1142.008
 20
-278.60379999999998
 30
0.0
 10
-1142.008
 20
-278.60379999999998
 30
0.0
 10
-1142.008
 20
-278.60379999999998
 30
0.0
 10
-1137.1079999999999
 20
-274.40379999999999
 30
0.0
 10
-1137.1079999999999
 20
-274.40379999999999
 30
0.0
 10
-1137.1079999999999
 20
-274.40379999999999
 30
0.0
 10
-1137.1079999999999
 20
-274.40379999999999
 30
0.0
 10
-1132.9079999999999
 20
-268.50380000000001
 30
0.0
 10
-1132.9079999999999
 20
-268.50380000000001
 30
0.0
 10
-1132.9079999999999
 20
-268.50380000000001
 30
0.0
 10
-1132.9079999999999
 20
-268.50380000000001
 30
0.0
 10
-1126.4079999999999
 20
-254.3038
 30
0.0
 10
-1126.4079999999999
 20
-254.3038
 30
0.0
 10
-1126.4079999999999
 20
-254.3038
 30
0.0
 10
-1126.4079999999999
 20
-254.3038
 30
0.0
 10
-1123.1079999999999
 20
-243.40379999999999
 30
0.0
 10
-1123.1079999999999
 20
-243.40379999999999
 30
0.0
 10
-1123.1079999999999
 20
-243.40379999999999
 30
0.0
 10
-1123.1079999999999
 20
-243.40379999999999
 30
0.0
 10
-1123.808
 20
-239.3038
 30
0.0
 10
-1123.808
 20
-239.3038
 30
0.0
 10
-1123.808
 20
-239.3038
 30
0.0
 10
-1123.808
 20
-239.3038
 30
0.0
 10
-1124.4079999999999
 20
-237.50380000000001
 30
0.0
 10
-1124.4079999999999
 20
-237.50380000000001
 30
0.0
 10
-1124.4079999999999
 20
-237.50380000000001
 30
0.0
 10
-1124.4079999999999
 20
-237.50380000000001
 30
0.0
 10
-1128.3387
 20
-231.55760000000001
 30
0.0
 10
-1128.3387
 20
-231.55760000000001
 30
0.0
 10
-1128.3387
 20
-231.55760000000001
 30
0.0
 10
-1128.3387
 20
-231.55760000000001
 30
0.0
 10
-1133.1079999999999
 20
-225.40379999999999
 30
0.0
 10
-1133.1079999999999
 20
-225.40379999999999
 30
0.0
 10
-1133.1079999999999
 20
-225.40379999999999
 30
0.0
 10
-1133.1079999999999
 20
-225.40379999999999
 30
0.0
 10
-1142.008
 20
-220.10380000000001
 30
0.0
 10
-1142.008
 20
-220.10380000000001
 30
0.0
 10
-1142.008
 20
-220.10380000000001
 30
0.0
 10
-1142.008
 20
-220.10380000000001
 30
0.0
 10
-1152.1079999999999
 20
-218.40379999999999
 30
0.0
 10
-1152.1079999999999
 20
-218.40379999999999
 30
0.0
 10
-1152.1079999999999
 20
-218.40379999999999
 30
0.0
 10
-1152.1079999999999
 20
-218.40379999999999
 30
0.0
 10
-1160.0197000000001
 20
-220.7567
 30
0.0
 10
-1160.0197000000001
 20
-220.7567
 30
0.0
 10
-1160.0197000000001
 20
-220.7567
 30
0.0
 10
-1160.0197000000001
 20
-220.7567
 30
0.0
 10
-1189.008
 20
-234.60380000000001
 30
0.0
 10
-1189.008
 20
-234.60380000000001
 30
0.0
 10
-1189.008
 20
-234.60380000000001
 30
0.0
 10
-1189.008
 20
-234.60380000000001
 30
0.0
 10
-1202.008
 20
-239.7038
 30
0.0
 10
-1202.008
 20
-239.7038
 30
0.0
 10
-1202.008
 20
-239.7038
 30
0.0
 10
-1202.008
 20
-239.7038
 30
0.0
 10
-1213.1079999999999
 20
-242.40379999999999
 30
0.0
 10
-1213.1079999999999
 20
-242.40379999999999
 30
0.0
 10
-1213.1079999999999
 20
-242.40379999999999
 30
0.0
 10
-1213.1079999999999
 20
-242.40379999999999
 30
0.0
 10
-1221.1079999999999
 20
-242.40379999999999
 30
0.0
 10
-1221.1079999999999
 20
-242.40379999999999
 30
0.0
 10
-1221.1079999999999
 20
-242.40379999999999
 30
0.0
 10
-1221.1079999999999
 20
-242.40379999999999
 30
0.0
 10
-1227.0404000000001
 20
-240.9983
 30
0.0
 10
-1227.0404000000001
 20
-240.9983
 30
0.0
 10
-1227.0404000000001
 20
-240.9983
 30
0.0
 10
-1227.0404000000001
 20
-240.9983
 30
0.0
 10
-1239.1079999999999
 20
-238.40379999999999
 30
0.0
 10
-1239.1079999999999
 20
-238.40379999999999
 30
0.0
 10
-1239.1079999999999
 20
-238.40379999999999
 30
0.0
 10
-1239.1079999999999
 20
-238.40379999999999
 30
0.0
 10
-1246.1079999999999
 20
-238.40379999999999
 30
0.0
 10
-1246.1079999999999
 20
-238.40379999999999
 30
0.0
 10
-1246.1079999999999
 20
-238.40379999999999
 30
0.0
 10
-1246.1079999999999
 20
-238.40379999999999
 30
0.0
 10
-1248.1079999999999
 20
-240.40379999999999
 30
0.0
 10
-1248.1079999999999
 20
-240.40379999999999
 30
0.0
 10
-1248.1079999999999
 20
-240.40379999999999
 30
0.0
 10
-1248.1079999999999
 20
-240.40379999999999
 30
0.0
 10
-1248.1079999999999
 20
-242.40379999999999
 30
0.0
 10
-1248.1079999999999
 20
-242.40379999999999
 30
0.0
 10
-1248.1079999999999
 20
-242.40379999999999
 30
0.0
 10
-1248.1079999999999
 20
-242.40379999999999
 30
0.0
 10
-1237.8679999999999
 20
-261.22379999999998
 30
0.0
 10
-1237.8679999999999
 20
-261.22379999999998
 30
0.0
 10
-1237.8679999999999
 20
-261.22379999999998
 30
0.0
 10
-1237.8679999999999
 20
-261.22379999999998
 30
0.0
 10
-1235.348
 20
-264.5838
 30
0.0
 10
-1235.348
 20
-264.5838
 30
0.0
 10
-1235.348
 20
-264.5838
 30
0.0
 10
-1235.348
 20
-264.5838
 30
0.0
 10
-1232.1079999999999
 20
-269.40379999999999
 30
0.0
 10
-1232.1079999999999
 20
-269.40379999999999
 30
0.0
 10
-1232.1079999999999
 20
-269.40379999999999
 30
0.0
 10
-1232.1079999999999
 20
-269.40379999999999
 30
0.0
 10
-1220.1079999999999
 20
-281.40379999999999
 30
0.0
 10
-1220.1079999999999
 20
-281.40379999999999
 30
0.0
 10
-1220.1079999999999
 20
-281.40379999999999
 30
0.0
 10
-1220.1079999999999
 20
-281.40379999999999
 30
0.0
 10
-1201.0404000000001
 20
-288.99829999999997
 30
0.0
 10
-1201.0404000000001
 20
-288.99829999999997
 30
0.0
 10
-1201.0404000000001
 20
-288.99829999999997
 30
0.0
 10
-1201.0404000000001
 20
-288.99829999999997
 30
0.0
 10
-1183.1079999999999
 20
-291.40379999999999
 30
0.0
 10
-1183.1079999999999
 20
-291.40379999999999
 30
0.0
  0
SPLINE
  5
2F
100
AcDbEntity
  8
RÚteg 1
 62
     7
100
AcDbSpline
210
0.0
220
0.0
230
1.0
 70
     1
 71
     3
 72
   112
 73
   108
 74
     0
 42
0.0000000001
 43
0.0000000001
 40
0.0
 40
0.0
 40
0.0
 40
0.0
 40
0.037037037037037
 40
0.037037037037037
 40
0.037037037037037
 40
0.037037037037037
 40
0.0740740740740741
 40
0.0740740740740741
 40
0.0740740740740741
 40
0.0740740740740741
 40
0.1111111111111111
 40
0.1111111111111111
 40
0.1111111111111111
 40
0.1111111111111111
 40
0.1481481481481481
 40
0.1481481481481481
 40
0.1481481481481481
 40
0.1481481481481481
 40
0.1851851851851852
 40
0.1851851851851852
 40
0.1851851851851852
 40
0.1851851851851852
 40
0.2222222222222222
 40
0.2222222222222222
 40
0.2222222222222222
 40
0.2222222222222222
 40
0.2592592592592592
 40
0.2592592592592592
 40
0.2592592592592592
 40
0.2592592592592592
 40
0.2962962962962963
 40
0.2962962962962963
 40
0.2962962962962963
 40
0.2962962962962963
 40
0.3333333333333333
 40
0.3333333333333333
 40
0.3333333333333333
 40
0.3333333333333333
 40
0.3703703703703704
 40
0.3703703703703704
 40
0.3703703703703704
 40
0.3703703703703704
 40
0.4074074074074074
 40
0.4074074074074074
 40
0.4074074074074074
 40
0.4074074074074074
 40
0.4444444444444444
 40
0.4444444444444444
 40
0.4444444444444444
 40
0.4444444444444444
 40
0.4814814814814815
 40
0.4814814814814815
 40
0.4814814814814815
 40
0.4814814814814815
 40
0.5185185185185185
 40
0.5185185185185185
 40
0.5185185185185185
 40
0.5185185185185185
 40
0.5555555555555556
 40
0.5555555555555556
 40
0.5555555555555556
 40
0.5555555555555556
 40
0.5925925925925926
 40
0.5925925925925926
 40
0.5925925925925926
 40
0.5925925925925926
 40
0.6296296296296295
 40
0.6296296296296295
 40
0.6296296296296295
 40
0.6296296296296295
 40
0.6666666666666665
 40
0.6666666666666665
 40
0.6666666666666665
 40
0.6666666666666665
 40
0.7037037037037035
 40
0.7037037037037035
 40
0.7037037037037035
 40
0.7037037037037035
 40
0.7407407407407405
 40
0.7407407407407405
 40
0.7407407407407405
 40
0.7407407407407405
 40
0.7777777777777775
 40
0.7777777777777775
 40
0.7777777777777775
 40
0.7777777777777775
 40
0.8148148148148144
 40
0.8148148148148144
 40
0.8148148148148144
 40
0.8148148148148144
 40
0.8518518518518514
 40
0.8518518518518514
 40
0.8518518518518514
 40
0.8518518518518514
 40
0.8888888888888884
 40
0.8888888888888884
 40
0.8888888888888884
 40
0.8888888888888884
 40
0.9259259259259254
 40
0.9259259259259254
 40
0.9259259259259254
 40
0.9259259259259254
 40
0.9629629629629624
 40
0.9629629629629624
 40
0.9629629629629624
 40
0.9629629629629624
 40
1.0
 40
1.0
 40
1.0
 40
1.0
 10
-1040.1079999999999
 20
-296.40379999999999
 30
0.0
 10
-1040.1079999999999
 20
-296.40379999999999
 30
0.0
 10
-1023.1963
 20
-292.05079999999998
 30
0.0
 10
-1023.1963
 20
-292.05079999999998
 30
0.0
 10
-1023.1963
 20
-292.05079999999998
 30
0.0
 10
-1023.1963
 20
-292.05079999999998
 30
0.0
 10
-1013.313
 20
-287.15780000000001
 30
0.0
 10
-1013.313
 20
-287.15780000000001
 30
0.0
 10
-1013.313
 20
-287.15780000000001
 30
0.0
 10
-1013.313
 20
-287.15780000000001
 30
0.0
 10
-1007.1079999999999
 20
-282.40379999999999
 30
0.0
 10
-1007.1079999999999
 20
-282.40379999999999
 30
0.0
 10
-1007.1079999999999
 20
-282.40379999999999
 30
0.0
 10
-1007.1079999999999
 20
-282.40379999999999
 30
0.0
 10
-999.87729999999999
 20
-273.55759999999998
 30
0.0
 10
-999.87729999999999
 20
-273.55759999999998
 30
0.0
 10
-999.87729999999999
 20
-273.55759999999998
 30
0.0
 10
-999.87729999999999
 20
-273.55759999999998
 30
0.0
 10
-998.33879999999999
 20
-271.24990000000003
 30
0.0
 10
-998.33879999999999
 20
-271.24990000000003
 30
0.0
 10
-998.33879999999999
 20
-271.24990000000003
 30
0.0
 10
-998.33879999999999
 20
-271.24990000000003
 30
0.0
 10
-990.10799999999995
 20
-253.40379999999999
 30
0.0
 10
-990.10799999999995
 20
-253.40379999999999
 30
0.0
 10
-990.10799999999995
 20
-253.40379999999999
 30
0.0
 10
-990.10799999999995
 20
-253.40379999999999
 30
0.0
 10
-990.10799999999995
 20
-246.40379999999999
 30
0.0
 10
-990.10799999999995
 20
-246.40379999999999
 30
0.0
 10
-990.10799999999995
 20
-246.40379999999999
 30
0.0
 10
-990.10799999999995
 20
-246.40379999999999
 30
0.0
 10
-993.10799999999995
 20
-243.40379999999999
 30
0.0
 10
-993.10799999999995
 20
-243.40379999999999
 30
0.0
 10
-993.10799999999995
 20
-243.40379999999999
 30
0.0
 10
-993.10799999999995
 20
-243.40379999999999
 30
0.0
 10
-1020.208
 20
-233.7038
 30
0.0
 10
-1020.208
 20
-233.7038
 30
0.0
 10
-1020.208
 20
-233.7038
 30
0.0
 10
-1020.208
 20
-233.7038
 30
0.0
 10
-1023.208
 20
-232.7038
 30
0.0
 10
-1023.208
 20
-232.7038
 30
0.0
 10
-1023.208
 20
-232.7038
 30
0.0
 10
-1023.208
 20
-232.7038
 30
0.0
 10
-1065.0405000000001
 20
-218.9983
 30
0.0
 10
-1065.0405000000001
 20
-218.9983
 30
0.0
 10
-1065.0405000000001
 20
-218.9983
 30
0.0
 10
-1065.0405000000001
 20
-218.9983
 30
0.0
 10
-1083.1079999999999
 20
-217.40379999999999
 30
0.0
 10
-1083.1079999999999
 20
-217.40379999999999
 30
0.0
 10
-1083.1079999999999
 20
-217.40379999999999
 30
0.0
 10
-1083.1079999999999
 20
-217.40379999999999
 30
0.0
 10
-1092.008
 20
-220.60380000000001
 30
0.0
 10
-1092.008
 20
-220.60380000000001
 30
0.0
 10
-1092.008
 20
-220.60380000000001
 30
0.0
 10
-1092.008
 20
-220.60380000000001
 30
0.0
 10
-1097.1079999999999
 20
-223.40379999999999
 30
0.0
 10
-1097.1079999999999
 20
-223.40379999999999
 30
0.0
 10
-1097.1079999999999
 20
-223.40379999999999
 30
0.0
 10
-1097.1079999999999
 20
-223.40379999999999
 30
0.0
 10
-1101.3388
 20
-228.2499
 30
0.0
 10
-1101.3388
 20
-228.2499
 30
0.0
 10
-1101.3388
 20
-228.2499
 30
0.0
 10
-1101.3388
 20
-228.2499
 30
0.0
 10
-1105.1079999999999
 20
-235.40379999999999
 30
0.0
 10
-1105.1079999999999
 20
-235.40379999999999
 30
0.0
 10
-1105.1079999999999
 20
-235.40379999999999
 30
0.0
 10
-1105.1079999999999
 20
-235.40379999999999
 30
0.0
 10
-1105.1079999999999
 20
-244.40379999999999
 30
0.0
 10
-1105.1079999999999
 20
-244.40379999999999
 30
0.0
 10
-1105.1079999999999
 20
-244.40379999999999
 30
0.0
 10
-1105.1079999999999
 20
-244.40379999999999
 30
0.0
 10
-1103.808
 20
-247.3038
 30
0.0
 10
-1103.808
 20
-247.3038
 30
0.0
 10
-1103.808
 20
-247.3038
 30
0.0
 10
-1103.808
 20
-247.3038
 30
0.0
 10
-1101.4079999999999
 20
-253.50380000000001
 30
0.0
 10
-1101.4079999999999
 20
-253.50380000000001
 30
0.0
 10
-1101.4079999999999
 20
-253.50380000000001
 30
0.0
 10
-1101.4079999999999
 20
-253.50380000000001
 30
0.0
 10
-1097.8773000000001
 20
-262.24990000000003
 30
0.0
 10
-1097.8773000000001
 20
-262.24990000000003
 30
0.0
 10
-1097.8773000000001
 20
-262.24990000000003
 30
0.0
 10
-1097.8773000000001
 20
-262.24990000000003
 30
0.0
 10
-1093.8679999999999
 20
-268.22379999999998
 30
0.0
 10
-1093.8679999999999
 20
-268.22379999999998
 30
0.0
 10
-1093.8679999999999
 20
-268.22379999999998
 30
0.0
 10
-1093.8679999999999
 20
-268.22379999999998
 30
0.0
 10
-1086.1079999999999
 20
-278.40379999999999
 30
0.0
 10
-1086.1079999999999
 20
-278.40379999999999
 30
0.0
 10
-1086.1079999999999
 20
-278.40379999999999
 30
0.0
 10
-1086.1079999999999
 20
-278.40379999999999
 30
0.0
 10
-1074.9031
 20
-287.15780000000001
 30
0.0
 10
-1074.9031
 20
-287.15780000000001
 30
0.0
 10
-1074.9031
 20
-287.15780000000001
 30
0.0
 10
-1074.9031
 20
-287.15780000000001
 30
0.0
 10
-1070.008
 20
-290.2038
 30
0.0
 10
-1070.008
 20
-290.2038
 30
0.0
 10
-1070.008
 20
-290.2038
 30
0.0
 10
-1070.008
 20
-290.2038
 30
0.0
 10
-1065.008
 20
-292.2038
 30
0.0
 10
-1065.008
 20
-292.2038
 30
0.0
 10
-1065.008
 20
-292.2038
 30
0.0
 10
-1065.008
 20
-292.2038
 30
0.0
 10
-1054.0542
 20
-294.97300000000001
 30
0.0
 10
-1054.0542
 20
-294.97300000000001
 30
0.0
 10
-1054.0542
 20
-294.97300000000001
 30
0.0
 10
-1054.0542
 20
-294.97300000000001
 30
0.0
 10
-1040.1079999999999
 20
-296.40379999999999
 30
0.0
 10
-1040.1079999999999
 20
-296.40379999999999
 30
0.0
  0
SPLINE
  5
30
100
AcDbEntity
  8
RÚteg 1
 62
     7
100
AcDbSpline
210
0.0
220
0.0
230
1.0
 70
     1
 71
     3
 72
   416
 73
   412
 74
     0
 42
0.0000000001
 43
0.0000000001
 40
0.0
 40
0.0
 40
0.0
 40
0.0
 40
0.0097087378640777
 40
0.0097087378640777
 40
0.0097087378640777
 40
0.0097087378640777
 40
0.0194174757281553
 40
0.0194174757281553
 40
0.0194174757281553
 40
0.0194174757281553
 40
0.029126213592233
 40
0.029126213592233
 40
0.029126213592233
 40
0.029126213592233
 40
0.0388349514563107
 40
0.0388349514563107
 40
0.0388349514563107
 40
0.0388349514563107
 40
0.0485436893203883
 40
0.0485436893203883
 40
0.0485436893203883
 40
0.0485436893203883
 40
0.058252427184466
 40
0.058252427184466
 40
0.058252427184466
 40
0.058252427184466
 40
0.0679611650485437
 40
0.0679611650485437
 40
0.0679611650485437
 40
0.0679611650485437
 40
0.0776699029126213
 40
0.0776699029126213
 40
0.0776699029126213
 40
0.0776699029126213
 40
0.087378640776699
 40
0.087378640776699
 40
0.087378640776699
 40
0.087378640776699
 40
0.0970873786407767
 40
0.0970873786407767
 40
0.0970873786407767
 40
0.0970873786407767
 40
0.1067961165048543
 40
0.1067961165048543
 40
0.1067961165048543
 40
0.1067961165048543
 40
0.116504854368932
 40
0.116504854368932
 40
0.116504854368932
 40
0.116504854368932
 40
0.1262135922330097
 40
0.1262135922330097
 40
0.1262135922330097
 40
0.1262135922330097
 40
0.1359223300970874
 40
0.1359223300970874
 40
0.1359223300970874
 40
0.1359223300970874
 40
0.145631067961165
 40
0.145631067961165
 40
0.145631067961165
 40
0.145631067961165
 40
0.1553398058252427
 40
0.1553398058252427
 40
0.1553398058252427
 40
0.1553398058252427
 40
0.1650485436893203
 40
0.1650485436893203
 40
0.1650485436893203
 40
0.1650485436893203
 40
0.174757281553398
 40
0.174757281553398
 40
0.174757281553398
 40
0.174757281553398
 40
0.1844660194174757
 40
0.1844660194174757
 40
0.1844660194174757
 40
0.1844660194174757
 40
0.1941747572815533
 40
0.1941747572815533
 40
0.1941747572815533
 40
0.1941747572815533
 40
0.203883495145631
 40
0.203883495145631
 40
0.203883495145631
 40
0.203883495145631
 40
0.2135922330097087
 40
0.2135922330097087
 40
0.2135922330097087
 40
0.2135922330097087
 40
0.2233009708737863
 40
0.2233009708737863
 40
0.2233009708737863
 40
0.2233009708737863
 40
0.233009708737864
 40
0.233009708737864
 40
0.233009708737864
 40
0.233009708737864
 40
0.2427184466019417
 40
0.2427184466019417
 40
0.2427184466019417
 40
0.2427184466019417
 40
0.2524271844660194
 40
0.2524271844660194
 40
0.2524271844660194
 40
0.2524271844660194
 40
0.262135922330097
 40
0.262135922330097
 40
0.262135922330097
 40
0.262135922330097
 40
0.2718446601941747
 40
0.2718446601941747
 40
0.2718446601941747
 40
0.2718446601941747
 40
0.2815533980582524
 40
0.2815533980582524
 40
0.2815533980582524
 40
0.2815533980582524
 40
0.29126213592233
 40
0.29126213592233
 40
0.29126213592233
 40
0.29126213592233
 40
0.3009708737864077
 40
0.3009708737864077
 40
0.3009708737864077
 40
0.3009708737864077
 40
0.3106796116504854
 40
0.3106796116504854
 40
0.3106796116504854
 40
0.3106796116504854
 40
0.320388349514563
 40
0.320388349514563
 40
0.320388349514563
 40
0.320388349514563
 40
0.3300970873786407
 40
0.3300970873786407
 40
0.3300970873786407
 40
0.3300970873786407
 40
0.3398058252427184
 40
0.3398058252427184
 40
0.3398058252427184
 40
0.3398058252427184
 40
0.349514563106796
 40
0.349514563106796
 40
0.349514563106796
 40
0.349514563106796
 40
0.3592233009708737
 40
0.3592233009708737
 40
0.3592233009708737
 40
0.3592233009708737
 40
0.3689320388349514
 40
0.3689320388349514
 40
0.3689320388349514
 40
0.3689320388349514
 40
0.378640776699029
 40
0.378640776699029
 40
0.378640776699029
 40
0.378640776699029
 40
0.3883495145631067
 40
0.3883495145631067
 40
0.3883495145631067
 40
0.3883495145631067
 40
0.3980582524271843
 40
0.3980582524271843
 40
0.3980582524271843
 40
0.3980582524271843
 40
0.407766990291262
 40
0.407766990291262
 40
0.407766990291262
 40
0.407766990291262
 40
0.4174757281553397
 40
0.4174757281553397
 40
0.4174757281553397
 40
0.4174757281553397
 40
0.4271844660194173
 40
0.4271844660194173
 40
0.4271844660194173
 40
0.4271844660194173
 40
0.436893203883495
 40
0.436893203883495
 40
0.436893203883495
 40
0.436893203883495
 40
0.4466019417475727
 40
0.4466019417475727
 40
0.4466019417475727
 40
0.4466019417475727
 40
0.4563106796116503
 40
0.4563106796116503
 40
0.4563106796116503
 40
0.4563106796116503
 40
0.466019417475728
 40
0.466019417475728
 40
0.466019417475728
 40
0.466019417475728
 40
0.4757281553398057
 40
0.4757281553398057
 40
0.4757281553398057
 40
0.4757281553398057
 40
0.4854368932038833
 40
0.4854368932038833
 40
0.4854368932038833
 40
0.4854368932038833
 40
0.495145631067961
 40
0.495145631067961
 40
0.495145631067961
 40
0.495145631067961
 40
0.5048543689320387
 40
0.5048543689320387
 40
0.5048543689320387
 40
0.5048543689320387
 40
0.5145631067961164
 40
0.5145631067961164
 40
0.5145631067961164
 40
0.5145631067961164
 40
0.5242718446601941
 40
0.5242718446601941
 40
0.5242718446601941
 40
0.5242718446601941
 40
0.5339805825242717
 40
0.5339805825242717
 40
0.5339805825242717
 40
0.5339805825242717
 40
0.5436893203883494
 40
0.5436893203883494
 40
0.5436893203883494
 40
0.5436893203883494
 40
0.5533980582524271
 40
0.5533980582524271
 40
0.5533980582524271
 40
0.5533980582524271
 40
0.5631067961165047
 40
0.5631067961165047
 40
0.5631067961165047
 40
0.5631067961165047
 40
0.5728155339805824
 40
0.5728155339805824
 40
0.5728155339805824
 40
0.5728155339805824
 40
0.5825242718446601
 40
0.5825242718446601
 40
0.5825242718446601
 40
0.5825242718446601
 40
0.5922330097087377
 40
0.5922330097087377
 40
0.5922330097087377
 40
0.5922330097087377
 40
0.6019417475728154
 40
0.6019417475728154
 40
0.6019417475728154
 40
0.6019417475728154
 40
0.611650485436893
 40
0.611650485436893
 40
0.611650485436893
 40
0.611650485436893
 40
0.6213592233009707
 40
0.6213592233009707
 40
0.6213592233009707
 40
0.6213592233009707
 40
0.6310679611650484
 40
0.6310679611650484
 40
0.6310679611650484
 40
0.6310679611650484
 40
0.640776699029126
 40
0.640776699029126
 40
0.640776699029126
 40
0.640776699029126
 40
0.6504854368932037
 40
0.6504854368932037
 40
0.6504854368932037
 40
0.6504854368932037
 40
0.6601941747572814
 40
0.6601941747572814
 40
0.6601941747572814
 40
0.6601941747572814
 40
0.669902912621359
 40
0.669902912621359
 40
0.669902912621359
 40
0.669902912621359
 40
0.6796116504854367
 40
0.6796116504854367
 40
0.6796116504854367
 40
0.6796116504854367
 40
0.6893203883495144
 40
0.6893203883495144
 40
0.6893203883495144
 40
0.6893203883495144
 40
0.699029126213592
 40
0.699029126213592
 40
0.699029126213592
 40
0.699029126213592
 40
0.7087378640776697
 40
0.7087378640776697
 40
0.7087378640776697
 40
0.7087378640776697
 40
0.7184466019417474
 40
0.7184466019417474
 40
0.7184466019417474
 40
0.7184466019417474
 40
0.728155339805825
 40
0.728155339805825
 40
0.728155339805825
 40
0.728155339805825
 40
0.7378640776699027
 40
0.7378640776699027
 40
0.7378640776699027
 40
0.7378640776699027
 40
0.7475728155339804
 40
0.7475728155339804
 40
0.7475728155339804
 40
0.7475728155339804
 40
0.757281553398058
 40
0.757281553398058
 40
0.757281553398058
 40
0.757281553398058
 40
0.7669902912621357
 40
0.7669902912621357
 40
0.7669902912621357
 40
0.7669902912621357
 40
0.7766990291262134
 40
0.7766990291262134
 40
0.7766990291262134
 40
0.7766990291262134
 40
0.786407766990291
 40
0.786407766990291
 40
0.786407766990291
 40
0.786407766990291
 40
0.7961165048543687
 40
0.7961165048543687
 40
0.7961165048543687
 40
0.7961165048543687
 40
0.8058252427184464
 40
0.8058252427184464
 40
0.8058252427184464
 40
0.8058252427184464
 40
0.815533980582524
 40
0.815533980582524
 40
0.815533980582524
 40
0.815533980582524
 40
0.8252427184466017
 40
0.8252427184466017
 40
0.8252427184466017
 40
0.8252427184466017
 40
0.8349514563106794
 40
0.8349514563106794
 40
0.8349514563106794
 40
0.8349514563106794
 40
0.844660194174757
 40
0.844660194174757
 40
0.844660194174757
 40
0.844660194174757
 40
0.8543689320388347
 40
0.8543689320388347
 40
0.8543689320388347
 40
0.8543689320388347
 40
0.8640776699029124
 40
0.8640776699029124
 40
0.8640776699029124
 40
0.8640776699029124
 40
0.87378640776699
 40
0.87378640776699
 40
0.87378640776699
 40
0.87378640776699
 40
0.8834951456310677
 40
0.8834951456310677
 40
0.8834951456310677
 40
0.8834951456310677
 40
0.8932038834951454
 40
0.8932038834951454
 40
0.8932038834951454
 40
0.8932038834951454
 40
0.902912621359223
 40
0.902912621359223
 40
0.902912621359223
 40
0.902912621359223
 40
0.9126213592233007
 40
0.9126213592233007
 40
0.9126213592233007
 40
0.9126213592233007
 40
0.9223300970873783
 40
0.9223300970873783
 40
0.9223300970873783
 40
0.9223300970873783
 40
0.932038834951456
 40
0.932038834951456
 40
0.932038834951456
 40
0.932038834951456
 40
0.9417475728155337
 40
0.9417475728155337
 40
0.9417475728155337
 40
0.9417475728155337
 40
0.9514563106796113
 40
0.9514563106796113
 40
0.9514563106796113
 40
0.9514563106796113
 40
0.961165048543689
 40
0.961165048543689
 40
0.961165048543689
 40
0.961165048543689
 40
0.9708737864077667
 40
0.9708737864077667
 40
0.9708737864077667
 40
0.9708737864077667
 40
0.9805825242718443
 40
0.9805825242718443
 40
0.9805825242718443
 40
0.9805825242718443
 40
0.990291262135922
 40
0.990291262135922
 40
0.990291262135922
 40
0.990291262135922
 40
1.0
 40
1.0
 40
1.0
 40
1.0
 10
-1102.1079999999999
 20
-505.40379999999999
 30
0.0
 10
-1102.1079999999999
 20
-505.40379999999999
 30
0.0
 10
-1099.9541999999999
 20
-503.6345
 30
0.0
 10
-1099.9541999999999
 20
-503.6345
 30
0.0
 10
-1099.9541999999999
 20
-503.6345
 30
0.0
 10
-1099.9541999999999
 20
-503.6345
 30
0.0
 10
-1079.9541999999999
 20
-489.6345
 30
0.0
 10
-1079.9541999999999
 20
-489.6345
 30
0.0
 10
-1079.9541999999999
 20
-489.6345
 30
0.0
 10
-1079.9541999999999
 20
-489.6345
 30
0.0
 10
-1029.2080000000001
 20
-461.2038
 30
0.0
 10
-1029.2080000000001
 20
-461.2038
 30
0.0
 10
-1029.2080000000001
 20
-461.2038
 30
0.0
 10
-1029.2080000000001
 20
-461.2038
 30
0.0
 10
-1015.008
 20
-453.60379999999998
 30
0.0
 10
-1015.008
 20
-453.60379999999998
 30
0.0
 10
-1015.008
 20
-453.60379999999998
 30
0.0
 10
-1015.008
 20
-453.60379999999998
 30
0.0
 10
-970.10799999999995
 20
-431.40379999999999
 30
0.0
 10
-970.10799999999995
 20
-431.40379999999999
 30
0.0
 10
-970.10799999999995
 20
-431.40379999999999
 30
0.0
 10
-970.10799999999995
 20
-431.40379999999999
 30
0.0
 10
-968.10799999999995
 20
-429.40379999999999
 30
0.0
 10
-968.10799999999995
 20
-429.40379999999999
 30
0.0
 10
-968.10799999999995
 20
-429.40379999999999
 30
0.0
 10
-968.10799999999995
 20
-429.40379999999999
 30
0.0
 10
-942.33879999999999
 20
-392.24990000000003
 30
0.0
 10
-942.33879999999999
 20
-392.24990000000003
 30
0.0
 10
-942.33879999999999
 20
-392.24990000000003
 30
0.0
 10
-942.33879999999999
 20
-392.24990000000003
 30
0.0
 10
-929.40800000000002
 20
-365.30380000000002
 30
0.0
 10
-929.40800000000002
 20
-365.30380000000002
 30
0.0
 10
-929.40800000000002
 20
-365.30380000000002
 30
0.0
 10
-929.40800000000002
 20
-365.30380000000002
 30
0.0
 10
-924.75509999999997
 20
-347.49200000000002
 30
0.0
 10
-924.75509999999997
 20
-347.49200000000002
 30
0.0
 10
-924.75509999999997
 20
-347.49200000000002
 30
0.0
 10
-924.75509999999997
 20
-347.49200000000002
 30
0.0
 10
-922.5471
 20
-338.35500000000002
 30
0.0
 10
-922.5471
 20
-338.35500000000002
 30
0.0
 10
-922.5471
 20
-338.35500000000002
 30
0.0
 10
-922.5471
 20
-338.35500000000002
 30
0.0
 10
-920.10799999999995
 20
-313.40379999999999
 30
0.0
 10
-920.10799999999995
 20
-313.40379999999999
 30
0.0
 10
-920.10799999999995
 20
-313.40379999999999
 30
0.0
 10
-920.10799999999995
 20
-313.40379999999999
 30
0.0
 10
-920.10799999999995
 20
-281.40379999999999
 30
0.0
 10
-920.10799999999995
 20
-281.40379999999999
 30
0.0
 10
-920.10799999999995
 20
-281.40379999999999
 30
0.0
 10
-920.10799999999995
 20
-281.40379999999999
 30
0.0
 10
-922.51350000000002
 20
-269.47129999999999
 30
0.0
 10
-922.51350000000002
 20
-269.47129999999999
 30
0.0
 10
-922.51350000000002
 20
-269.47129999999999
 30
0.0
 10
-922.51350000000002
 20
-269.47129999999999
 30
0.0
 10
-928.40800000000002
 20
-247.50380000000001
 30
0.0
 10
-928.40800000000002
 20
-247.50380000000001
 30
0.0
 10
-928.40800000000002
 20
-247.50380000000001
 30
0.0
 10
-928.40800000000002
 20
-247.50380000000001
 30
0.0
 10
-934.40800000000002
 20
-233.50380000000001
 30
0.0
 10
-934.40800000000002
 20
-233.50380000000001
 30
0.0
 10
-934.40800000000002
 20
-233.50380000000001
 30
0.0
 10
-934.40800000000002
 20
-233.50380000000001
 30
0.0
 10
-946.30799999999999
 20
-211.50380000000001
 30
0.0
 10
-946.30799999999999
 20
-211.50380000000001
 30
0.0
 10
-946.30799999999999
 20
-211.50380000000001
 30
0.0
 10
-946.30799999999999
 20
-211.50380000000001
 30
0.0
 10
-961.35199999999998
 20
-190.59899999999999
 30
0.0
 10
-961.35199999999998
 20
-190.59899999999999
 30
0.0
 10
-961.35199999999998
 20
-190.59899999999999
 30
0.0
 10
-961.35199999999998
 20
-190.59899999999999
 30
0.0
 10
-976.10799999999995
 20
-173.40389999999999
 30
0.0
 10
-976.10799999999995
 20
-173.40389999999999
 30
0.0
 10
-976.10799999999995
 20
-173.40389999999999
 30
0.0
 10
-976.10799999999995
 20
-173.40389999999999
 30
0.0
 10
-983.10799999999995
 20
-169.40389999999999
 30
0.0
 10
-983.10799999999995
 20
-169.40389999999999
 30
0.0
 10
-983.10799999999995
 20
-169.40389999999999
 30
0.0
 10
-983.10799999999995
 20
-169.40389999999999
 30
0.0
 10
-987.10799999999995
 20
-173.40389999999999
 30
0.0
 10
-987.10799999999995
 20
-173.40389999999999
 30
0.0
 10
-987.10799999999995
 20
-173.40389999999999
 30
0.0
 10
-987.10799999999995
 20
-173.40389999999999
 30
0.0
 10
-989.90800000000002
 20
-179.50389999999999
 30
0.0
 10
-989.90800000000002
 20
-179.50389999999999
 30
0.0
 10
-989.90800000000002
 20
-179.50389999999999
 30
0.0
 10
-989.90800000000002
 20
-179.50389999999999
 30
0.0
 10
-993.10799999999995
 20
-188.40389999999999
 30
0.0
 10
-993.10799999999995
 20
-188.40389999999999
 30
0.0
 10
-993.10799999999995
 20
-188.40389999999999
 30
0.0
 10
-993.10799999999995
 20
-188.40389999999999
 30
0.0
 10
-989.87729999999999
 20
-195.25
 30
0.0
 10
-989.87729999999999
 20
-195.25
 30
0.0
 10
-989.87729999999999
 20
-195.25
 30
0.0
 10
-989.87729999999999
 20
-195.25
 30
0.0
 10
-986.30799999999999
 20
-201.50389999999999
 30
0.0
 10
-986.30799999999999
 20
-201.50389999999999
 30
0.0
 10
-986.30799999999999
 20
-201.50389999999999
 30
0.0
 10
-986.30799999999999
 20
-201.50389999999999
 30
0.0
 10
-982.10799999999995
 20
-223.40379999999999
 30
0.0
 10
-982.10799999999995
 20
-223.40379999999999
 30
0.0
 10
-982.10799999999995
 20
-223.40379999999999
 30
0.0
 10
-982.10799999999995
 20
-223.40379999999999
 30
0.0
 10
-980.10799999999995
 20
-225.40379999999999
 30
0.0
 10
-980.10799999999995
 20
-225.40379999999999
 30
0.0
 10
-980.10799999999995
 20
-225.40379999999999
 30
0.0
 10
-980.10799999999995
 20
-225.40379999999999
 30
0.0
 10
-971.10799999999995
 20
-226.40379999999999
 30
0.0
 10
-971.10799999999995
 20
-226.40379999999999
 30
0.0
 10
-971.10799999999995
 20
-226.40379999999999
 30
0.0
 10
-971.10799999999995
 20
-226.40379999999999
 30
0.0
 10
-969.10799999999995
 20
-228.40379999999999
 30
0.0
 10
-969.10799999999995
 20
-228.40379999999999
 30
0.0
 10
-969.10799999999995
 20
-228.40379999999999
 30
0.0
 10
-969.10799999999995
 20
-228.40379999999999
 30
0.0
 10
-969.65719999999999
 20
-236.44470000000001
 30
0.0
 10
-969.65719999999999
 20
-236.44470000000001
 30
0.0
 10
-969.65719999999999
 20
-236.44470000000001
 30
0.0
 10
-969.65719999999999
 20
-236.44470000000001
 30
0.0
 10
-971.46100000000001
 20
-250.31549999999999
 30
0.0
 10
-971.46100000000001
 20
-250.31549999999999
 30
0.0
 10
-971.46100000000001
 20
-250.31549999999999
 30
0.0
 10
-971.46100000000001
 20
-250.31549999999999
 30
0.0
 10
-974.90800000000002
 20
-263.50380000000001
 30
0.0
 10
-974.90800000000002
 20
-263.50380000000001
 30
0.0
 10
-974.90800000000002
 20
-263.50380000000001
 30
0.0
 10
-974.90800000000002
 20
-263.50380000000001
 30
0.0
 10
-976.90800000000002
 20
-267.50380000000001
 30
0.0
 10
-976.90800000000002
 20
-267.50380000000001
 30
0.0
 10
-976.90800000000002
 20
-267.50380000000001
 30
0.0
 10
-976.90800000000002
 20
-267.50380000000001
 30
0.0
 10
-985.34799999999996
 20
-283.22379999999998
 30
0.0
 10
-985.34799999999996
 20
-283.22379999999998
 30
0.0
 10
-985.34799999999996
 20
-283.22379999999998
 30
0.0
 10
-985.34799999999996
 20
-283.22379999999998
 30
0.0
 10
-993.86800000000005
 20
-294.5838
 30
0.0
 10
-993.86800000000005
 20
-294.5838
 30
0.0
 10
-993.86800000000005
 20
-294.5838
 30
0.0
 10
-993.86800000000005
 20
-294.5838
 30
0.0
 10
-999.90309999999999
 20
-300.6497
 30
0.0
 10
-999.90309999999999
 20
-300.6497
 30
0.0
 10
-999.90309999999999
 20
-300.6497
 30
0.0
 10
-999.90309999999999
 20
-300.6497
 30
0.0
 10
-1011.208
 20
-309.2038
 30
0.0
 10
-1011.208
 20
-309.2038
 30
0.0
 10
-1011.208
 20
-309.2038
 30
0.0
 10
-1011.208
 20
-309.2038
 30
0.0
 10
-1012.008
 20
-309.60379999999998
 30
0.0
 10
-1012.008
 20
-309.60379999999998
 30
0.0
 10
-1012.008
 20
-309.60379999999998
 30
0.0
 10
-1012.008
 20
-309.60379999999998
 30
0.0
 10
-1021.1526
 20
-312.95819999999998
 30
0.0
 10
-1021.1526
 20
-312.95819999999998
 30
0.0
 10
-1021.1526
 20
-312.95819999999998
 30
0.0
 10
-1021.1526
 20
-312.95819999999998
 30
0.0
 10
-1031.1079999999999
 20
-314.40379999999999
 30
0.0
 10
-1031.1079999999999
 20
-314.40379999999999
 30
0.0
 10
-1031.1079999999999
 20
-314.40379999999999
 30
0.0
 10
-1031.1079999999999
 20
-314.40379999999999
 30
0.0
 10
-1048.1525999999999
 20
-313.84930000000003
 30
0.0
 10
-1048.1525999999999
 20
-313.84930000000003
 30
0.0
 10
-1048.1525999999999
 20
-313.84930000000003
 30
0.0
 10
-1048.1525999999999
 20
-313.84930000000003
 30
0.0
 10
-1057.0635
 20
-312.95819999999998
 30
0.0
 10
-1057.0635
 20
-312.95819999999998
 30
0.0
 10
-1057.0635
 20
-312.95819999999998
 30
0.0
 10
-1057.0635
 20
-312.95819999999998
 30
0.0
 10
-1063.008
 20
-311.10379999999998
 30
0.0
 10
-1063.008
 20
-311.10379999999998
 30
0.0
 10
-1063.008
 20
-311.10379999999998
 30
0.0
 10
-1063.008
 20
-311.10379999999998
 30
0.0
 10
-1068.008
 20
-309.10379999999998
 30
0.0
 10
-1068.008
 20
-309.10379999999998
 30
0.0
 10
-1068.008
 20
-309.10379999999998
 30
0.0
 10
-1068.008
 20
-309.10379999999998
 30
0.0
 10
-1090.1079999999999
 20
-300.40379999999999
 30
0.0
 10
-1090.1079999999999
 20
-300.40379999999999
 30
0.0
 10
-1090.1079999999999
 20
-300.40379999999999
 30
0.0
 10
-1090.1079999999999
 20
-300.40379999999999
 30
0.0
 10
-1094.1079999999999
 20
-300.40379999999999
 30
0.0
 10
-1094.1079999999999
 20
-300.40379999999999
 30
0.0
 10
-1094.1079999999999
 20
-300.40379999999999
 30
0.0
 10
-1094.1079999999999
 20
-300.40379999999999
 30
0.0
 10
-1099.9129
 20
-303.64769999999999
 30
0.0
 10
-1099.9129
 20
-303.64769999999999
 30
0.0
 10
-1099.9129
 20
-303.64769999999999
 30
0.0
 10
-1099.9129
 20
-303.64769999999999
 30
0.0
 10
-1108.4184
 20
-309.67959999999999
 30
0.0
 10
-1108.4184
 20
-309.67959999999999
 30
0.0
 10
-1108.4184
 20
-309.67959999999999
 30
0.0
 10
-1108.4184
 20
-309.67959999999999
 30
0.0
 10
-1113.1079999999999
 20
-311.40379999999999
 30
0.0
 10
-1113.1079999999999
 20
-311.40379999999999
 30
0.0
 10
-1113.1079999999999
 20
-311.40379999999999
 30
0.0
 10
-1113.1079999999999
 20
-311.40379999999999
 30
0.0
 10
-1119.1079999999999
 20
-311.40379999999999
 30
0.0
 10
-1119.1079999999999
 20
-311.40379999999999
 30
0.0
 10
-1119.1079999999999
 20
-311.40379999999999
 30
0.0
 10
-1119.1079999999999
 20
-311.40379999999999
 30
0.0
 10
-1123.0197000000001
 20
-310.05079999999998
 30
0.0
 10
-1123.0197000000001
 20
-310.05079999999998
 30
0.0
 10
-1123.0197000000001
 20
-310.05079999999998
 30
0.0
 10
-1123.0197000000001
 20
-310.05079999999998
 30
0.0
 10
-1131.9280000000001
 20
-306.16379999999998
 30
0.0
 10
-1131.9280000000001
 20
-306.16379999999998
 30
0.0
 10
-1131.9280000000001
 20
-306.16379999999998
 30
0.0
 10
-1131.9280000000001
 20
-306.16379999999998
 30
0.0
 10
-1140.1079999999999
 20
-301.40379999999999
 30
0.0
 10
-1140.1079999999999
 20
-301.40379999999999
 30
0.0
 10
-1140.1079999999999
 20
-301.40379999999999
 30
0.0
 10
-1140.1079999999999
 20
-301.40379999999999
 30
0.0
 10
-1161.1755000000001
 20
-304.99829999999997
 30
0.0
 10
-1161.1755000000001
 20
-304.99829999999997
 30
0.0
 10
-1161.1755000000001
 20
-304.99829999999997
 30
0.0
 10
-1161.1755000000001
 20
-304.99829999999997
 30
0.0
 10
-1166.0404000000001
 20
-305.80919999999998
 30
0.0
 10
-1166.0404000000001
 20
-305.80919999999998
 30
0.0
 10
-1166.0404000000001
 20
-305.80919999999998
 30
0.0
 10
-1166.0404000000001
 20
-305.80919999999998
 30
0.0
 10
-1173.1079999999999
 20
-307.40379999999999
 30
0.0
 10
-1173.1079999999999
 20
-307.40379999999999
 30
0.0
 10
-1173.1079999999999
 20
-307.40379999999999
 30
0.0
 10
-1173.1079999999999
 20
-307.40379999999999
 30
0.0
 10
-1185.1079999999999
 20
-307.40379999999999
 30
0.0
 10
-1185.1079999999999
 20
-307.40379999999999
 30
0.0
 10
-1185.1079999999999
 20
-307.40379999999999
 30
0.0
 10
-1185.1079999999999
 20
-307.40379999999999
 30
0.0
 10
-1211.0309999999999
 20
-303.01909999999998
 30
0.0
 10
-1211.0309999999999
 20
-303.01909999999998
 30
0.0
 10
-1211.0309999999999
 20
-303.01909999999998
 30
0.0
 10
-1211.0309999999999
 20
-303.01909999999998
 30
0.0
 10
-1215.0197000000001
 20
-302.05079999999998
 30
0.0
 10
-1215.0197000000001
 20
-302.05079999999998
 30
0.0
 10
-1215.0197000000001
 20
-302.05079999999998
 30
0.0
 10
-1215.0197000000001
 20
-302.05079999999998
 30
0.0
 10
-1228.9540999999999
 20
-295.173
 30
0.0
 10
-1228.9540999999999
 20
-295.173
 30
0.0
 10
-1228.9540999999999
 20
-295.173
 30
0.0
 10
-1228.9540999999999
 20
-295.173
 30
0.0
 10
-1231.2618
 20
-293.6345
 30
0.0
 10
-1231.2618
 20
-293.6345
 30
0.0
 10
-1231.2618
 20
-293.6345
 30
0.0
 10
-1231.2618
 20
-293.6345
 30
0.0
 10
-1240.1079999999999
 20
-287.40379999999999
 30
0.0
 10
-1240.1079999999999
 20
-287.40379999999999
 30
0.0
 10
-1240.1079999999999
 20
-287.40379999999999
 30
0.0
 10
-1240.1079999999999
 20
-287.40379999999999
 30
0.0
 10
-1250.308
 20
-275.50380000000001
 30
0.0
 10
-1250.308
 20
-275.50380000000001
 30
0.0
 10
-1250.308
 20
-275.50380000000001
 30
0.0
 10
-1250.308
 20
-275.50380000000001
 30
0.0
 10
-1255.7550000000001
 20
-264.31549999999999
 30
0.0
 10
-1255.7550000000001
 20
-264.31549999999999
 30
0.0
 10
-1255.7550000000001
 20
-264.31549999999999
 30
0.0
 10
-1255.7550000000001
 20
-264.31549999999999
 30
0.0
 10
-1258.4609
 20
-254.49199999999999
 30
0.0
 10
-1258.4609
 20
-254.49199999999999
 30
0.0
 10
-1258.4609
 20
-254.49199999999999
 30
0.0
 10
-1258.4609
 20
-254.49199999999999
 30
0.0
 10
-1260.1079999999999
 20
-245.40379999999999
 30
0.0
 10
-1260.1079999999999
 20
-245.40379999999999
 30
0.0
 10
-1260.1079999999999
 20
-245.40379999999999
 30
0.0
 10
-1260.1079999999999
 20
-245.40379999999999
 30
0.0
 10
-1260.1079999999999
 20
-237.40379999999999
 30
0.0
 10
-1260.1079999999999
 20
-237.40379999999999
 30
0.0
 10
-1260.1079999999999
 20
-237.40379999999999
 30
0.0
 10
-1260.1079999999999
 20
-237.40379999999999
 30
0.0
 10
-1258.9079999999999
 20
-235.50380000000001
 30
0.0
 10
-1258.9079999999999
 20
-235.50380000000001
 30
0.0
 10
-1258.9079999999999
 20
-235.50380000000001
 30
0.0
 10
-1258.9079999999999
 20
-235.50380000000001
 30
0.0
 10
-1251.4609
 20
-220.31549999999999
 30
0.0
 10
-1251.4609
 20
-220.31549999999999
 30
0.0
 10
-1251.4609
 20
-220.31549999999999
 30
0.0
 10
-1251.4609
 20
-220.31549999999999
 30
0.0
 10
-1249.6772000000001
 20
-209.45760000000001
 30
0.0
 10
-1249.6772000000001
 20
-209.45760000000001
 30
0.0
 10
-1249.6772000000001
 20
-209.45760000000001
 30
0.0
 10
-1249.6772000000001
 20
-209.45760000000001
 30
0.0
 10
-1247.9079999999999
 20
-203.50380000000001
 30
0.0
 10
-1247.9079999999999
 20
-203.50380000000001
 30
0.0
 10
-1247.9079999999999
 20
-203.50380000000001
 30
0.0
 10
-1247.9079999999999
 20
-203.50380000000001
 30
0.0
 10
-1239.808
 20
-190.50389999999999
 30
0.0
 10
-1239.808
 20
-190.50389999999999
 30
0.0
 10
-1239.808
 20
-190.50389999999999
 30
0.0
 10
-1239.808
 20
-190.50389999999999
 30
0.0
 10
-1239.1079999999999
 20
-189.40389999999999
 30
0.0
 10
-1239.1079999999999
 20
-189.40389999999999
 30
0.0
 10
-1239.1079999999999
 20
-189.40389999999999
 30
0.0
 10
-1239.1079999999999
 20
-189.40389999999999
 30
0.0
 10
-1242.5134
 20
-169.47139999999999
 30
0.0
 10
-1242.5134
 20
-169.47139999999999
 30
0.0
 10
-1242.5134
 20
-169.47139999999999
 30
0.0
 10
-1242.5134
 20
-169.47139999999999
 30
0.0
 10
-1243.1079999999999
 20
-168.40389999999999
 30
0.0
 10
-1243.1079999999999
 20
-168.40389999999999
 30
0.0
 10
-1243.1079999999999
 20
-168.40389999999999
 30
0.0
 10
-1243.1079999999999
 20
-168.40389999999999
 30
0.0
 10
-1240.5134
 20
-146.33629999999999
 30
0.0
 10
-1240.5134
 20
-146.33629999999999
 30
0.0
 10
-1240.5134
 20
-146.33629999999999
 30
0.0
 10
-1240.5134
 20
-146.33629999999999
 30
0.0
 10
-1239.1079999999999
 20
-133.40389999999999
 30
0.0
 10
-1239.1079999999999
 20
-133.40389999999999
 30
0.0
 10
-1239.1079999999999
 20
-133.40389999999999
 30
0.0
 10
-1239.1079999999999
 20
-133.40389999999999
 30
0.0
 10
-1240.1079999999999
 20
-132.40389999999999
 30
0.0
 10
-1240.1079999999999
 20
-132.40389999999999
 30
0.0
 10
-1240.1079999999999
 20
-132.40389999999999
 30
0.0
 10
-1240.1079999999999
 20
-132.40389999999999
 30
0.0
 10
-1242.2080000000001
 20
-133.2039
 30
0.0
 10
-1242.2080000000001
 20
-133.2039
 30
0.0
 10
-1242.2080000000001
 20
-133.2039
 30
0.0
 10
-1242.2080000000001
 20
-133.2039
 30
0.0
 10
-1247.1079999999999
 20
-136.40389999999999
 30
0.0
 10
-1247.1079999999999
 20
-136.40389999999999
 30
0.0
 10
-1247.1079999999999
 20
-136.40389999999999
 30
0.0
 10
-1247.1079999999999
 20
-136.40389999999999
 30
0.0
 10
-1252.1079999999999
 20
-141.40389999999999
 30
0.0
 10
-1252.1079999999999
 20
-141.40389999999999
 30
0.0
 10
-1252.1079999999999
 20
-141.40389999999999
 30
0.0
 10
-1252.1079999999999
 20
-141.40389999999999
 30
0.0
 10
-1260.8679999999999
 20
-153.5839
 30
0.0
 10
-1260.8679999999999
 20
-153.5839
 30
0.0
 10
-1260.8679999999999
 20
-153.5839
 30
0.0
 10
-1260.8679999999999
 20
-153.5839
 30
0.0
 10
-1273.8771999999999
 20
-172.55770000000001
 30
0.0
 10
-1273.8771999999999
 20
-172.55770000000001
 30
0.0
 10
-1273.8771999999999
 20
-172.55770000000001
 30
0.0
 10
-1273.8771999999999
 20
-172.55770000000001
 30
0.0
 10
-1282.8771999999999
 20
-186.55770000000001
 30
0.0
 10
-1282.8771999999999
 20
-186.55770000000001
 30
0.0
 10
-1282.8771999999999
 20
-186.55770000000001
 30
0.0
 10
-1282.8771999999999
 20
-186.55770000000001
 30
0.0
 10
-1293.808
 20
-207.50380000000001
 30
0.0
 10
-1293.808
 20
-207.50380000000001
 30
0.0
 10
-1293.808
 20
-207.50380000000001
 30
0.0
 10
-1293.808
 20
-207.50380000000001
 30
0.0
 10
-1298.308
 20
-217.3038
 30
0.0
 10
-1298.308
 20
-217.3038
 30
0.0
 10
-1298.308
 20
-217.3038
 30
0.0
 10
-1298.308
 20
-217.3038
 30
0.0
 10
-1304.7550000000001
 20
-236.49199999999999
 30
0.0
 10
-1304.7550000000001
 20
-236.49199999999999
 30
0.0
 10
-1304.7550000000001
 20
-236.49199999999999
 30
0.0
 10
-1304.7550000000001
 20
-236.49199999999999
 30
0.0
 10
-1306.4079999999999
 20
-242.3038
 30
0.0
 10
-1306.4079999999999
 20
-242.3038
 30
0.0
 10
-1306.4079999999999
 20
-242.3038
 30
0.0
 10
-1306.4079999999999
 20
-242.3038
 30
0.0
 10
-1310.6389999999999
 20
-269.43130000000002
 30
0.0
 10
-1310.6389999999999
 20
-269.43130000000002
 30
0.0
 10
-1310.6389999999999
 20
-269.43130000000002
 30
0.0
 10
-1310.6389999999999
 20
-269.43130000000002
 30
0.0
 10
-1311.5769
 20
-285.37619999999998
 30
0.0
 10
-1311.5769
 20
-285.37619999999998
 30
0.0
 10
-1311.5769
 20
-285.37619999999998
 30
0.0
 10
-1311.5769
 20
-285.37619999999998
 30
0.0
 10
-1312.1079999999999
 20
-312.40379999999999
 30
0.0
 10
-1312.1079999999999
 20
-312.40379999999999
 30
0.0
 10
-1312.1079999999999
 20
-312.40379999999999
 30
0.0
 10
-1312.1079999999999
 20
-312.40379999999999
 30
0.0
 10
-1309.7550000000001
 20
-331.31549999999999
 30
0.0
 10
-1309.7550000000001
 20
-331.31549999999999
 30
0.0
 10
-1309.7550000000001
 20
-331.31549999999999
 30
0.0
 10
-1309.7550000000001
 20
-331.31549999999999
 30
0.0
 10
-1309.4609
 20
-332.49200000000002
 30
0.0
 10
-1309.4609
 20
-332.49200000000002
 30
0.0
 10
-1309.4609
 20
-332.49200000000002
 30
0.0
 10
-1309.4609
 20
-332.49200000000002
 30
0.0
 10
-1303.9079999999999
 20
-352.30380000000002
 30
0.0
 10
-1303.9079999999999
 20
-352.30380000000002
 30
0.0
 10
-1303.9079999999999
 20
-352.30380000000002
 30
0.0
 10
-1303.9079999999999
 20
-352.30380000000002
 30
0.0
 10
-1302.808
 20
-355.30380000000002
 30
0.0
 10
-1302.808
 20
-355.30380000000002
 30
0.0
 10
-1302.808
 20
-355.30380000000002
 30
0.0
 10
-1302.808
 20
-355.30380000000002
 30
0.0
 10
-1293.8771999999999
 20
-376.24990000000003
 30
0.0
 10
-1293.8771999999999
 20
-376.24990000000003
 30
0.0
 10
-1293.8771999999999
 20
-376.24990000000003
 30
0.0
 10
-1293.8771999999999
 20
-376.24990000000003
 30
0.0
 10
-1285.3387
 20
-390.55759999999998
 30
0.0
 10
-1285.3387
 20
-390.55759999999998
 30
0.0
 10
-1285.3387
 20
-390.55759999999998
 30
0.0
 10
-1285.3387
 20
-390.55759999999998
 30
0.0
 10
-1268.1079999999999
 20
-413.40379999999999
 30
0.0
 10
-1268.1079999999999
 20
-413.40379999999999
 30
0.0
 10
-1268.1079999999999
 20
-413.40379999999999
 30
0.0
 10
-1268.1079999999999
 20
-413.40379999999999
 30
0.0
 10
-1245.1079999999999
 20
-436.40379999999999
 30
0.0
 10
-1245.1079999999999
 20
-436.40379999999999
 30
0.0
 10
-1245.1079999999999
 20
-436.40379999999999
 30
0.0
 10
-1245.1079999999999
 20
-436.40379999999999
 30
0.0
 10
-1223.9280000000001
 20
-452.16379999999998
 30
0.0
 10
-1223.9280000000001
 20
-452.16379999999998
 30
0.0
 10
-1223.9280000000001
 20
-452.16379999999998
 30
0.0
 10
-1223.9280000000001
 20
-452.16379999999998
 30
0.0
 10
-1202.008
 20
-464.2038
 30
0.0
 10
-1202.008
 20
-464.2038
 30
0.0
 10
-1202.008
 20
-464.2038
 30
0.0
 10
-1202.008
 20
-464.2038
 30
0.0
 10
-1182.2080000000001
 20
-473.60379999999998
 30
0.0
 10
-1182.2080000000001
 20
-473.60379999999998
 30
0.0
 10
-1182.2080000000001
 20
-473.60379999999998
 30
0.0
 10
-1182.2080000000001
 20
-473.60379999999998
 30
0.0
 10
-1126.008
 20
-496.10379999999998
 30
0.0
 10
-1126.008
 20
-496.10379999999998
 30
0.0
 10
-1126.008
 20
-496.10379999999998
 30
0.0
 10
-1126.008
 20
-496.10379999999998
 30
0.0
 10
-1102.1079999999999
 20
-505.40379999999999
 30
0.0
 10
-1102.1079999999999
 20
-505.40379999999999
 30
0.0
  0
ENDSEC
  0
SECTION
  2
OBJECTS
  0
DICTIONARY
  5
19
100
AcDbDictionary
280
     0
281
     1
  3
ACAD_GROUP
350
1A
  3
ACAD_MLINESTYLE
350
1B
  3
ACAD_LAYOUT
350
1E
  3
ACAD_PLOTSETTINGS
350
22
  3
ACAD_PLOTSTYLENAME
350
1F
  3
ACAD_WIPEOUT_VARS
350
23
  0
DICTIONARY
  5
1A
102
{ACAD_REACTORS
330
19
102
}
100
AcDbDictionary
280
     0
281
     1
  0
DICTIONARY
  5
1B
102
{ACAD_REACTORS
330
19
102
}
100
AcDbDictionary
280
     0
281
     1
  3
Standard
350
1C
  0
MLINESTYLE
  5
1C
102
{ACAD_REACTORS
330
1B
102
}
100
AcDbMlineStyle
  2
Standard
 70
     0
  3

 62
     0
 51
90.0
 52
90.0
 71
     2
 49
0.5
 62
   256
  6
BYLAYER
 49
-0.5
 62
   256
  6
BYLAYER
  0
ACDBDICTIONARYWDFLT
  5
1F
102
{ACAD_REACTORS
330
19
102
}
100
AcDbDictionary
281
     1
  3
Normal
350
1D
100
AcDbDictionaryWithDefault
340
1D
  0
ACDBPLACEHOLDER
  5
1D
102
{ACAD_REACTORS
330
1F
102
}
  0
LAYOUT
  5
20
102
{ACAD_REACTORS
330
1E
102
}
100
AcDbPlotSettings
  1

  2

  4

  6

 40
0.0
 41
0.0
 42
0.0
 43
0.0
 44
0.0
 45
0.0
 46
0.0
 47
0.0
 48
0.0
 49
0.0
140
0.0
141
0.0
142
1.0
143
1.0
 70
  1024
 72
     0
 73
     0
 74
     0
  7

 75
     0
147
1.0
148
0.0
149
0.0
100
AcDbLayout
  1
Model
 70
     0
 71
     0
 10
0.0
 20
0.0
 11
0.0
 21
0.0
 12
0.0
 22
0.0
 32
0.0
 14
0.0
 24
0.0
 34
0.0
 15
0.0
 25
0.0
 35
0.0
146
0.0
 13
0.0
 23
0.0
 33
0.0
 16
0.0
 26
0.0
 36
0.0
 17
0.0
 27
0.0
 37
0.0
 76
     0
330
A
331
0
345
0
346
0
  0
LAYOUT
  5
21
102
{ACAD_REACTORS
330
1E
102
}
100
AcDbPlotSettings
  1

  2

  4

  6

 40
0.0
 41
0.0
 42
0.0
 43
0.0
 44
0.0
 45
0.0
 46
0.0
 47
0.0
 48
0.0
 49
0.0
140
0.0
141
0.0
142
1.0
143
1.0
 70
     0
 72
     0
 73
     0
 74
     0
  7

 75
     0
147
1.0
148
0.0
149
0.0
100
AcDbLayout
  1
Layout1
 70
     0
 71
     0
 10
0.0
 20
0.0
 11
0.0
 21
0.0
 12
0.0
 22
0.0
 32
0.0
 14
0.0
 24
0.0
 34
0.0
 15
0.0
 25
0.0
 35
0.0
146
0.0
 13
0.0
 23
0.0
 33
0.0
 16
0.0
 26
0.0
 36
0.0
 17
0.0
 27
0.0
 37
0.0
 76
     0
330
B
331
0
345
0
346
0
  0
DICTIONARY
  5
1E
102
{ACAD_REACTORS
330
19
102
}
100
AcDbDictionary
280
     0
281
     1
  3
Layout1
350
21
  3
Model
350
20
  0
DICTIONARY
  5
22
102
{ACAD_REACTORS
330
19
102
}
100
AcDbDictionary
280
     0
281
     1
  0
WIPEOUTVARIABLES
  5
23
100
AcDbWipeoutVariables
 70
     1
  0
ENDSEC
  0
EOF
