 0 
SECTION
 2 
HEADER
 9 
$ACADVER
 1 
AC1009
 9 
$EXTMIN
 10 
 0 
 20 
 0 
 9 
$EXTMAX
 10 
 8.5 
 20 
 11 
 0 
ENDSEC
 0 
SECTION
 2 
ENTITIES
0
LINE
8
Layer 1
10
74.122413
20
35.214546
11
73.376378
21
41.776213
0
LINE
8
Layer 1
10
73.376378
20
41.776213
11
72.716793
21
47.491391
0
LINE
8
Layer 1
10
72.716793
20
47.491391
11
72.357922
21
48.825013
0
LINE
8
Layer 1
10
72.357922
20
48.825013
11
71.810211
21
50.036391
0
LINE
8
Layer 1
10
71.810211
20
50.036391
11
71.034550
21
51.878943
0
LINE
8
Layer 1
10
71.034550
20
51.878943
11
70.511388
21
53.616250
0
LINE
8
Layer 1
10
70.511388
20
53.616250
11
70.168033
21
55.278607
0
LINE
8
Layer 1
10
70.168033
20
55.278607
11
66.466511
21
51.544835
0
LINE
8
Layer 1
10
66.466511
20
51.544835
11
64.088617
21
49.251443
0
LINE
8
Layer 1
10
64.088617
20
49.251443
11
61.939643
21
47.401606
0
LINE
8
Layer 1
10
61.939643
20
47.401606
11
60.013451
21
45.992439
0
LINE
8
Layer 1
10
60.013451
20
45.992439
11
58.303902
21
45.021057
0
LINE
8
Layer 1
10
58.303902
20
45.021057
11
56.804856
21
44.484575
0
LINE
8
Layer 1
10
56.804856
20
44.484575
11
55.510175
21
44.380108
0
LINE
8
Layer 1
10
55.510175
20
44.380108
11
54.413720
21
44.704772
0
LINE
8
Layer 1
10
54.413720
20
44.704772
11
53.509353
21
45.455682
0
LINE
8
Layer 1
10
53.509353
20
45.455682
11
52.950690
21
46.352733
0
LINE
8
Layer 1
10
52.950690
20
46.352733
11
52.606420
21
47.322348
0
LINE
8
Layer 1
10
52.606420
20
47.322348
11
52.512728
21
49.129910
0
LINE
8
Layer 1
10
52.512728
20
49.129910
11
52.602958
21
51.870149
0
LINE
8
Layer 1
10
52.602958
20
51.870149
11
52.831108
21
54.733435
0
LINE
8
Layer 1
10
52.831108
20
54.733435
11
53.151176
21
56.910137
0
LINE
8
Layer 1
10
53.151176
20
56.910137
11
53.540488
21
58.645829
0
LINE
8
Layer 1
10
53.540488
20
58.645829
11
51.253020
21
57.660436
0
LINE
8
Layer 1
10
51.253020
20
57.660436
11
42.893469
21
54.214910
0
LINE
8
Layer 1
10
42.893469
20
54.214910
11
35.885464
21
51.530352
0
LINE
8
Layer 1
10
35.885464
20
51.530352
11
33.209590
21
50.717150
0
LINE
8
Layer 1
10
33.209590
20
50.717150
11
31.554936
21
50.555130
0
LINE
8
Layer 1
10
31.554936
20
50.555130
11
31.045779
21
50.727575
0
LINE
8
Layer 1
10
31.045779
20
50.727575
11
30.714180
21
51.073932
0
LINE
8
Layer 1
10
30.714180
20
51.073932
11
30.534226
21
51.597905
0
LINE
8
Layer 1
10
30.534226
20
51.597905
11
30.480000
21
52.303200
0
LINE
8
Layer 1
10
30.480000
20
52.303200
11
30.663753
21
53.445388
0
LINE
8
Layer 1
10
30.663753
20
53.445388
11
31.330383
21
55.031057
0
LINE
8
Layer 1
10
31.330383
20
55.031057
11
34.804514
21
60.910656
0
LINE
8
Layer 1
10
34.804514
20
60.910656
11
37.781806
21
65.913955
0
LINE
8
Layer 1
10
37.781806
20
65.913955
11
38.623513
21
67.590022
0
LINE
8
Layer 1
10
38.623513
20
67.590022
11
39.097088
21
68.832259
0
LINE
8
Layer 1
10
39.097088
20
68.832259
11
39.183641
21
69.216422
0
LINE
8
Layer 1
10
39.183641
20
69.216422
11
39.074059
21
69.395069
0
LINE
8
Layer 1
10
39.074059
20
69.395069
11
37.792920
21
69.308895
0
LINE
8
Layer 1
10
37.792920
20
69.308895
11
30.634909
21
67.682392
0
LINE
8
Layer 1
10
30.634909
20
67.682392
11
25.266594
21
66.492512
0
LINE
8
Layer 1
10
25.266594
20
66.492512
11
23.327985
21
66.227682
0
LINE
8
Layer 1
10
23.327985
20
66.227682
11
21.832505
21
66.185877
0
LINE
8
Layer 1
10
21.832505
20
66.185877
11
20.739726
21
66.369307
0
LINE
8
Layer 1
10
20.739726
20
66.369307
11
20.009223
21
66.780185
0
LINE
8
Layer 1
10
20.009223
20
66.780185
11
19.600568
21
67.420722
0
LINE
8
Layer 1
10
19.600568
20
67.420722
11
19.473333
21
68.293132
0
LINE
8
Layer 1
10
19.473333
20
68.293132
11
19.611357
21
69.201668
0
LINE
8
Layer 1
10
19.611357
20
69.201668
11
20.058110
21
70.213980
0
LINE
8
Layer 1
10
20.058110
20
70.213980
11
20.862617
21
71.381231
0
LINE
8
Layer 1
10
20.862617
20
71.381231
11
22.073902
21
72.754585
0
LINE
8
Layer 1
10
22.073902
20
72.754585
11
25.912901
21
76.324254
0
LINE
8
Layer 1
10
25.912901
20
76.324254
11
31.967300
21
81.332293
0
LINE
8
Layer 1
10
31.967300
20
81.332293
11
41.082162
21
88.786193
0
LINE
8
Layer 1
10
41.082162
20
88.786193
11
46.890294
21
93.833682
0
LINE
8
Layer 1
10
46.890294
20
93.833682
11
48.483918
21
95.307348
0
LINE
8
Layer 1
10
48.483918
20
95.307348
11
47.313627
21
95.087494
0
LINE
8
Layer 1
10
47.313627
20
95.087494
11
43.603333
21
94.099456
0
LINE
8
Layer 1
10
43.603333
20
94.099456
11
41.014153
21
93.486160
0
LINE
8
Layer 1
10
41.014153
20
93.486160
11
38.288443
21
93.302859
0
LINE
8
Layer 1
10
38.288443
20
93.302859
11
35.794668
21
93.384640
0
LINE
8
Layer 1
10
35.794668
20
93.384640
11
35.271601
21
93.617370
0
LINE
8
Layer 1
10
35.271601
20
93.617370
11
34.831220
21
94.066292
0
LINE
8
Layer 1
10
34.831220
20
94.066292
11
34.222368
21
95.161644
0
LINE
8
Layer 1
10
34.222368
20
95.161644
11
34.130377
21
95.777256
0
LINE
8
Layer 1
10
34.130377
20
95.777256
11
34.188417
21
96.448744
0
LINE
8
Layer 1
10
34.188417
20
96.448744
11
34.779817
21
97.991098
0
LINE
8
Layer 1
10
34.779817
20
97.991098
11
36.047020
21
99.852214
0
LINE
8
Layer 1
10
36.047020
20
99.852214
11
38.040477
21
102.095599
0
LINE
8
Layer 1
10
38.040477
20
102.095599
11
40.810638
21
104.784760
0
LINE
8
Layer 1
10
40.810638
20
104.784760
11
48.882876
21
111.754440
0
LINE
8
Layer 1
10
48.882876
20
111.754440
11
55.792980
21
117.585538
0
LINE
8
Layer 1
10
55.792980
20
117.585538
11
52.946893
21
116.820823
0
LINE
8
Layer 1
10
52.946893
20
116.820823
11
50.391073
21
116.162967
0
LINE
8
Layer 1
10
50.391073
20
116.162967
11
48.778737
21
116.037992
0
LINE
8
Layer 1
10
48.778737
20
116.037992
11
48.272550
21
116.182010
0
LINE
8
Layer 1
10
48.272550
20
116.182010
11
47.937644
21
116.467260
0
LINE
8
Layer 1
10
47.937644
20
116.467260
11
47.752489
21
116.896410
0
LINE
8
Layer 1
10
47.752489
20
116.896410
11
47.695556
21
117.472133
0
LINE
8
Layer 1
10
47.695556
20
117.472133
11
47.842876
21
118.351876
0
LINE
8
Layer 1
10
47.842876
20
118.351876
11
48.368431
21
119.515881
0
LINE
8
Layer 1
10
48.368431
20
119.515881
11
51.055806
21
123.613333
0
LINE
8
Layer 1
10
51.055806
20
123.613333
11
53.934152
21
128.044035
0
LINE
8
Layer 1
10
53.934152
20
128.044035
11
54.595600
21
129.375795
0
LINE
8
Layer 1
10
54.595600
20
129.375795
11
54.670009
21
129.997398
0
LINE
8
Layer 1
10
54.670009
20
129.997398
11
53.425294
21
129.950750
0
LINE
8
Layer 1
10
53.425294
20
129.950750
11
50.725680
21
129.545596
0
LINE
8
Layer 1
10
50.725680
20
129.545596
11
47.315345
21
129.042801
0
LINE
8
Layer 1
10
47.315345
20
129.042801
11
44.361876
21
128.761397
0
LINE
8
Layer 1
10
44.361876
20
128.761397
11
42.114300
21
128.750770
0
LINE
8
Layer 1
10
42.114300
20
128.750770
11
41.565524
21
128.883269
0
LINE
8
Layer 1
10
41.565524
20
128.883269
11
41.186876
21
129.132567
0
LINE
8
Layer 1
10
41.186876
20
129.132567
11
40.715678
21
129.777478
0
LINE
8
Layer 1
10
40.715678
20
129.777478
11
40.608701
21
130.540422
0
LINE
8
Layer 1
10
40.608701
20
130.540422
11
40.873155
21
131.430890
0
LINE
8
Layer 1
10
40.873155
20
131.430890
11
41.516250
21
132.458377
0
LINE
8
Layer 1
10
41.516250
20
132.458377
11
42.545196
21
133.632375
0
LINE
8
Layer 1
10
42.545196
20
133.632375
11
43.967204
21
134.962377
0
LINE
8
Layer 1
10
43.967204
20
134.962377
11
48.019245
21
138.128369
0
LINE
8
Layer 1
10
48.019245
20
138.128369
11
56.341361
21
144.297624
0
LINE
8
Layer 1
10
56.341361
20
144.297624
11
62.088889
21
148.744946
0
LINE
8
Layer 1
10
62.088889
20
148.744946
11
62.816673
21
149.438162
0
LINE
8
Layer 1
10
62.816673
20
149.438162
11
62.308698
21
149.321071
0
LINE
8
Layer 1
10
62.308698
20
149.321071
11
60.376373
21
148.796490
0
LINE
8
Layer 1
10
60.376373
20
148.796490
11
57.776166
21
148.327565
0
LINE
8
Layer 1
10
57.776166
20
148.327565
11
55.125476
21
148.007110
0
LINE
8
Layer 1
10
55.125476
20
148.007110
11
53.041702
21
147.927941
0
LINE
8
Layer 1
10
53.041702
20
147.927941
11
51.308347
21
148.130673
0
LINE
8
Layer 1
10
51.308347
20
148.130673
11
50.181870
21
148.594570
0
LINE
8
Layer 1
10
50.181870
20
148.594570
11
49.572106
21
149.384758
0
LINE
8
Layer 1
10
49.572106
20
149.384758
11
49.388889
21
150.566366
0
LINE
8
Layer 1
10
49.388889
20
150.566366
11
49.462088
21
151.430976
0
LINE
8
Layer 1
10
49.462088
20
151.430976
11
49.758927
21
152.303821
0
LINE
8
Layer 1
10
49.758927
20
152.303821
11
50.395270
21
153.305840
0
LINE
8
Layer 1
10
50.395270
20
153.305840
11
51.486981
21
154.557971
0
LINE
8
Layer 1
10
51.486981
20
154.557971
11
55.499961
21
158.296328
0
LINE
8
Layer 1
10
55.499961
20
158.296328
11
62.724778
21
164.486404
0
LINE
8
Layer 1
10
62.724778
20
164.486404
11
74.102161
21
174.418597
0
LINE
8
Layer 1
10
74.102161
20
174.418597
11
77.952036
21
178.061394
0
LINE
8
Layer 1
10
77.952036
20
178.061394
11
80.696026
21
180.931797
0
LINE
8
Layer 1
10
80.696026
20
180.931797
11
83.654968
21
184.231701
0
LINE
8
Layer 1
10
83.654968
20
184.231701
11
84.516776
21
185.160071
0
LINE
8
Layer 1
10
84.516776
20
185.160071
11
82.183865
21
184.020034
0
LINE
8
Layer 1
10
82.183865
20
184.020034
11
79.681257
21
182.957442
0
LINE
8
Layer 1
10
79.681257
20
182.957442
11
79.170559
21
182.944302
0
LINE
8
Layer 1
10
79.170559
20
182.944302
11
79.022222
21
183.244369
0
LINE
8
Layer 1
10
79.022222
20
183.244369
11
82.245031
21
189.026244
0
LINE
8
Layer 1
10
82.245031
20
189.026244
11
85.467839
21
194.443754
0
LINE
8
Layer 1
10
85.467839
20
194.443754
11
81.962808
21
196.303161
0
LINE
8
Layer 1
10
81.962808
20
196.303161
11
79.487381
21
197.723332
0
LINE
8
Layer 1
10
79.487381
20
197.723332
11
78.457778
21
198.526702
0
LINE
8
Layer 1
10
78.457778
20
198.526702
11
78.775748
21
198.763752
0
LINE
8
Layer 1
10
78.775748
20
198.763752
11
79.711394
21
199.115694
0
LINE
8
Layer 1
10
79.711394
20
199.115694
11
83.326111
21
200.128195
0
LINE
8
Layer 1
10
83.326111
20
200.128195
11
88.194444
21
201.365556
0
LINE
8
Layer 1
10
88.194444
20
201.365556
11
89.512617
21
205.740000
0
LINE
8
Layer 1
10
89.512617
20
205.740000
11
91.291108
21
211.737222
0
LINE
8
Layer 1
10
91.291108
20
211.737222
11
91.718080
21
212.883309
0
LINE
8
Layer 1
10
91.718080
20
212.883309
11
92.098230
21
213.360000
0
LINE
8
Layer 1
10
92.098230
20
213.360000
11
93.077228
21
211.474657
0
LINE
8
Layer 1
10
93.077228
20
211.474657
11
94.944777
21
206.939444
0
LINE
8
Layer 1
10
94.944777
20
206.939444
11
97.708393
21
200.348404
0
LINE
8
Layer 1
10
97.708393
20
200.348404
11
101.408910
21
199.990010
0
LINE
8
Layer 1
10
101.408910
20
199.990010
11
107.628351
21
199.558636
0
LINE
8
Layer 1
10
107.628351
20
199.558636
11
108.867228
21
199.353458
0
LINE
8
Layer 1
10
108.867228
20
199.353458
11
109.220000
21
199.114825
0
LINE
8
Layer 1
10
109.220000
20
199.114825
11
107.789927
21
198.109883
0
LINE
8
Layer 1
10
107.789927
20
198.109883
11
104.351667
21
196.164358
0
LINE
8
Layer 1
10
104.351667
20
196.164358
11
99.242177
21
193.321469
0
LINE
8
Layer 1
10
99.242177
20
193.321469
11
99.215600
21
192.468891
0
LINE
8
Layer 1
10
99.215600
20
192.468891
11
99.490344
21
190.738622
0
LINE
8
Layer 1
10
99.490344
20
190.738622
11
99.935120
21
189.039575
0
LINE
8
Layer 1
10
99.935120
20
189.039575
11
100.684725
21
187.425628
0
LINE
8
Layer 1
10
100.684725
20
187.425628
11
102.065737
21
185.327850
0
LINE
8
Layer 1
10
102.065737
20
185.327850
11
104.404736
21
182.177315
0
LINE
8
Layer 1
10
104.404736
20
182.177315
11
106.740835
21
179.346190
0
LINE
8
Layer 1
10
106.740835
20
179.346190
11
109.713585
21
176.105578
0
LINE
8
Layer 1
10
109.713585
20
176.105578
11
112.893782
21
172.904803
0
LINE
8
Layer 1
10
112.893782
20
172.904803
11
115.852222
21
170.193188
0
LINE
8
Layer 1
10
115.852222
20
170.193188
11
122.766667
21
164.693417
0
LINE
8
Layer 1
10
122.766667
20
164.693417
11
127.390174
21
161.001452
0
LINE
8
Layer 1
10
127.390174
20
161.001452
11
128.960208
21
159.568021
0
LINE
8
Layer 1
10
128.960208
20
159.568021
11
130.066785
21
158.371390
0
LINE
8
Layer 1
10
130.066785
20
158.371390
11
130.733173
21
157.382882
0
LINE
8
Layer 1
10
130.733173
20
157.382882
11
130.982638
21
156.573821
0
LINE
8
Layer 1
10
130.982638
20
156.573821
11
130.838448
21
155.915531
0
LINE
8
Layer 1
10
130.838448
20
155.915531
11
130.323869
21
155.379335
0
LINE
8
Layer 1
10
130.323869
20
155.379335
11
129.617522
21
155.041837
0
LINE
8
Layer 1
10
129.617522
20
155.041837
11
128.567415
21
155.016690
0
LINE
8
Layer 1
10
128.567415
20
155.016690
11
126.730342
21
155.351418
0
LINE
8
Layer 1
10
126.730342
20
155.351418
11
123.663095
21
156.093547
0
LINE
8
Layer 1
10
123.663095
20
156.093547
11
120.361302
21
156.862312
0
LINE
8
Layer 1
10
120.361302
20
156.862312
11
118.892218
21
157.086292
0
LINE
8
Layer 1
10
118.892218
20
157.086292
11
119.157056
21
156.409899
0
LINE
8
Layer 1
10
119.157056
20
156.409899
11
120.024054
21
155.013937
0
LINE
8
Layer 1
10
120.024054
20
155.013937
11
122.748819
21
151.003573
0
LINE
8
Layer 1
10
122.748819
20
151.003573
11
123.613113
21
149.600422
0
LINE
8
Layer 1
10
123.613113
20
149.600422
11
124.075163
21
148.508984
0
LINE
8
Layer 1
10
124.075163
20
148.508984
11
124.146614
21
147.687503
0
LINE
8
Layer 1
10
124.146614
20
147.687503
11
123.839111
21
147.094222
0
LINE
8
Layer 1
10
123.839111
20
147.094222
11
123.378611
21
146.840467
0
LINE
8
Layer 1
10
123.378611
20
146.840467
11
122.639165
21
146.787873
0
LINE
8
Layer 1
10
122.639165
20
146.787873
11
119.944444
21
147.306863
0
LINE
8
Layer 1
10
119.944444
20
147.306863
11
117.827778
21
147.848495
0
LINE
8
Layer 1
10
117.827778
20
147.848495
11
119.110616
21
146.667025
0
LINE
8
Layer 1
10
119.110616
20
146.667025
11
127.718394
21
138.858337
0
LINE
8
Layer 1
10
127.718394
20
138.858337
11
135.317805
21
131.835835
0
LINE
8
Layer 1
10
135.317805
20
131.835835
11
139.921167
21
127.123062
0
LINE
8
Layer 1
10
139.921167
20
127.123062
11
141.307509
21
125.394303
0
LINE
8
Layer 1
10
141.307509
20
125.394303
11
142.194654
21
123.956752
0
LINE
8
Layer 1
10
142.194654
20
123.956752
11
142.665876
21
122.715002
0
LINE
8
Layer 1
10
142.665876
20
122.715002
11
142.804444
21
121.573643
0
LINE
8
Layer 1
10
142.804444
20
121.573643
11
142.679584
21
120.559485
0
LINE
8
Layer 1
10
142.679584
20
120.559485
11
142.300325
21
119.779062
0
LINE
8
Layer 1
10
142.300325
20
119.779062
11
141.659650
21
119.231017
0
LINE
8
Layer 1
10
141.659650
20
119.231017
11
140.750542
21
118.913997
0
LINE
8
Layer 1
10
140.750542
20
118.913997
11
139.565985
21
118.826646
0
LINE
8
Layer 1
10
139.565985
20
118.826646
11
138.098962
21
118.967609
0
LINE
8
Layer 1
10
138.098962
20
118.967609
11
134.289450
21
119.929055
0
LINE
8
Layer 1
10
134.289450
20
119.929055
11
130.591366
21
120.878674
0
LINE
8
Layer 1
10
130.591366
20
120.878674
11
127.506882
21
121.349965
0
LINE
8
Layer 1
10
127.506882
20
121.349965
11
127.549283
21
121.061448
0
LINE
8
Layer 1
10
127.549283
20
121.061448
11
127.930216
21
120.359926
0
LINE
8
Layer 1
10
127.930216
20
120.359926
11
128.902931
21
119.344584
0
LINE
8
Layer 1
10
128.902931
20
119.344584
11
131.091384
21
117.587884
0
LINE
8
Layer 1
10
131.091384
20
117.587884
11
139.982222
21
111.191026
0
LINE
8
Layer 1
10
139.982222
20
111.191026
11
143.194713
21
108.756130
0
LINE
8
Layer 1
10
143.194713
20
108.756130
11
145.589436
21
106.549417
0
LINE
8
Layer 1
10
145.589436
20
106.549417
11
147.085552
21
104.656074
0
LINE
8
Layer 1
10
147.085552
20
104.656074
11
147.471371
21
103.853537
0
LINE
8
Layer 1
10
147.471371
20
103.853537
11
147.602222
21
103.161287
0
LINE
8
Layer 1
10
147.602222
20
103.161287
11
147.436417
21
102.690100
0
LINE
8
Layer 1
10
147.436417
20
102.690100
11
147.037778
21
102.164444
0
LINE
8
Layer 1
10
147.037778
20
102.164444
11
146.643345
21
101.898612
0
LINE
8
Layer 1
10
146.643345
20
101.898612
11
146.067196
21
101.717933
0
LINE
8
Layer 1
10
146.067196
20
101.717933
11
144.313492
21
101.613789
0
LINE
8
Layer 1
10
144.313492
20
101.613789
11
141.664152
21
101.855528
0
LINE
8
Layer 1
10
141.664152
20
101.855528
11
138.006667
21
102.446667
0
LINE
8
Layer 1
10
138.006667
20
102.446667
11
133.008926
21
103.239512
0
LINE
8
Layer 1
10
133.008926
20
103.239512
11
132.057931
21
103.225122
0
LINE
8
Layer 1
10
132.057931
20
103.225122
11
131.797778
21
102.965352
0
LINE
8
Layer 1
10
131.797778
20
102.965352
11
132.040952
21
102.274022
0
LINE
8
Layer 1
10
132.040952
20
102.274022
11
132.740148
21
101.037588
0
LINE
8
Layer 1
10
132.740148
20
101.037588
11
135.324636
21
97.225556
0
LINE
8
Layer 1
10
135.324636
20
97.225556
11
137.915791
21
93.526930
0
LINE
8
Layer 1
10
137.915791
20
93.526930
11
139.296868
21
91.198692
0
LINE
8
Layer 1
10
139.296868
20
91.198692
11
139.598855
21
90.410365
0
LINE
8
Layer 1
10
139.598855
20
90.410365
11
139.676596
21
89.798914
0
LINE
8
Layer 1
10
139.676596
20
89.798914
11
139.556181
21
89.309096
0
LINE
8
Layer 1
10
139.556181
20
89.309096
11
139.263701
21
88.885672
0
LINE
8
Layer 1
10
139.263701
20
88.885672
11
138.939345
21
88.493969
0
LINE
8
Layer 1
10
138.939345
20
88.493969
11
139.147418
21
88.048549
0
LINE
8
Layer 1
10
139.147418
20
88.048549
11
142.804444
21
85.359934
0
LINE
8
Layer 1
10
142.804444
20
85.359934
11
149.749550
21
80.291357
0
LINE
8
Layer 1
10
149.749550
20
80.291357
11
154.784984
21
76.261597
0
LINE
8
Layer 1
10
154.784984
20
76.261597
11
158.124846
21
73.086475
0
LINE
8
Layer 1
10
158.124846
20
73.086475
11
159.225844
21
71.761848
0
LINE
8
Layer 1
10
159.225844
20
71.761848
11
159.983235
21
70.581814
0
LINE
8
Layer 1
10
159.983235
20
70.581814
11
160.740855
21
68.611699
0
LINE
8
Layer 1
10
160.740855
20
68.611699
11
160.845704
21
67.745051
0
LINE
8
Layer 1
10
160.845704
20
67.745051
11
160.770158
21
66.967274
0
LINE
8
Layer 1
10
160.770158
20
66.967274
11
160.515899
21
66.285816
0
LINE
8
Layer 1
10
160.515899
20
66.285816
11
160.084612
21
65.708126
0
LINE
8
Layer 1
10
160.084612
20
65.708126
11
159.477979
21
65.241653
0
LINE
8
Layer 1
10
159.477979
20
65.241653
11
158.697684
21
64.893845
0
LINE
8
Layer 1
10
158.697684
20
64.893845
11
156.998722
21
64.670583
0
LINE
8
Layer 1
10
156.998722
20
64.670583
11
154.439866
21
64.732383
0
LINE
8
Layer 1
10
154.439866
20
64.732383
11
151.420360
21
65.051951
0
LINE
8
Layer 1
10
151.420360
20
65.051951
11
148.339449
21
65.601994
0
LINE
8
Layer 1
10
148.339449
20
65.601994
11
145.101763
21
66.172260
0
LINE
8
Layer 1
10
145.101763
20
66.172260
11
142.198564
21
66.261110
0
LINE
8
Layer 1
10
142.198564
20
66.261110
11
139.412675
21
66.181111
0
LINE
8
Layer 1
10
139.412675
20
66.181111
11
140.693831
21
64.628889
0
LINE
8
Layer 1
10
140.693831
20
64.628889
11
141.903276
21
62.989684
0
LINE
8
Layer 1
10
141.903276
20
62.989684
11
142.785568
21
61.393810
0
LINE
8
Layer 1
10
142.785568
20
61.393810
11
143.348835
21
59.823468
0
LINE
8
Layer 1
10
143.348835
20
59.823468
11
143.601206
21
58.260855
0
LINE
8
Layer 1
10
143.601206
20
58.260855
11
143.564902
21
56.640975
0
LINE
8
Layer 1
10
143.564902
20
56.640975
11
143.322606
21
56.133798
0
LINE
8
Layer 1
10
143.322606
20
56.133798
11
142.858476
21
55.565726
0
LINE
8
Layer 1
10
142.858476
20
55.565726
11
142.320993
21
55.014708
0
LINE
8
Layer 1
10
142.320993
20
55.014708
11
141.755663
21
54.719996
0
LINE
8
Layer 1
10
141.755663
20
54.719996
11
139.202010
21
54.514338
0
LINE
8
Layer 1
10
139.202010
20
54.514338
11
136.894773
21
54.540278
0
LINE
8
Layer 1
10
136.894773
20
54.540278
11
134.456601
21
54.801190
0
LINE
8
Layer 1
10
134.456601
20
54.801190
11
131.644036
21
55.333869
0
LINE
8
Layer 1
10
131.644036
20
55.333869
11
128.213620
21
56.175111
0
LINE
8
Layer 1
10
128.213620
20
56.175111
11
124.892757
21
57.008889
0
LINE
8
Layer 1
10
124.892757
20
57.008889
11
125.411549
21
55.668333
0
LINE
8
Layer 1
10
125.411549
20
55.668333
11
126.065471
21
54.189092
0
LINE
8
Layer 1
10
126.065471
20
54.189092
11
126.566421
21
52.666500
0
LINE
8
Layer 1
10
126.566421
20
52.666500
11
126.887047
21
51.200061
0
LINE
8
Layer 1
10
126.887047
20
51.200061
11
127.000000
21
49.889280
0
LINE
8
Layer 1
10
127.000000
20
49.889280
11
126.858234
21
48.655724
0
LINE
8
Layer 1
10
126.858234
20
48.655724
11
126.307271
21
47.823840
0
LINE
8
Layer 1
10
126.307271
20
47.823840
11
125.685712
21
47.375792
0
LINE
8
Layer 1
10
125.685712
20
47.375792
11
124.897640
21
47.148202
0
LINE
8
Layer 1
10
124.897640
20
47.148202
11
123.895829
21
47.153757
0
LINE
8
Layer 1
10
123.895829
20
47.153757
11
122.633051
21
47.405144
0
LINE
8
Layer 1
10
122.633051
20
47.405144
11
119.135689
21
48.696168
0
LINE
8
Layer 1
10
119.135689
20
48.696168
11
114.027735
21
51.122775
0
LINE
8
Layer 1
10
114.027735
20
51.122775
11
108.414512
21
53.757477
0
LINE
8
Layer 1
10
108.414512
20
53.757477
11
107.355236
21
44.387149
0
LINE
8
Layer 1
10
107.355236
20
44.387149
11
106.406792
21
35.066111
0
LINE
8
Layer 1
10
106.406792
20
35.066111
11
90.299476
21
34.998435
0
LINE
8
Layer 1
10
90.299476
20
34.998435
11
74.122413
21
35.214546
0
LINE
8
Layer 1
10
74.122413
20
35.214546
11
74.122413
21
35.214546
0
LINE
8
Layer 1
10
106.205409
20
40.287222
11
107.159699
21
49.773871
0
LINE
8
Layer 1
10
107.159699
20
49.773871
11
107.599686
21
53.452395
0
LINE
8
Layer 1
10
107.599686
20
53.452395
11
107.961300
21
54.935611
0
LINE
8
Layer 1
10
107.961300
20
54.935611
11
109.336788
21
54.395241
0
LINE
8
Layer 1
10
109.336788
20
54.395241
11
112.204348
21
52.927417
0
LINE
8
Layer 1
10
112.204348
20
52.927417
11
117.378918
21
50.317454
0
LINE
8
Layer 1
10
117.378918
20
50.317454
11
121.475589
21
48.655336
0
LINE
8
Layer 1
10
121.475589
20
48.655336
11
123.073708
21
48.195084
0
LINE
8
Layer 1
10
123.073708
20
48.195084
11
124.347146
21
47.990230
0
LINE
8
Layer 1
10
124.347146
20
47.990230
11
125.277502
21
48.046921
0
LINE
8
Layer 1
10
125.277502
20
48.046921
11
125.846374
21
48.371303
0
LINE
8
Layer 1
10
125.846374
20
48.371303
11
126.068487
21
48.807884
0
LINE
8
Layer 1
10
126.068487
20
48.807884
11
126.179285
21
49.423446
0
LINE
8
Layer 1
10
126.179285
20
49.423446
11
126.086635
21
51.066485
0
LINE
8
Layer 1
10
126.086635
20
51.066485
11
125.607823
21
53.050365
0
LINE
8
Layer 1
10
125.607823
20
53.050365
11
124.782247
21
55.125033
0
LINE
8
Layer 1
10
124.782247
20
55.125033
11
123.716088
21
57.535041
0
LINE
8
Layer 1
10
123.716088
20
57.535041
11
123.641798
21
58.005900
0
LINE
8
Layer 1
10
123.641798
20
58.005900
11
123.825595
21
58.137778
0
LINE
8
Layer 1
10
123.825595
20
58.137778
11
126.968129
21
57.300221
0
LINE
8
Layer 1
10
126.968129
20
57.300221
11
132.766196
21
55.855376
0
LINE
8
Layer 1
10
132.766196
20
55.855376
11
137.308960
21
55.186248
0
LINE
8
Layer 1
10
137.308960
20
55.186248
11
139.092280
21
55.143821
0
LINE
8
Layer 1
10
139.092280
20
55.143821
11
140.540988
21
55.296818
0
LINE
8
Layer 1
10
140.540988
20
55.296818
11
141.648154
21
55.645734
0
LINE
8
Layer 1
10
141.648154
20
55.645734
11
142.406850
21
56.191068
0
LINE
8
Layer 1
10
142.406850
20
56.191068
11
142.789998
21
56.832748
0
LINE
8
Layer 1
10
142.789998
20
56.832748
11
142.947256
21
57.639291
0
LINE
8
Layer 1
10
142.947256
20
57.639291
11
142.886457
21
58.587272
0
LINE
8
Layer 1
10
142.886457
20
58.587272
11
142.615432
21
59.653267
0
LINE
8
Layer 1
10
142.615432
20
59.653267
11
141.474032
21
62.045599
0
LINE
8
Layer 1
10
141.474032
20
62.045599
11
139.585711
21
64.628889
0
LINE
8
Layer 1
10
139.585711
20
64.628889
11
138.474885
21
66.028094
0
LINE
8
Layer 1
10
138.474885
20
66.028094
11
138.010575
21
66.816111
0
LINE
8
Layer 1
10
138.010575
20
66.816111
11
138.172282
21
66.981021
0
LINE
8
Layer 1
10
138.172282
20
66.981021
11
138.708233
21
67.086486
0
LINE
8
Layer 1
10
138.708233
20
67.086486
11
141.181667
21
67.148287
0
LINE
8
Layer 1
10
141.181667
20
67.148287
11
145.316198
21
66.944317
0
LINE
8
Layer 1
10
145.316198
20
66.944317
11
150.142222
21
66.047832
0
LINE
8
Layer 1
10
150.142222
20
66.047832
11
152.907654
21
65.577987
0
LINE
8
Layer 1
10
152.907654
20
65.577987
11
155.415379
21
65.385324
0
LINE
8
Layer 1
10
155.415379
20
65.385324
11
157.459140
21
65.474533
0
LINE
8
Layer 1
10
157.459140
20
65.474533
11
158.832680
21
65.850302
0
LINE
8
Layer 1
10
158.832680
20
65.850302
11
159.599963
21
66.426555
0
LINE
8
Layer 1
10
159.599963
20
66.426555
11
160.032921
21
67.149825
0
LINE
8
Layer 1
10
160.032921
20
67.149825
11
160.132524
21
68.017483
0
LINE
8
Layer 1
10
160.132524
20
68.017483
11
159.899744
21
69.026899
0
LINE
8
Layer 1
10
159.899744
20
69.026899
11
159.335552
21
70.175443
0
LINE
8
Layer 1
10
159.335552
20
70.175443
11
158.440919
21
71.460484
0
LINE
8
Layer 1
10
158.440919
20
71.460484
11
157.216815
21
72.879395
0
LINE
8
Layer 1
10
157.216815
20
72.879395
11
155.664213
21
74.429544
0
LINE
8
Layer 1
10
155.664213
20
74.429544
11
153.234305
21
76.512729
0
LINE
8
Layer 1
10
153.234305
20
76.512729
11
149.612642
21
79.360456
0
LINE
8
Layer 1
10
149.612642
20
79.360456
11
140.476111
21
86.061327
0
LINE
8
Layer 1
10
140.476111
20
86.061327
11
138.481200
21
87.531586
0
LINE
8
Layer 1
10
138.481200
20
87.531586
11
137.421468
21
88.495214
0
LINE
8
Layer 1
10
137.421468
20
88.495214
11
137.224080
21
88.808889
0
LINE
8
Layer 1
10
137.224080
20
88.808889
11
137.238632
21
89.022122
0
LINE
8
Layer 1
10
137.238632
20
89.022122
11
137.874412
21
89.182222
0
LINE
8
Layer 1
10
137.874412
20
89.182222
11
138.423794
21
89.249492
0
LINE
8
Layer 1
10
138.423794
20
89.249492
11
138.747827
21
89.473061
0
LINE
8
Layer 1
10
138.747827
20
89.473061
11
138.833793
21
89.885568
0
LINE
8
Layer 1
10
138.833793
20
89.885568
11
138.668976
21
90.519655
0
LINE
8
Layer 1
10
138.668976
20
90.519655
11
137.536123
21
92.583123
0
LINE
8
Layer 1
10
137.536123
20
92.583123
11
135.247535
21
95.924584
0
LINE
8
Layer 1
10
135.247535
20
95.924584
11
131.950712
21
100.853233
0
LINE
8
Layer 1
10
131.950712
20
100.853233
11
131.191698
21
102.324713
0
LINE
8
Layer 1
10
131.191698
20
102.324713
11
130.951111
21
103.261527
0
LINE
8
Layer 1
10
130.951111
20
103.261527
11
131.010626
21
103.550646
0
LINE
8
Layer 1
10
131.010626
20
103.550646
11
131.197999
21
103.766807
0
LINE
8
Layer 1
10
131.197999
20
103.766807
11
132.009294
21
103.983784
0
LINE
8
Layer 1
10
132.009294
20
103.983784
11
133.490942
21
103.919514
0
LINE
8
Layer 1
10
133.490942
20
103.919514
11
135.748889
21
103.581053
0
LINE
8
Layer 1
10
135.748889
20
103.581053
11
143.386569
21
102.346164
0
LINE
8
Layer 1
10
143.386569
20
102.346164
11
144.996629
21
102.255937
0
LINE
8
Layer 1
10
144.996629
20
102.255937
11
145.876106
21
102.433086
0
LINE
8
Layer 1
10
145.876106
20
102.433086
11
146.595729
21
102.917583
0
LINE
8
Layer 1
10
146.595729
20
102.917583
11
146.733216
21
103.226348
0
LINE
8
Layer 1
10
146.733216
20
103.226348
11
146.719034
21
103.594731
0
LINE
8
Layer 1
10
146.719034
20
103.594731
11
146.225304
21
104.556176
0
LINE
8
Layer 1
10
146.225304
20
104.556176
11
145.093823
21
105.893562
0
LINE
8
Layer 1
10
145.093823
20
105.893562
11
143.735458
21
107.205075
0
LINE
8
Layer 1
10
143.735458
20
107.205075
11
141.620277
21
108.911053
0
LINE
8
Layer 1
10
141.620277
20
108.911053
11
132.439644
21
115.551757
0
LINE
8
Layer 1
10
132.439644
20
115.551757
11
128.887158
21
118.231358
0
LINE
8
Layer 1
10
128.887158
20
118.231358
11
127.909074
21
119.149187
0
LINE
8
Layer 1
10
127.909074
20
119.149187
11
127.289089
21
119.933745
0
LINE
8
Layer 1
10
127.289089
20
119.933745
11
126.590172
21
121.114089
0
LINE
8
Layer 1
10
126.590172
20
121.114089
11
126.474147
21
121.478290
0
LINE
8
Layer 1
10
126.474147
20
121.478290
11
126.536298
21
121.718398
0
LINE
8
Layer 1
10
126.536298
20
121.718398
11
127.262797
21
121.906004
0
LINE
8
Layer 1
10
127.262797
20
121.906004
11
128.905000
21
121.836239
0
LINE
8
Layer 1
10
128.905000
20
121.836239
11
131.427286
21
121.487911
0
LINE
8
Layer 1
10
131.427286
20
121.487911
11
134.055556
21
120.776517
0
LINE
8
Layer 1
10
134.055556
20
120.776517
11
136.593838
21
120.086166
0
LINE
8
Layer 1
10
136.593838
20
120.086166
11
138.889613
21
119.738888
0
LINE
8
Layer 1
10
138.889613
20
119.738888
11
140.787117
21
119.715937
0
LINE
8
Layer 1
10
140.787117
20
119.715937
11
141.256239
21
119.877173
0
LINE
8
Layer 1
10
141.256239
20
119.877173
11
141.641280
21
120.192391
0
LINE
8
Layer 1
10
141.641280
20
120.192391
11
142.077949
21
120.780699
0
LINE
8
Layer 1
10
142.077949
20
120.780699
11
142.198581
21
121.448798
0
LINE
8
Layer 1
10
142.198581
20
121.448798
11
141.996216
21
122.328545
0
LINE
8
Layer 1
10
141.996216
20
122.328545
11
141.463889
21
123.551798
0
LINE
8
Layer 1
10
141.463889
20
123.551798
11
140.155779
21
125.510864
0
LINE
8
Layer 1
10
140.155779
20
125.510864
11
137.626868
21
128.311765
0
LINE
8
Layer 1
10
137.626868
20
128.311765
11
133.576883
21
132.262661
0
LINE
8
Layer 1
10
133.576883
20
132.262661
11
127.705556
21
137.671714
0
LINE
8
Layer 1
10
127.705556
20
137.671714
11
118.609124
21
146.046404
0
LINE
8
Layer 1
10
118.609124
20
146.046404
11
116.793456
21
147.881947
0
LINE
8
Layer 1
10
116.793456
20
147.881947
11
116.275556
21
148.652986
0
LINE
8
Layer 1
10
116.275556
20
148.652986
11
116.320851
21
148.911646
0
LINE
8
Layer 1
10
116.320851
20
148.911646
11
116.689432
21
148.948684
0
LINE
8
Layer 1
10
116.689432
20
148.948684
11
119.792615
21
148.163641
0
LINE
8
Layer 1
10
119.792615
20
148.163641
11
122.111395
21
147.626050
0
LINE
8
Layer 1
10
122.111395
20
147.626050
11
123.144509
21
147.584953
0
LINE
8
Layer 1
10
123.144509
20
147.584953
11
123.300119
21
148.080766
0
LINE
8
Layer 1
10
123.300119
20
148.080766
11
123.021609
21
148.937879
0
LINE
8
Layer 1
10
123.021609
20
148.937879
11
120.939193
21
152.203060
0
LINE
8
Layer 1
10
120.939193
20
152.203060
11
118.500506
21
155.939082
0
LINE
8
Layer 1
10
118.500506
20
155.939082
11
118.068074
21
156.965973
0
LINE
8
Layer 1
10
118.068074
20
156.965973
11
118.066278
21
157.608939
0
LINE
8
Layer 1
10
118.066278
20
157.608939
11
118.357895
21
157.901804
0
LINE
8
Layer 1
10
118.357895
20
157.901804
11
119.197336
21
157.893812
0
LINE
8
Layer 1
10
119.197336
20
157.893812
11
124.253856
21
156.728504
0
LINE
8
Layer 1
10
124.253856
20
156.728504
11
126.990783
21
156.100348
0
LINE
8
Layer 1
10
126.990783
20
156.100348
11
128.746266
21
155.865729
0
LINE
8
Layer 1
10
128.746266
20
155.865729
11
129.705204
21
156.019117
0
LINE
8
Layer 1
10
129.705204
20
156.019117
11
129.943750
21
156.239584
0
LINE
8
Layer 1
10
129.943750
20
156.239584
11
130.052496
21
156.554977
0
LINE
8
Layer 1
10
130.052496
20
156.554977
11
129.996728
21
156.965951
0
LINE
8
Layer 1
10
129.996728
20
156.965951
11
129.722732
21
157.488864
0
LINE
8
Layer 1
10
129.722732
20
157.488864
11
128.489728
21
158.900211
0
LINE
8
Layer 1
10
128.489728
20
158.900211
11
126.292831
21
160.848430
0
LINE
8
Layer 1
10
126.292831
20
160.848430
11
123.071385
21
163.392931
0
LINE
8
Layer 1
10
123.071385
20
163.392931
11
115.998917
21
169.023318
0
LINE
8
Layer 1
10
115.998917
20
169.023318
11
110.438966
21
174.060881
0
LINE
8
Layer 1
10
110.438966
20
174.060881
11
108.047651
21
176.533563
0
LINE
8
Layer 1
10
108.047651
20
176.533563
11
105.820226
21
179.069490
0
LINE
8
Layer 1
10
105.820226
20
179.069490
11
101.571388
21
184.613014
0
LINE
8
Layer 1
10
101.571388
20
184.613014
11
100.260480
21
186.606388
0
LINE
8
Layer 1
10
100.260480
20
186.606388
11
99.373710
21
188.385860
0
LINE
8
Layer 1
10
99.373710
20
188.385860
11
98.778605
21
190.279822
0
LINE
8
Layer 1
10
98.778605
20
190.279822
11
98.342690
21
192.616667
0
LINE
8
Layer 1
10
98.342690
20
192.616667
11
98.173221
21
193.745556
0
LINE
8
Layer 1
10
98.173221
20
193.745556
11
102.876220
21
196.285556
0
LINE
8
Layer 1
10
102.876220
20
196.285556
11
107.579222
21
198.825556
0
LINE
8
Layer 1
10
107.579222
20
198.825556
11
104.377944
21
199.044024
0
LINE
8
Layer 1
10
104.377944
20
199.044024
11
99.068235
21
199.467357
0
LINE
8
Layer 1
10
99.068235
20
199.467357
11
96.959804
21
199.672222
0
LINE
8
Layer 1
10
96.959804
20
199.672222
11
94.552228
21
205.794990
0
LINE
8
Layer 1
10
94.552228
20
205.794990
11
92.144652
21
211.917757
0
LINE
8
Layer 1
10
92.144652
20
211.917757
11
90.490201
21
206.314028
0
LINE
8
Layer 1
10
90.490201
20
206.314028
11
88.835749
21
200.710298
0
LINE
8
Layer 1
10
88.835749
20
200.710298
11
84.563986
21
199.656982
0
LINE
8
Layer 1
10
84.563986
20
199.656982
11
80.034401
21
198.457764
0
LINE
8
Layer 1
10
80.034401
20
198.457764
11
80.819254
21
197.869899
0
LINE
8
Layer 1
10
80.819254
20
197.869899
11
83.068290
21
196.661411
0
LINE
8
Layer 1
10
83.068290
20
196.661411
11
85.392982
21
195.392826
0
LINE
8
Layer 1
10
85.392982
20
195.392826
11
86.359738
21
194.660480
0
LINE
8
Layer 1
10
86.359738
20
194.660480
11
83.276728
21
189.174580
0
LINE
8
Layer 1
10
83.276728
20
189.174580
11
80.990690
21
185.197813
0
LINE
8
Layer 1
10
80.990690
20
185.197813
11
80.668163
21
184.419522
0
LINE
8
Layer 1
10
80.668163
20
184.419522
11
80.684104
21
184.277551
0
LINE
8
Layer 1
10
80.684104
20
184.277551
11
80.807546
21
184.279278
0
LINE
8
Layer 1
10
80.807546
20
184.279278
11
82.973333
21
185.249165
0
LINE
8
Layer 1
10
82.973333
20
185.249165
11
84.869765
21
185.943014
0
LINE
8
Layer 1
10
84.869765
20
185.943014
11
85.351370
21
185.925217
0
LINE
8
Layer 1
10
85.351370
20
185.925217
11
85.513333
21
185.662878
0
LINE
8
Layer 1
10
85.513333
20
185.662878
11
85.035692
21
184.828602
0
LINE
8
Layer 1
10
85.035692
20
184.828602
11
83.793068
21
183.222983
0
LINE
8
Layer 1
10
83.793068
20
183.222983
11
80.154684
21
179.096800
0
LINE
8
Layer 1
10
80.154684
20
179.096800
11
77.251248
21
176.197944
0
LINE
8
Layer 1
10
77.251248
20
176.197944
11
73.467269
21
172.692666
0
LINE
8
Layer 1
10
73.467269
20
172.692666
11
62.952359
21
163.587574
0
LINE
8
Layer 1
10
62.952359
20
163.587574
11
57.434441
21
158.881023
0
LINE
8
Layer 1
10
57.434441
20
158.881023
11
53.782295
21
155.601260
0
LINE
8
Layer 1
10
53.782295
20
155.601260
11
51.610613
21
153.384640
0
LINE
8
Layer 1
10
51.610613
20
153.384640
11
50.534085
21
151.867517
0
LINE
8
Layer 1
10
50.534085
20
151.867517
11
50.115657
21
150.669820
0
LINE
8
Layer 1
10
50.115657
20
150.669820
11
50.250568
21
149.764878
0
LINE
8
Layer 1
10
50.250568
20
149.764878
11
50.953355
21
149.125900
0
LINE
8
Layer 1
10
50.953355
20
149.125900
11
52.238554
21
148.726093
0
LINE
8
Layer 1
10
52.238554
20
148.726093
11
53.728171
21
148.643871
0
LINE
8
Layer 1
10
53.728171
20
148.643871
11
55.772831
21
148.799266
0
LINE
8
Layer 1
10
55.772831
20
148.799266
11
58.167001
21
149.168008
0
LINE
8
Layer 1
10
58.167001
20
149.168008
11
60.705148
21
149.725826
0
LINE
8
Layer 1
10
60.705148
20
149.725826
11
64.045033
21
150.424444
0
LINE
8
Layer 1
10
64.045033
20
150.424444
11
64.516676
21
150.306510
0
LINE
8
Layer 1
10
64.516676
20
150.306510
11
64.580885
21
149.978925
0
LINE
8
Layer 1
10
64.580885
20
149.978925
11
64.250347
21
149.481013
0
LINE
8
Layer 1
10
64.250347
20
149.481013
11
63.537750
21
148.852103
0
LINE
8
Layer 1
10
63.537750
20
148.852103
11
59.798306
21
145.883909
0
LINE
8
Layer 1
10
59.798306
20
145.883909
11
51.505556
21
139.678450
0
LINE
8
Layer 1
10
51.505556
20
139.678450
11
47.234233
21
136.479691
0
LINE
8
Layer 1
10
47.234233
20
136.479691
11
44.090892
21
133.855219
0
LINE
8
Layer 1
10
44.090892
20
133.855219
11
42.150161
21
131.872657
0
LINE
8
Layer 1
10
42.150161
20
131.872657
11
41.654095
21
131.143226
0
LINE
8
Layer 1
10
41.654095
20
131.143226
11
41.486667
21
130.599632
0
LINE
8
Layer 1
10
41.486667
20
130.599632
11
41.550552
21
130.086904
0
LINE
8
Layer 1
10
41.550552
20
130.086904
11
41.767567
21
129.704901
0
LINE
8
Layer 1
10
41.767567
20
129.704901
11
42.175753
21
129.450125
0
LINE
8
Layer 1
10
42.175753
20
129.450125
11
42.813151
21
129.319075
0
LINE
8
Layer 1
10
42.813151
20
129.319075
11
44.927746
21
129.414152
0
LINE
8
Layer 1
10
44.927746
20
129.414152
11
48.415677
21
129.962134
0
LINE
8
Layer 1
10
48.415677
20
129.962134
11
51.672553
21
130.459937
0
LINE
8
Layer 1
10
51.672553
20
130.459937
11
53.975000
21
130.667689
0
LINE
8
Layer 1
10
53.975000
20
130.667689
11
55.354792
21
130.569358
0
LINE
8
Layer 1
10
55.354792
20
130.569358
11
55.557370
21
130.370473
0
LINE
8
Layer 1
10
55.557370
20
130.370473
11
55.597778
21
130.005368
0
LINE
8
Layer 1
10
55.597778
20
130.005368
11
55.383370
21
129.097417
0
LINE
8
Layer 1
10
55.383370
20
129.097417
11
54.720586
21
127.738930
0
LINE
8
Layer 1
10
54.720586
20
127.738930
11
51.932518
21
123.460775
0
LINE
8
Layer 1
10
51.932518
20
123.460775
11
48.927918
21
118.888318
0
LINE
8
Layer 1
10
48.927918
20
118.888318
11
48.320413
21
117.596681
0
LINE
8
Layer 1
10
48.320413
20
117.596681
11
48.344348
21
117.271474
0
LINE
8
Layer 1
10
48.344348
20
117.271474
11
48.553822
21
116.993247
0
LINE
8
Layer 1
10
48.553822
20
116.993247
11
48.848949
21
116.773627
0
LINE
8
Layer 1
10
48.848949
20
116.773627
11
49.257573
21
116.714649
0
LINE
8
Layer 1
10
49.257573
20
116.714649
11
51.093822
21
117.109731
0
LINE
8
Layer 1
10
51.093822
20
117.109731
11
55.294431
21
118.381252
0
LINE
8
Layer 1
10
55.294431
20
118.381252
11
57.611866
21
119.056162
0
LINE
8
Layer 1
10
57.611866
20
119.056162
11
58.029416
21
119.005602
0
LINE
8
Layer 1
10
58.029416
20
119.005602
11
58.137778
21
118.718285
0
LINE
8
Layer 1
10
58.137778
20
118.718285
11
55.797038
21
116.509901
0
LINE
8
Layer 1
10
55.797038
20
116.509901
11
50.169301
21
111.733285
0
LINE
8
Layer 1
10
50.169301
20
111.733285
11
42.801142
21
105.465662
0
LINE
8
Layer 1
10
42.801142
20
105.465662
11
38.140418
21
101.049407
0
LINE
8
Layer 1
10
38.140418
20
101.049407
11
36.673335
21
99.375095
0
LINE
8
Layer 1
10
36.673335
20
99.375095
11
35.700699
21
97.971087
0
LINE
8
Layer 1
10
35.700699
20
97.971087
11
35.161708
21
96.773206
0
LINE
8
Layer 1
10
35.161708
20
96.773206
11
34.995556
21
95.717273
0
LINE
8
Layer 1
10
34.995556
20
95.717273
11
35.139296
21
94.990369
0
LINE
8
Layer 1
10
35.139296
20
94.990369
11
35.571258
21
94.449767
0
LINE
8
Layer 1
10
35.571258
20
94.449767
11
36.292550
21
94.095397
0
LINE
8
Layer 1
10
36.292550
20
94.095397
11
37.304281
21
93.927185
0
LINE
8
Layer 1
10
37.304281
20
93.927185
11
38.607559
21
93.945059
0
LINE
8
Layer 1
10
38.607559
20
93.945059
11
40.203495
21
94.148948
0
LINE
8
Layer 1
10
40.203495
20
94.148948
11
44.277771
21
95.114483
0
LINE
8
Layer 1
10
44.277771
20
95.114483
11
46.470044
21
95.663111
0
LINE
8
Layer 1
10
46.470044
20
95.663111
11
48.174053
21
95.927238
0
LINE
8
Layer 1
10
48.174053
20
95.927238
11
49.278256
21
95.897552
0
LINE
8
Layer 1
10
49.278256
20
95.897552
11
49.570574
21
95.769619
0
LINE
8
Layer 1
10
49.570574
20
95.769619
11
49.671111
21
95.564740
0
LINE
8
Layer 1
10
49.671111
20
95.564740
11
49.344328
21
95.063921
0
LINE
8
Layer 1
10
49.344328
20
95.063921
11
48.389441
21
94.082719
0
LINE
8
Layer 1
10
48.389441
20
94.082719
11
44.748138
21
90.811196
0
LINE
8
Layer 1
10
44.748138
20
90.811196
11
31.608889
21
79.955878
0
LINE
8
Layer 1
10
31.608889
20
79.955878
11
26.000352
21
75.271382
0
LINE
8
Layer 1
10
26.000352
20
75.271382
11
22.338025
21
71.768621
0
LINE
8
Layer 1
10
22.338025
20
71.768621
11
21.195156
21
70.415418
0
LINE
8
Layer 1
10
21.195156
20
70.415418
11
20.488998
21
69.303682
0
LINE
8
Layer 1
10
20.488998
20
69.303682
11
20.202939
21
68.415423
0
LINE
8
Layer 1
10
20.202939
20
68.415423
11
20.320364
21
67.732653
0
LINE
8
Layer 1
10
20.320364
20
67.732653
11
20.653894
21
67.318810
0
LINE
8
Layer 1
10
20.653894
20
67.318810
11
21.172145
21
67.045100
0
LINE
8
Layer 1
10
21.172145
20
67.045100
11
21.926399
21
66.915533
0
LINE
8
Layer 1
10
21.926399
20
66.915533
11
22.967941
21
66.934119
0
LINE
8
Layer 1
10
22.967941
20
66.934119
11
26.118026
21
67.431787
0
LINE
8
Layer 1
10
26.118026
20
67.431787
11
31.032673
21
68.570181
0
LINE
8
Layer 1
10
31.032673
20
68.570181
11
35.566641
21
69.586382
0
LINE
8
Layer 1
10
35.566641
20
69.586382
11
38.281887
21
69.991111
0
LINE
8
Layer 1
10
38.281887
20
69.991111
11
39.793333
21
69.991111
0
LINE
8
Layer 1
10
39.793333
20
69.991111
11
39.793110
21
69.073889
0
LINE
8
Layer 1
10
39.793110
20
69.073889
11
39.558574
21
67.879789
0
LINE
8
Layer 1
10
39.558574
20
67.879789
11
38.792777
21
66.118482
0
LINE
8
Layer 1
10
38.792777
20
66.118482
11
35.291460
21
60.148891
0
LINE
8
Layer 1
10
35.291460
20
60.148891
11
31.973654
21
54.515383
0
LINE
8
Layer 1
10
31.973654
20
54.515383
11
31.252248
21
52.910858
0
LINE
8
Layer 1
10
31.252248
20
52.910858
11
31.096619
21
51.999436
0
LINE
8
Layer 1
10
31.096619
20
51.999436
11
31.352027
21
51.612792
0
LINE
8
Layer 1
10
31.352027
20
51.612792
11
31.969408
21
51.465597
0
LINE
8
Layer 1
10
31.969408
20
51.465597
11
33.009840
21
51.575962
0
LINE
8
Layer 1
10
33.009840
20
51.575962
11
34.534401
21
51.961998
0
LINE
8
Layer 1
10
34.534401
20
51.961998
11
39.280223
21
53.633536
0
LINE
8
Layer 1
10
39.280223
20
53.633536
11
46.695501
21
56.625106
0
LINE
8
Layer 1
10
46.695501
20
56.625106
11
52.888793
21
59.120071
0
LINE
8
Layer 1
10
52.888793
20
59.120071
11
54.119720
21
59.516568
0
LINE
8
Layer 1
10
54.119720
20
59.516568
11
54.468034
21
59.478333
0
LINE
8
Layer 1
10
54.468034
20
59.478333
11
53.905046
21
56.512494
0
LINE
8
Layer 1
10
53.905046
20
56.512494
11
53.273234
21
52.504563
0
LINE
8
Layer 1
10
53.273234
20
52.504563
11
53.136846
21
49.453534
0
LINE
8
Layer 1
10
53.136846
20
49.453534
11
53.255882
21
48.253436
0
LINE
8
Layer 1
10
53.255882
20
48.253436
11
53.500509
21
47.252458
0
LINE
8
Layer 1
10
53.500509
20
47.252458
11
53.871305
21
46.437231
0
LINE
8
Layer 1
10
53.871305
20
46.437231
11
54.368850
21
45.794385
0
LINE
8
Layer 1
10
54.368850
20
45.794385
11
55.170268
21
45.242022
0
LINE
8
Layer 1
10
55.170268
20
45.242022
11
56.296021
21
45.224471
0
LINE
8
Layer 1
10
56.296021
20
45.224471
11
57.960295
21
45.704281
0
LINE
8
Layer 1
10
57.960295
20
45.704281
11
59.924165
21
46.888133
0
LINE
8
Layer 1
10
59.924165
20
46.888133
11
62.397341
21
48.928409
0
LINE
8
Layer 1
10
62.397341
20
48.928409
11
65.589531
21
51.977490
0
LINE
8
Layer 1
10
65.589531
20
51.977490
11
68.861663
21
55.132276
0
LINE
8
Layer 1
10
68.861663
20
55.132276
11
70.425818
21
56.444444
0
LINE
8
Layer 1
10
70.425818
20
56.444444
11
70.731171
21
56.063809
0
LINE
8
Layer 1
10
70.731171
20
56.063809
11
70.973055
21
55.114980
0
LINE
8
Layer 1
10
70.973055
20
55.114980
11
71.736645
21
52.288192
0
LINE
8
Layer 1
10
71.736645
20
52.288192
11
72.290155
21
50.929078
0
LINE
8
Layer 1
10
72.290155
20
50.929078
11
72.844090
21
49.922656
0
LINE
8
Layer 1
10
72.844090
20
49.922656
11
73.121550
21
49.284338
0
LINE
8
Layer 1
10
73.121550
20
49.284338
11
73.374331
21
48.086814
0
LINE
8
Layer 1
10
73.374331
20
48.086814
11
73.946631
21
43.149322
0
LINE
8
Layer 1
10
73.946631
20
43.149322
11
74.666740
21
36.477222
0
LINE
8
Layer 1
10
74.666740
20
36.477222
11
74.799642
21
35.842222
0
LINE
8
Layer 1
10
74.799642
20
35.842222
11
90.269706
21
35.842222
0
LINE
8
Layer 1
10
90.269706
20
35.842222
11
105.739771
21
35.842222
0
LINE
8
Layer 1
10
105.739771
20
35.842222
11
106.205409
21
40.287222
0
LINE
8
Layer 1
10
106.205409
20
40.287222
11
106.205409
21
40.287222
0
LINE
8
Layer 1
10
75.223000
20
36.759444
11
74.665327
21
41.676439
0
LINE
8
Layer 1
10
74.665327
20
41.676439
11
74.224444
21
47.067351
0
LINE
8
Layer 1
10
74.224444
20
47.067351
11
74.247784
21
47.591638
0
LINE
8
Layer 1
10
74.247784
20
47.591638
11
74.405444
21
47.862149
0
LINE
8
Layer 1
10
74.405444
20
47.862149
11
75.649571
21
47.977778
0
LINE
8
Layer 1
10
75.649571
20
47.977778
11
76.891877
21
48.099720
0
LINE
8
Layer 1
10
76.891877
20
48.099720
11
77.877458
21
48.392901
0
LINE
8
Layer 1
10
77.877458
20
48.392901
11
79.151265
21
49.356004
0
LINE
8
Layer 1
10
79.151265
20
49.356004
11
80.531027
21
50.946394
0
LINE
8
Layer 1
10
80.531027
20
50.946394
11
81.949696
21
53.074966
0
LINE
8
Layer 1
10
81.949696
20
53.074966
11
83.340222
21
55.652616
0
LINE
8
Layer 1
10
83.340222
20
55.652616
11
84.755440
21
58.316395
0
LINE
8
Layer 1
10
84.755440
20
58.316395
11
85.233211
21
59.010082
0
LINE
8
Layer 1
10
85.233211
20
59.010082
11
85.541028
21
59.250950
0
LINE
8
Layer 1
10
85.541028
20
59.250950
11
86.015167
21
58.928205
0
LINE
8
Layer 1
10
86.015167
20
58.928205
11
86.526065
21
58.067222
0
LINE
8
Layer 1
10
86.526065
20
58.067222
11
87.528560
21
56.140181
0
LINE
8
Layer 1
10
87.528560
20
56.140181
11
88.789583
21
54.217366
0
LINE
8
Layer 1
10
88.789583
20
54.217366
11
90.231443
21
52.376667
0
LINE
8
Layer 1
10
90.231443
20
52.376667
11
91.776450
21
50.695976
0
LINE
8
Layer 1
10
91.776450
20
50.695976
11
93.346912
21
49.253184
0
LINE
8
Layer 1
10
93.346912
20
49.253184
11
94.865138
21
48.126182
0
LINE
8
Layer 1
10
94.865138
20
48.126182
11
96.253437
21
47.392861
0
LINE
8
Layer 1
10
96.253437
20
47.392861
11
97.434118
21
47.131111
0
LINE
8
Layer 1
10
97.434118
20
47.131111
11
98.241036
21
47.305129
0
LINE
8
Layer 1
10
98.241036
20
47.305129
11
99.018372
21
47.810265
0
LINE
8
Layer 1
10
99.018372
20
47.810265
11
99.752735
21
48.621145
0
LINE
8
Layer 1
10
99.752735
20
48.621145
11
100.430736
21
49.712393
0
LINE
8
Layer 1
10
100.430736
20
49.712393
11
101.038983
21
51.058635
0
LINE
8
Layer 1
10
101.038983
20
51.058635
11
101.564088
21
52.634495
0
LINE
8
Layer 1
10
101.564088
20
52.634495
11
102.311307
21
56.373573
0
LINE
8
Layer 1
10
102.311307
20
56.373573
11
102.518405
21
57.465608
0
LINE
8
Layer 1
10
102.518405
20
57.465608
11
102.751986
21
58.010941
0
LINE
8
Layer 1
10
102.751986
20
58.010941
11
103.492320
21
57.756527
0
LINE
8
Layer 1
10
103.492320
20
57.756527
11
104.912352
21
57.026658
0
LINE
8
Layer 1
10
104.912352
20
57.026658
11
106.333393
21
56.194481
0
LINE
8
Layer 1
10
106.333393
20
56.194481
11
107.076756
21
55.633146
0
LINE
8
Layer 1
10
107.076756
20
55.633146
11
106.231718
21
46.284444
0
LINE
8
Layer 1
10
106.231718
20
46.284444
11
105.275611
21
36.759444
0
LINE
8
Layer 1
10
105.275611
20
36.759444
11
104.590576
21
36.587167
0
LINE
8
Layer 1
10
104.590576
20
36.587167
11
102.205039
21
36.478917
0
LINE
8
Layer 1
10
102.205039
20
36.478917
11
90.302255
21
36.406667
0
LINE
8
Layer 1
10
90.302255
20
36.406667
11
78.398801
21
36.479416
0
LINE
8
Layer 1
10
78.398801
20
36.479416
11
75.967512
21
36.587729
0
LINE
8
Layer 1
10
75.967512
20
36.587729
11
75.223000
21
36.759444
0
LINE
8
Layer 1
10
75.223000
20
36.759444
11
75.223000
21
36.759444
0
LINE
8
Layer 1
10
105.310562
20
44.732222
11
106.230375
21
53.807320
0
LINE
8
Layer 1
10
106.230375
20
53.807320
11
106.396463
21
55.262416
0
LINE
8
Layer 1
10
106.396463
20
55.262416
11
104.849174
21
56.135654
0
LINE
8
Layer 1
10
104.849174
20
56.135654
11
103.156498
21
57.008889
0
LINE
8
Layer 1
10
103.156498
20
57.008889
11
103.006212
21
56.232778
0
LINE
8
Layer 1
10
103.006212
20
56.232778
11
102.609004
21
53.622222
0
LINE
8
Layer 1
10
102.609004
20
53.622222
11
101.781865
21
50.649339
0
LINE
8
Layer 1
10
101.781865
20
50.649339
11
100.735939
21
48.474023
0
LINE
8
Layer 1
10
100.735939
20
48.474023
11
100.126309
21
47.678346
0
LINE
8
Layer 1
10
100.126309
20
47.678346
11
99.456436
21
47.073532
0
LINE
8
Layer 1
10
99.456436
20
47.073532
11
98.724471
21
46.656740
0
LINE
8
Layer 1
10
98.724471
20
46.656740
11
97.928565
21
46.425127
0
LINE
8
Layer 1
10
97.928565
20
46.425127
11
96.704239
21
46.458572
0
LINE
8
Layer 1
10
96.704239
20
46.458572
11
95.330328
21
46.916130
0
LINE
8
Layer 1
10
95.330328
20
46.916130
11
93.851952
21
47.758618
0
LINE
8
Layer 1
10
93.851952
20
47.758618
11
92.314233
21
48.946853
0
LINE
8
Layer 1
10
92.314233
20
48.946853
11
90.762293
21
50.441652
0
LINE
8
Layer 1
10
90.762293
20
50.441652
11
89.241252
21
52.203831
0
LINE
8
Layer 1
10
89.241252
20
52.203831
11
87.796231
21
54.194208
0
LINE
8
Layer 1
10
87.796231
20
54.194208
11
86.472353
21
56.373601
0
LINE
8
Layer 1
10
86.472353
20
56.373601
11
85.481120
21
57.855268
0
LINE
8
Layer 1
10
85.481120
20
57.855268
11
84.829283
21
56.602585
0
LINE
8
Layer 1
10
84.829283
20
56.602585
11
82.943150
21
53.004252
0
LINE
8
Layer 1
10
82.943150
20
53.004252
11
81.186468
21
50.434620
0
LINE
8
Layer 1
10
81.186468
20
50.434620
11
79.441531
21
48.599279
0
LINE
8
Layer 1
10
79.441531
20
48.599279
11
78.573433
21
47.956939
0
LINE
8
Layer 1
10
78.573433
20
47.956939
11
77.708232
21
47.498138
0
LINE
8
Layer 1
10
77.708232
20
47.498138
11
76.845915
21
47.222866
0
LINE
8
Layer 1
10
76.845915
20
47.222866
11
75.986468
21
47.131111
0
LINE
8
Layer 1
10
75.986468
20
47.131111
11
74.903782
21
47.131111
0
LINE
8
Layer 1
10
74.903782
20
47.131111
11
75.393841
21
42.403889
0
LINE
8
Layer 1
10
75.393841
20
42.403889
11
75.900839
21
37.321304
0
LINE
8
Layer 1
10
75.900839
20
37.321304
11
76.549823
21
37.150171
0
LINE
8
Layer 1
10
76.549823
20
37.150171
11
78.816097
21
37.052772
0
LINE
8
Layer 1
10
78.816097
20
37.052772
11
90.237307
21
37.039082
0
LINE
8
Layer 1
10
90.237307
20
37.039082
11
104.556837
21
37.112222
0
LINE
8
Layer 1
10
104.556837
20
37.112222
11
105.310562
21
44.732222
0
LINE
8
Layer 1
10
105.310562
20
44.732222
11
105.310562
21
44.732222
0
LINE
8
Layer 1
10
54.958872
20
46.072778
11
54.474263
21
46.678449
0
LINE
8
Layer 1
10
54.474263
20
46.678449
11
54.135972
21
47.630407
0
LINE
8
Layer 1
10
54.135972
20
47.630407
11
53.943594
21
48.902029
0
LINE
8
Layer 1
10
53.943594
20
48.902029
11
53.896728
21
50.466688
0
LINE
8
Layer 1
10
53.896728
20
50.466688
11
54.237920
21
54.368627
0
LINE
8
Layer 1
10
54.237920
20
54.368627
11
55.156323
21
59.123227
0
LINE
8
Layer 1
10
55.156323
20
59.123227
11
55.448985
21
60.920644
0
LINE
8
Layer 1
10
55.448985
20
60.920644
11
50.884066
21
59.114487
0
LINE
8
Layer 1
10
50.884066
20
59.114487
11
43.805028
21
56.158024
0
LINE
8
Layer 1
10
43.805028
20
56.158024
11
37.865036
21
53.827648
0
LINE
8
Layer 1
10
37.865036
20
53.827648
11
33.711210
21
52.366439
0
LINE
8
Layer 1
10
33.711210
20
52.366439
11
32.506334
21
52.037735
0
LINE
8
Layer 1
10
32.506334
20
52.037735
11
31.990671
21
52.017478
0
LINE
8
Layer 1
10
31.990671
20
52.017478
11
31.900431
21
52.258340
0
LINE
8
Layer 1
10
31.900431
20
52.258340
11
31.951398
21
52.667525
0
LINE
8
Layer 1
10
31.951398
20
52.667525
11
32.493228
21
54.024304
0
LINE
8
Layer 1
10
32.493228
20
54.024304
11
35.450396
21
59.125556
0
LINE
8
Layer 1
10
35.450396
20
59.125556
11
39.315062
21
65.755241
0
LINE
8
Layer 1
10
39.315062
20
65.755241
11
40.305323
21
67.893357
0
LINE
8
Layer 1
10
40.305323
20
67.893357
11
40.640000
21
69.193565
0
LINE
8
Layer 1
10
40.640000
20
69.193565
11
40.462898
21
69.900019
0
LINE
8
Layer 1
10
40.462898
20
69.900019
11
39.924248
21
70.447078
0
LINE
8
Layer 1
10
39.924248
20
70.447078
11
38.965474
21
70.763005
0
LINE
8
Layer 1
10
38.965474
20
70.763005
11
37.373562
21
70.705627
0
LINE
8
Layer 1
10
37.373562
20
70.705627
11
34.835168
21
70.234877
0
LINE
8
Layer 1
10
34.835168
20
70.234877
11
31.036946
21
69.310687
0
LINE
8
Layer 1
10
31.036946
20
69.310687
11
25.145417
21
67.919933
0
LINE
8
Layer 1
10
25.145417
20
67.919933
11
23.227237
21
67.607900
0
LINE
8
Layer 1
10
23.227237
20
67.607900
11
21.921666
21
67.557231
0
LINE
8
Layer 1
10
21.921666
20
67.557231
11
21.174367
21
67.772276
0
LINE
8
Layer 1
10
21.174367
20
67.772276
11
20.931005
21
68.257388
0
LINE
8
Layer 1
10
20.931005
20
68.257388
11
21.137242
21
69.016915
0
LINE
8
Layer 1
10
21.137242
20
69.016915
11
21.738744
21
70.055209
0
LINE
8
Layer 1
10
21.738744
20
70.055209
11
23.040872
21
71.666186
0
LINE
8
Layer 1
10
23.040872
20
71.666186
11
25.200424
21
73.768686
0
LINE
8
Layer 1
10
25.200424
20
73.768686
11
33.020000
21
80.290382
0
LINE
8
Layer 1
10
33.020000
20
80.290382
11
42.431468
21
88.007691
0
LINE
8
Layer 1
10
42.431468
20
88.007691
11
49.319084
21
94.072896
0
LINE
8
Layer 1
10
49.319084
20
94.072896
11
50.763146
21
95.353949
0
LINE
8
Layer 1
10
50.763146
20
95.353949
11
51.748951
21
96.058121
0
LINE
8
Layer 1
10
51.748951
20
96.058121
11
52.313385
21
96.205678
0
LINE
8
Layer 1
10
52.313385
20
96.205678
11
52.493333
21
95.816886
0
LINE
8
Layer 1
10
52.493333
20
95.816886
11
52.190573
21
95.125126
0
LINE
8
Layer 1
10
52.190573
20
95.125126
11
51.462661
21
94.052997
0
LINE
8
Layer 1
10
51.462661
20
94.052997
11
50.165791
21
92.016167
0
LINE
8
Layer 1
10
50.165791
20
92.016167
11
49.426179
21
90.088225
0
LINE
8
Layer 1
10
49.426179
20
90.088225
11
49.285495
21
88.438523
0
LINE
8
Layer 1
10
49.285495
20
88.438523
11
49.452773
21
87.770936
0
LINE
8
Layer 1
10
49.452773
20
87.770936
11
49.785408
21
87.236416
0
LINE
8
Layer 1
10
49.785408
20
87.236416
11
50.372331
21
86.867916
0
LINE
8
Layer 1
10
50.372331
20
86.867916
11
51.285597
21
86.672542
0
LINE
8
Layer 1
10
51.285597
20
86.672542
11
52.493158
21
86.645892
0
LINE
8
Layer 1
10
52.493158
20
86.645892
11
53.962968
21
86.783565
0
LINE
8
Layer 1
10
53.962968
20
86.783565
11
57.561146
21
87.534283
0
LINE
8
Layer 1
10
57.561146
20
87.534283
11
61.823758
21
88.889490
0
LINE
8
Layer 1
10
61.823758
20
88.889490
11
64.433585
21
89.746667
0
LINE
8
Layer 1
10
64.433585
20
89.746667
11
64.578058
21
89.601113
0
LINE
8
Layer 1
10
64.578058
20
89.601113
11
64.515985
21
89.088061
0
LINE
8
Layer 1
10
64.515985
20
89.088061
11
63.663438
21
86.501111
0
LINE
8
Layer 1
10
63.663438
20
86.501111
11
63.053348
21
84.358362
0
LINE
8
Layer 1
10
63.053348
20
84.358362
11
62.981955
21
82.812958
0
LINE
8
Layer 1
10
62.981955
20
82.812958
11
63.147675
21
82.268013
0
LINE
8
Layer 1
10
63.147675
20
82.268013
11
63.447353
21
81.876908
0
LINE
8
Layer 1
10
63.447353
20
81.876908
11
63.880753
21
81.641144
0
LINE
8
Layer 1
10
63.880753
20
81.641144
11
64.447634
21
81.562222
0
LINE
8
Layer 1
10
64.447634
20
81.562222
11
65.303036
21
81.729561
0
LINE
8
Layer 1
10
65.303036
20
81.729561
11
66.570517
21
82.205542
0
LINE
8
Layer 1
10
66.570517
20
82.205542
11
70.054032
21
83.927225
0
LINE
8
Layer 1
10
70.054032
20
83.927225
11
74.322812
21
86.414862
0
LINE
8
Layer 1
10
74.322812
20
86.414862
11
78.801491
21
89.356040
0
LINE
8
Layer 1
10
78.801491
20
89.356040
11
81.242606
21
90.875556
0
LINE
8
Layer 1
10
81.242606
20
90.875556
11
81.562838
21
90.270923
0
LINE
8
Layer 1
10
81.562838
20
90.270923
11
81.963497
21
88.817233
0
LINE
8
Layer 1
10
81.963497
20
88.817233
11
82.525190
21
86.859703
0
LINE
8
Layer 1
10
82.525190
20
86.859703
11
83.232588
21
85.043716
0
LINE
8
Layer 1
10
83.232588
20
85.043716
11
84.241649
21
83.363997
0
LINE
8
Layer 1
10
84.241649
20
83.363997
11
84.770725
21
82.845901
0
LINE
8
Layer 1
10
84.770725
20
82.845901
11
85.332941
21
82.536364
0
LINE
8
Layer 1
10
85.332941
20
82.536364
11
85.940877
21
82.430925
0
LINE
8
Layer 1
10
85.940877
20
82.430925
11
86.607116
21
82.525123
0
LINE
8
Layer 1
10
86.607116
20
82.525123
11
88.164822
21
83.294578
0
LINE
8
Layer 1
10
88.164822
20
83.294578
11
89.563268
21
84.447015
0
LINE
8
Layer 1
10
89.563268
20
84.447015
11
90.964378
21
86.030755
0
LINE
8
Layer 1
10
90.964378
20
86.030755
11
92.313169
21
87.975253
0
LINE
8
Layer 1
10
92.313169
20
87.975253
11
93.554657
21
90.209963
0
LINE
8
Layer 1
10
93.554657
20
90.209963
11
94.547647
21
92.075274
0
LINE
8
Layer 1
10
94.547647
20
92.075274
11
95.094222
21
92.851111
0
LINE
8
Layer 1
10
95.094222
20
92.851111
11
95.659530
21
92.130852
0
LINE
8
Layer 1
10
95.659530
20
92.130852
11
96.697560
21
90.399164
0
LINE
8
Layer 1
10
96.697560
20
90.399164
11
97.909527
21
88.462750
0
LINE
8
Layer 1
10
97.909527
20
88.462750
11
99.234136
21
86.717734
0
LINE
8
Layer 1
10
99.234136
20
86.717734
11
100.522848
21
85.341524
0
LINE
8
Layer 1
10
100.522848
20
85.341524
11
101.627122
21
84.511529
0
LINE
8
Layer 1
10
101.627122
20
84.511529
11
102.536752
21
84.187244
0
LINE
8
Layer 1
10
102.536752
20
84.187244
11
103.393721
21
84.171664
0
LINE
8
Layer 1
10
103.393721
20
84.171664
11
104.187705
21
84.454026
0
LINE
8
Layer 1
10
104.187705
20
84.454026
11
104.908384
21
85.023570
0
LINE
8
Layer 1
10
104.908384
20
85.023570
11
105.545433
21
85.869534
0
LINE
8
Layer 1
10
105.545433
20
85.869534
11
106.088532
21
86.981157
0
LINE
8
Layer 1
10
106.088532
20
86.981157
11
106.527358
21
88.347677
0
LINE
8
Layer 1
10
106.527358
20
88.347677
11
106.851588
21
89.958333
0
LINE
8
Layer 1
10
106.851588
20
89.958333
11
107.095836
21
90.833442
0
LINE
8
Layer 1
10
107.095836
20
90.833442
11
107.512189
21
91.130481
0
LINE
8
Layer 1
10
107.512189
20
91.130481
11
108.158386
21
90.850369
0
LINE
8
Layer 1
10
108.158386
20
90.850369
11
109.092167
21
89.994026
0
LINE
8
Layer 1
10
109.092167
20
89.994026
11
111.908446
21
87.363361
0
LINE
8
Layer 1
10
111.908446
20
87.363361
11
114.843429
21
85.120407
0
LINE
8
Layer 1
10
114.843429
20
85.120407
11
117.467607
21
83.559089
0
LINE
8
Layer 1
10
117.467607
20
83.559089
11
118.528921
21
83.125896
0
LINE
8
Layer 1
10
118.528921
20
83.125896
11
119.351467
21
82.973333
0
LINE
8
Layer 1
10
119.351467
20
82.973333
11
120.067825
21
83.120383
0
LINE
8
Layer 1
10
120.067825
20
83.120383
11
120.630289
21
83.552089
0
LINE
8
Layer 1
10
120.630289
20
83.552089
11
121.036658
21
84.254283
0
LINE
8
Layer 1
10
121.036658
20
84.254283
11
121.284729
21
85.212802
0
LINE
8
Layer 1
10
121.284729
20
85.212802
11
121.372301
21
86.413477
0
LINE
8
Layer 1
10
121.372301
20
86.413477
11
121.297172
21
87.842143
0
LINE
8
Layer 1
10
121.297172
20
87.842143
11
120.650000
21
91.326784
0
LINE
8
Layer 1
10
120.650000
20
91.326784
11
119.944444
21
94.326306
0
LINE
8
Layer 1
10
119.944444
20
94.326306
11
120.008342
21
94.462132
0
LINE
8
Layer 1
10
120.008342
20
94.462132
11
120.229037
21
94.511872
0
LINE
8
Layer 1
10
120.229037
20
94.511872
11
121.314840
21
94.306096
0
LINE
8
Layer 1
10
121.314840
20
94.306096
11
127.282222
21
92.344528
0
LINE
8
Layer 1
10
127.282222
20
92.344528
11
133.632222
21
90.146189
0
LINE
8
Layer 1
10
133.632222
20
90.146189
11
139.700000
21
85.808092
0
LINE
8
Layer 1
10
139.700000
20
85.808092
11
149.239030
21
78.830263
0
LINE
8
Layer 1
10
149.239030
20
78.830263
11
152.607588
21
76.196559
0
LINE
8
Layer 1
10
152.607588
20
76.196559
11
155.173401
21
74.014380
0
LINE
8
Layer 1
10
155.173401
20
74.014380
11
157.034892
21
72.194764
0
LINE
8
Layer 1
10
157.034892
20
72.194764
11
158.290481
21
70.648748
0
LINE
8
Layer 1
10
158.290481
20
70.648748
11
159.038590
21
69.287373
0
LINE
8
Layer 1
10
159.038590
20
69.287373
11
159.377640
21
68.021674
0
LINE
8
Layer 1
10
159.377640
20
68.021674
11
159.441023
21
67.377465
0
LINE
8
Layer 1
10
159.441023
20
67.377465
11
159.365448
21
66.988389
0
LINE
8
Layer 1
10
159.365448
20
66.988389
11
159.080025
21
66.726638
0
LINE
8
Layer 1
10
159.080025
20
66.726638
11
158.513859
21
66.464400
0
LINE
8
Layer 1
10
158.513859
20
66.464400
11
157.100984
21
66.126447
0
LINE
8
Layer 1
10
157.100984
20
66.126447
11
155.161796
21
66.083176
0
LINE
8
Layer 1
10
155.161796
20
66.083176
11
152.664620
21
66.336083
0
LINE
8
Layer 1
10
152.664620
20
66.336083
11
149.577778
21
66.886667
0
LINE
8
Layer 1
10
149.577778
20
66.886667
11
145.348563
21
67.589519
0
LINE
8
Layer 1
10
145.348563
20
67.589519
11
140.576986
21
67.732173
0
LINE
8
Layer 1
10
140.576986
20
67.732173
11
135.668416
21
67.733333
0
LINE
8
Layer 1
10
135.668416
20
67.733333
11
138.061545
21
65.250842
0
LINE
8
Layer 1
10
138.061545
20
65.250842
11
139.939744
21
63.105052
0
LINE
8
Layer 1
10
139.939744
20
63.105052
11
141.255903
21
61.149204
0
LINE
8
Layer 1
10
141.255903
20
61.149204
11
142.006423
21
59.389765
0
LINE
8
Layer 1
10
142.006423
20
59.389765
11
142.187704
21
57.833206
0
LINE
8
Layer 1
10
142.187704
20
57.833206
11
141.975304
21
56.774941
0
LINE
8
Layer 1
10
141.975304
20
56.774941
11
141.393333
21
56.243539
0
LINE
8
Layer 1
10
141.393333
20
56.243539
11
140.383896
21
55.954444
0
LINE
8
Layer 1
10
140.383896
20
55.954444
11
138.936132
21
55.860443
0
LINE
8
Layer 1
10
138.936132
20
55.860443
11
134.930323
21
56.226039
0
LINE
8
Layer 1
10
134.930323
20
56.226039
11
129.785304
21
57.276952
0
LINE
8
Layer 1
10
129.785304
20
57.276952
11
123.910471
21
58.949810
0
LINE
8
Layer 1
10
123.910471
20
58.949810
11
122.106062
21
59.460832
0
LINE
8
Layer 1
10
122.106062
20
59.460832
11
121.355556
21
59.535701
0
LINE
8
Layer 1
10
121.355556
20
59.535701
11
121.611029
21
59.142088
0
LINE
8
Layer 1
10
121.611029
20
59.142088
11
122.285436
21
58.257999
0
LINE
8
Layer 1
10
122.285436
20
58.257999
11
123.296536
21
56.502237
0
LINE
8
Layer 1
10
123.296536
20
56.502237
11
124.316567
21
54.483833
0
LINE
8
Layer 1
10
124.316567
20
54.483833
11
125.017770
21
52.811818
0
LINE
8
Layer 1
10
125.017770
20
52.811818
11
125.420668
21
51.195901
0
LINE
8
Layer 1
10
125.420668
20
51.195901
11
125.532885
21
49.848485
0
LINE
8
Layer 1
10
125.532885
20
49.848485
11
125.334871
21
48.866779
0
LINE
8
Layer 1
10
125.334871
20
48.866779
11
125.096616
21
48.680281
0
LINE
8
Layer 1
10
125.096616
20
48.680281
11
124.698890
21
48.596660
0
LINE
8
Layer 1
10
124.698890
20
48.596660
11
123.721029
21
48.675543
0
LINE
8
Layer 1
10
123.721029
20
48.675543
11
122.284941
21
49.066688
0
LINE
8
Layer 1
10
122.284941
20
49.066688
11
118.236332
21
50.695783
0
LINE
8
Layer 1
10
118.236332
20
50.695783
11
112.949557
21
53.303976
0
LINE
8
Layer 1
10
112.949557
20
53.303976
11
106.821111
21
56.711300
0
LINE
8
Layer 1
10
106.821111
20
56.711300
11
102.023333
21
59.512683
0
LINE
8
Layer 1
10
102.023333
20
59.512683
11
101.810205
21
58.049118
0
LINE
8
Layer 1
10
101.810205
20
58.049118
11
100.967941
21
53.314818
0
LINE
8
Layer 1
10
100.967941
20
53.314818
11
100.510818
21
51.569868
0
LINE
8
Layer 1
10
100.510818
20
51.569868
11
100.013793
21
50.203494
0
LINE
8
Layer 1
10
100.013793
20
50.203494
11
99.464933
21
49.188530
0
LINE
8
Layer 1
10
99.464933
20
49.188530
11
98.852306
21
48.497808
0
LINE
8
Layer 1
10
98.852306
20
48.497808
11
98.163982
21
48.104162
0
LINE
8
Layer 1
10
98.163982
20
48.104162
11
97.388028
21
47.980425
0
LINE
8
Layer 1
10
97.388028
20
47.980425
11
96.168526
21
48.208369
0
LINE
8
Layer 1
10
96.168526
20
48.208369
11
94.837937
21
48.860622
0
LINE
8
Layer 1
10
94.837937
20
48.860622
11
93.432215
21
49.898888
0
LINE
8
Layer 1
10
93.432215
20
49.898888
11
91.987316
21
51.284871
0
LINE
8
Layer 1
10
91.987316
20
51.284871
11
90.539195
21
52.980274
0
LINE
8
Layer 1
10
90.539195
20
52.980274
11
89.123807
21
54.946801
0
LINE
8
Layer 1
10
89.123807
20
54.946801
11
87.777108
21
57.146155
0
LINE
8
Layer 1
10
87.777108
20
57.146155
11
86.535054
21
59.540041
0
LINE
8
Layer 1
10
86.535054
20
59.540041
11
85.348530
21
62.036898
0
LINE
8
Layer 1
10
85.348530
20
62.036898
11
84.675887
21
60.157893
0
LINE
8
Layer 1
10
84.675887
20
60.157893
11
83.788328
21
57.999705
0
LINE
8
Layer 1
10
83.788328
20
57.999705
11
82.614687
21
55.559276
0
LINE
8
Layer 1
10
82.614687
20
55.559276
11
81.380898
21
53.279581
0
LINE
8
Layer 1
10
81.380898
20
53.279581
11
80.312892
21
51.603594
0
LINE
8
Layer 1
10
80.312892
20
51.603594
11
79.312622
21
50.418370
0
LINE
8
Layer 1
10
79.312622
20
50.418370
11
78.286907
21
49.519131
0
LINE
8
Layer 1
10
78.286907
20
49.519131
11
77.250573
21
48.916672
0
LINE
8
Layer 1
10
77.250573
20
48.916672
11
76.218446
21
48.621792
0
LINE
8
Layer 1
10
76.218446
20
48.621792
11
75.587309
21
48.570789
0
LINE
8
Layer 1
10
75.587309
20
48.570789
11
75.116985
21
48.653858
0
LINE
8
Layer 1
10
75.116985
20
48.653858
11
74.136312
21
49.423343
0
LINE
8
Layer 1
10
74.136312
20
49.423343
11
73.324505
21
50.493262
0
LINE
8
Layer 1
10
73.324505
20
50.493262
11
72.619346
21
51.964733
0
LINE
8
Layer 1
10
72.619346
20
51.964733
11
72.023706
21
53.830391
0
LINE
8
Layer 1
10
72.023706
20
53.830391
11
71.540455
21
56.082873
0
LINE
8
Layer 1
10
71.540455
20
56.082873
11
71.022207
21
58.611866
0
LINE
8
Layer 1
10
71.022207
20
58.611866
11
69.079212
21
56.516592
0
LINE
8
Layer 1
10
69.079212
20
56.516592
11
66.918768
21
54.137096
0
LINE
8
Layer 1
10
66.918768
20
54.137096
11
64.331157
21
51.530125
0
LINE
8
Layer 1
10
64.331157
20
51.530125
11
61.858216
21
49.221947
0
LINE
8
Layer 1
10
61.858216
20
49.221947
11
60.041779
21
47.738829
0
LINE
8
Layer 1
10
60.041779
20
47.738829
11
57.630862
21
46.346863
0
LINE
8
Layer 1
10
57.630862
20
46.346863
11
56.580622
21
45.898659
0
LINE
8
Layer 1
10
56.580622
20
45.898659
11
55.863386
21
45.726198
0
LINE
8
Layer 1
10
55.863386
20
45.726198
11
54.958872
21
46.072778
0
LINE
8
Layer 1
10
54.958872
20
46.072778
11
54.958872
21
46.072778
0
LINE
8
Layer 1
10
57.553095
20
47.120787
11
60.020411
21
48.801440
0
LINE
8
Layer 1
10
60.020411
20
48.801440
11
63.165710
21
51.537863
0
LINE
8
Layer 1
10
63.165710
20
51.537863
11
66.518100
21
54.888898
0
LINE
8
Layer 1
10
66.518100
20
54.888898
11
69.606691
21
58.413382
0
LINE
8
Layer 1
10
69.606691
20
58.413382
11
70.694778
21
59.622966
0
LINE
8
Layer 1
10
70.694778
20
59.622966
11
71.426093
21
60.091459
0
LINE
8
Layer 1
10
71.426093
20
60.091459
11
71.669544
21
60.049848
0
LINE
8
Layer 1
10
71.669544
20
60.049848
11
71.837701
21
59.825426
0
LINE
8
Layer 1
10
71.837701
20
59.825426
11
71.966667
21
58.831435
0
LINE
8
Layer 1
10
71.966667
20
58.831435
11
72.091541
21
57.289672
0
LINE
8
Layer 1
10
72.091541
20
57.289672
11
72.417656
21
55.414960
0
LINE
8
Layer 1
10
72.417656
20
55.414960
11
72.872249
21
53.555339
0
LINE
8
Layer 1
10
72.872249
20
53.555339
11
73.382559
21
52.058847
0
LINE
8
Layer 1
10
73.382559
20
52.058847
11
73.952306
21
50.977854
0
LINE
8
Layer 1
10
73.952306
20
50.977854
11
74.612133
21
50.133847
0
LINE
8
Layer 1
10
74.612133
20
50.133847
11
75.305410
21
49.585114
0
LINE
8
Layer 1
10
75.305410
20
49.585114
11
75.975506
21
49.389944
0
LINE
8
Layer 1
10
75.975506
20
49.389944
11
76.904714
21
49.622640
0
LINE
8
Layer 1
10
76.904714
20
49.622640
11
77.917734
21
50.292067
0
LINE
8
Layer 1
10
77.917734
20
50.292067
11
78.987701
21
51.359525
0
LINE
8
Layer 1
10
78.987701
20
51.359525
11
80.087754
21
52.786314
0
LINE
8
Layer 1
10
80.087754
20
52.786314
11
81.191030
21
54.533733
0
LINE
8
Layer 1
10
81.191030
20
54.533733
11
82.270665
21
56.563084
0
LINE
8
Layer 1
10
82.270665
20
56.563084
11
83.299796
21
58.835666
0
LINE
8
Layer 1
10
83.299796
20
58.835666
11
84.251560
21
61.312778
0
LINE
8
Layer 1
10
84.251560
20
61.312778
11
84.899125
21
62.857503
0
LINE
8
Layer 1
10
84.899125
20
62.857503
11
85.374028
21
63.500000
0
LINE
8
Layer 1
10
85.374028
20
63.500000
11
85.871145
21
62.889729
0
LINE
8
Layer 1
10
85.871145
20
62.889729
11
86.572118
21
61.422483
0
LINE
8
Layer 1
10
86.572118
20
61.422483
11
88.012291
21
58.391491
0
LINE
8
Layer 1
10
88.012291
20
58.391491
11
89.790190
21
55.428157
0
LINE
8
Layer 1
10
89.790190
20
55.428157
11
91.727184
21
52.801289
0
LINE
8
Layer 1
10
91.727184
20
52.801289
11
93.644638
21
50.779694
0
LINE
8
Layer 1
10
93.644638
20
50.779694
11
94.878029
21
49.798544
0
LINE
8
Layer 1
10
94.878029
20
49.798544
11
96.014527
21
49.095812
0
LINE
8
Layer 1
10
96.014527
20
49.095812
11
96.973871
21
48.713066
0
LINE
8
Layer 1
10
96.973871
20
48.713066
11
97.675802
21
48.691876
0
LINE
8
Layer 1
10
97.675802
20
48.691876
11
98.223869
21
49.033577
0
LINE
8
Layer 1
10
98.223869
20
49.033577
11
98.759081
21
49.684116
0
LINE
8
Layer 1
10
98.759081
20
49.684116
11
99.736963
21
51.759071
0
LINE
8
Layer 1
10
99.736963
20
51.759071
11
100.501494
21
54.611461
0
LINE
8
Layer 1
10
100.501494
20
54.611461
11
100.944722
21
57.936009
0
LINE
8
Layer 1
10
100.944722
20
57.936009
11
101.142864
21
59.732347
0
LINE
8
Layer 1
10
101.142864
20
59.732347
11
101.371030
21
60.569579
0
LINE
8
Layer 1
10
101.371030
20
60.569579
11
102.845378
21
59.910158
0
LINE
8
Layer 1
10
102.845378
20
59.910158
11
106.039658
21
58.108164
0
LINE
8
Layer 1
10
106.039658
20
58.108164
11
112.014830
21
54.733502
0
LINE
8
Layer 1
10
112.014830
20
54.733502
11
117.444720
21
51.959837
0
LINE
8
Layer 1
10
117.444720
20
51.959837
11
121.717618
21
50.080517
0
LINE
8
Layer 1
10
121.717618
20
50.080517
11
123.229034
21
49.567907
0
LINE
8
Layer 1
10
123.229034
20
49.567907
11
124.221810
21
49.388889
0
LINE
8
Layer 1
10
124.221810
20
49.388889
11
124.538013
21
49.427992
0
LINE
8
Layer 1
10
124.538013
20
49.427992
11
124.698973
21
49.608536
0
LINE
8
Layer 1
10
124.698973
20
49.608536
11
124.681005
21
50.773353
0
LINE
8
Layer 1
10
124.681005
20
50.773353
11
124.313315
21
52.315062
0
LINE
8
Layer 1
10
124.313315
20
52.315062
11
123.531479
21
54.258051
0
LINE
8
Layer 1
10
123.531479
20
54.258051
11
122.455842
21
56.341456
0
LINE
8
Layer 1
10
122.455842
20
56.341456
11
121.206745
21
58.304413
0
LINE
8
Layer 1
10
121.206745
20
58.304413
11
120.057789
21
60.225617
0
LINE
8
Layer 1
10
120.057789
20
60.225617
11
119.924558
21
60.767594
0
LINE
8
Layer 1
10
119.924558
20
60.767594
11
120.114483
21
60.960000
0
LINE
8
Layer 1
10
120.114483
20
60.960000
11
122.866150
21
60.089666
0
LINE
8
Layer 1
10
122.866150
20
60.089666
11
128.241421
21
58.482958
0
LINE
8
Layer 1
10
128.241421
20
58.482958
11
133.383946
21
57.300866
0
LINE
8
Layer 1
10
133.383946
20
57.300866
11
137.620415
21
56.673304
0
LINE
8
Layer 1
10
137.620415
20
56.673304
11
139.188468
21
56.608070
0
LINE
8
Layer 1
10
139.188468
20
56.608070
11
140.277514
21
56.730186
0
LINE
8
Layer 1
10
140.277514
20
56.730186
11
140.894340
21
56.921853
0
LINE
8
Layer 1
10
140.894340
20
56.921853
11
141.228739
21
57.143068
0
LINE
8
Layer 1
10
141.228739
20
57.143068
11
141.366480
21
57.498607
0
LINE
8
Layer 1
10
141.366480
20
57.498607
11
141.393333
21
58.093243
0
LINE
8
Layer 1
10
141.393333
20
58.093243
11
141.144478
21
59.520844
0
LINE
8
Layer 1
10
141.144478
20
59.520844
11
140.372464
21
61.108318
0
LINE
8
Layer 1
10
140.372464
20
61.108318
11
139.039120
21
62.917244
0
LINE
8
Layer 1
10
139.039120
20
62.917244
11
137.106276
21
65.009200
0
LINE
8
Layer 1
10
137.106276
20
65.009200
11
134.337778
21
68.003778
0
LINE
8
Layer 1
10
134.337778
20
68.003778
11
134.821294
21
68.239487
0
LINE
8
Layer 1
10
134.821294
20
68.239487
11
136.198390
21
68.419834
0
LINE
8
Layer 1
10
136.198390
20
68.419834
11
141.192600
21
68.577547
0
LINE
8
Layer 1
10
141.192600
20
68.577547
11
145.126573
21
68.419534
0
LINE
8
Layer 1
10
145.126573
20
68.419534
11
149.200399
21
67.733333
0
LINE
8
Layer 1
10
149.200399
20
67.733333
11
152.086183
21
67.230759
0
LINE
8
Layer 1
10
152.086183
20
67.230759
11
154.725834
21
66.936805
0
LINE
8
Layer 1
10
154.725834
20
66.936805
11
156.843286
21
66.872275
0
LINE
8
Layer 1
10
156.843286
20
66.872275
11
158.162473
21
67.057973
0
LINE
8
Layer 1
10
158.162473
20
67.057973
11
158.448373
21
67.275113
0
LINE
8
Layer 1
10
158.448373
20
67.275113
11
158.574589
21
67.632653
0
LINE
8
Layer 1
10
158.574589
20
67.632653
11
158.374517
21
68.700037
0
LINE
8
Layer 1
10
158.374517
20
68.700037
11
157.615352
21
70.122322
0
LINE
8
Layer 1
10
157.615352
20
70.122322
11
156.350185
21
71.761706
0
LINE
8
Layer 1
10
156.350185
20
71.761706
11
154.369922
21
73.659193
0
LINE
8
Layer 1
10
154.369922
20
73.659193
11
151.068016
21
76.361115
0
LINE
8
Layer 1
10
151.068016
20
76.361115
11
140.546667
21
84.141143
0
LINE
8
Layer 1
10
140.546667
20
84.141143
11
132.785556
21
89.674003
0
LINE
8
Layer 1
10
132.785556
20
89.674003
11
127.141111
21
91.582192
0
LINE
8
Layer 1
10
127.141111
20
91.582192
11
121.186473
21
93.607932
0
LINE
8
Layer 1
10
121.186473
20
93.607932
11
121.095127
21
93.514305
0
LINE
8
Layer 1
10
121.095127
20
93.514305
11
121.106752
21
93.141854
0
LINE
8
Layer 1
10
121.106752
20
93.141854
11
121.425970
21
91.665521
0
LINE
8
Layer 1
10
121.425970
20
91.665521
11
121.844157
21
89.383725
0
LINE
8
Layer 1
10
121.844157
20
89.383725
11
122.018383
21
86.690381
0
LINE
8
Layer 1
10
122.018383
20
86.690381
11
122.061111
21
83.775209
0
LINE
8
Layer 1
10
122.061111
20
83.775209
11
121.139435
21
82.950936
0
LINE
8
Layer 1
10
121.139435
20
82.950936
11
120.303281
21
82.369259
0
LINE
8
Layer 1
10
120.303281
20
82.369259
11
119.587213
21
82.128241
0
LINE
8
Layer 1
10
119.587213
20
82.128241
11
118.726891
21
82.224511
0
LINE
8
Layer 1
10
118.726891
20
82.224511
11
117.762925
21
82.506726
0
LINE
8
Layer 1
10
117.762925
20
82.506726
11
115.549307
21
83.613569
0
LINE
8
Layer 1
10
115.549307
20
83.613569
11
112.996845
21
85.417934
0
LINE
8
Layer 1
10
112.996845
20
85.417934
11
110.156024
21
87.888984
0
LINE
8
Layer 1
10
110.156024
20
87.888984
11
107.603053
21
90.292242
0
LINE
8
Layer 1
10
107.603053
20
90.292242
11
107.430714
21
88.837110
0
LINE
8
Layer 1
10
107.430714
20
88.837110
11
107.102683
21
87.380947
0
LINE
8
Layer 1
10
107.102683
20
87.380947
11
106.519316
21
85.911383
0
LINE
8
Layer 1
10
106.519316
20
85.911383
11
105.794769
21
84.665433
0
LINE
8
Layer 1
10
105.794769
20
84.665433
11
105.043201
21
83.880113
0
LINE
8
Layer 1
10
105.043201
20
83.880113
11
104.037590
21
83.481001
0
LINE
8
Layer 1
10
104.037590
20
83.481001
11
102.850390
21
83.412505
0
LINE
8
Layer 1
10
102.850390
20
83.412505
11
101.623405
21
83.663884
0
LINE
8
Layer 1
10
101.623405
20
83.663884
11
100.498436
21
84.224396
0
LINE
8
Layer 1
10
100.498436
20
84.224396
11
99.415398
21
85.154687
0
LINE
8
Layer 1
10
99.415398
20
85.154687
11
98.267591
21
86.458595
0
LINE
8
Layer 1
10
98.267591
20
86.458595
11
97.135938
21
88.033906
0
LINE
8
Layer 1
10
97.135938
20
88.033906
11
96.101360
21
89.778405
0
LINE
8
Layer 1
10
96.101360
20
89.778405
11
95.163341
21
91.534036
0
LINE
8
Layer 1
10
95.163341
20
91.534036
11
94.179020
21
89.582018
0
LINE
8
Layer 1
10
94.179020
20
89.582018
11
93.107891
21
87.654351
0
LINE
8
Layer 1
10
93.107891
20
87.654351
11
91.962660
21
85.952590
0
LINE
8
Layer 1
10
91.962660
20
85.952590
11
90.770102
21
84.499619
0
LINE
8
Layer 1
10
90.770102
20
84.499619
11
89.556994
21
83.318319
0
LINE
8
Layer 1
10
89.556994
20
83.318319
11
88.350113
21
82.431573
0
LINE
8
Layer 1
10
88.350113
20
82.431573
11
87.176235
21
81.862263
0
LINE
8
Layer 1
10
87.176235
20
81.862263
11
86.062135
21
81.633271
0
LINE
8
Layer 1
10
86.062135
20
81.633271
11
85.034591
21
81.767480
0
LINE
8
Layer 1
10
85.034591
20
81.767480
11
84.131560
21
82.339806
0
LINE
8
Layer 1
10
84.131560
20
82.339806
11
83.239683
21
83.391729
0
LINE
8
Layer 1
10
83.239683
20
83.391729
11
82.442162
21
84.801985
0
LINE
8
Layer 1
10
82.442162
20
84.801985
11
81.822200
21
86.449315
0
LINE
8
Layer 1
10
81.822200
20
86.449315
11
81.043664
21
89.097770
0
LINE
8
Layer 1
10
81.043664
20
89.097770
11
80.831013
21
89.369186
0
LINE
8
Layer 1
10
80.831013
20
89.369186
11
80.216391
21
89.189439
0
LINE
8
Layer 1
10
80.216391
20
89.189439
11
76.341111
21
86.760761
0
LINE
8
Layer 1
10
76.341111
20
86.760761
11
71.059195
21
83.502673
0
LINE
8
Layer 1
10
71.059195
20
83.502673
11
67.087171
21
81.517614
0
LINE
8
Layer 1
10
67.087171
20
81.517614
11
65.571997
21
80.994188
0
LINE
8
Layer 1
10
65.571997
20
80.994188
11
64.359848
21
80.779081
0
LINE
8
Layer 1
10
64.359848
20
80.779081
11
63.442575
21
80.868979
0
LINE
8
Layer 1
10
63.442575
20
80.868979
11
62.812030
21
81.260569
0
LINE
8
Layer 1
10
62.812030
20
81.260569
11
62.374839
21
82.235326
0
LINE
8
Layer 1
10
62.374839
20
82.235326
11
62.263608
21
83.681345
0
LINE
8
Layer 1
10
62.263608
20
83.681345
11
62.471556
21
85.378285
0
LINE
8
Layer 1
10
62.471556
20
85.378285
11
62.991904
21
87.105806
0
LINE
8
Layer 1
10
62.991904
20
87.105806
11
63.684618
21
88.820797
0
LINE
8
Layer 1
10
63.684618
20
88.820797
11
62.022315
21
88.145343
0
LINE
8
Layer 1
10
62.022315
20
88.145343
11
59.628928
21
87.324684
0
LINE
8
Layer 1
10
59.628928
20
87.324684
11
56.803360
21
86.567333
0
LINE
8
Layer 1
10
56.803360
20
86.567333
11
54.125062
21
86.011541
0
LINE
8
Layer 1
10
54.125062
20
86.011541
11
52.173485
21
85.795556
0
LINE
8
Layer 1
10
52.173485
20
85.795556
11
50.436365
21
85.945322
0
LINE
8
Layer 1
10
50.436365
20
85.945322
11
49.809043
21
86.149849
0
LINE
8
Layer 1
10
49.809043
20
86.149849
11
49.324758
21
86.456201
0
LINE
8
Layer 1
10
49.324758
20
86.456201
11
48.970172
21
86.875924
0
LINE
8
Layer 1
10
48.970172
20
86.875924
11
48.731943
21
87.420565
0
LINE
8
Layer 1
10
48.731943
20
87.420565
11
48.551197
21
88.930785
0
LINE
8
Layer 1
10
48.551197
20
88.930785
11
48.717031
21
90.508816
0
LINE
8
Layer 1
10
48.717031
20
90.508816
11
49.329278
21
92.074139
0
LINE
8
Layer 1
10
49.329278
20
92.074139
11
50.116334
21
93.634487
0
LINE
8
Layer 1
10
50.116334
20
93.634487
11
47.563445
21
91.328793
0
LINE
8
Layer 1
10
47.563445
20
91.328793
11
41.041977
21
85.740377
0
LINE
8
Layer 1
10
41.041977
20
85.740377
11
31.984202
21
78.379379
0
LINE
8
Layer 1
10
31.984202
20
78.379379
11
25.427910
21
72.934991
0
LINE
8
Layer 1
10
25.427910
20
72.934991
11
22.998679
21
70.329088
0
LINE
8
Layer 1
10
22.998679
20
70.329088
11
22.090924
21
69.151341
0
LINE
8
Layer 1
10
22.090924
20
69.151341
11
21.731111
21
68.471632
0
LINE
8
Layer 1
10
21.731111
20
68.471632
11
21.844276
21
68.343294
0
LINE
8
Layer 1
10
21.844276
20
68.343294
11
22.192278
21
68.297008
0
LINE
8
Layer 1
10
22.192278
20
68.297008
11
23.643851
21
68.459265
0
LINE
8
Layer 1
10
23.643851
20
68.459265
11
29.926650
21
69.863798
0
LINE
8
Layer 1
10
29.926650
20
69.863798
11
34.590186
21
70.940585
0
LINE
8
Layer 1
10
34.590186
20
70.940585
11
37.708527
21
71.449944
0
LINE
8
Layer 1
10
37.708527
20
71.449944
11
39.629875
21
71.425371
0
LINE
8
Layer 1
10
39.629875
20
71.425371
11
40.250491
21
71.223327
0
LINE
8
Layer 1
10
40.250491
20
71.223327
11
40.702436
21
70.900361
0
LINE
8
Layer 1
10
40.702436
20
70.900361
11
41.138791
21
70.286513
0
LINE
8
Layer 1
10
41.138791
20
70.286513
11
41.334907
21
69.521891
0
LINE
8
Layer 1
10
41.334907
20
69.521891
11
41.276742
21
68.566870
0
LINE
8
Layer 1
10
41.276742
20
68.566870
11
40.950258
21
67.381823
0
LINE
8
Layer 1
10
40.950258
20
67.381823
11
39.436168
21
64.163157
0
LINE
8
Layer 1
10
39.436168
20
64.163157
11
36.680315
21
59.548889
0
LINE
8
Layer 1
10
36.680315
20
59.548889
11
33.416940
21
54.120212
0
LINE
8
Layer 1
10
33.416940
20
54.120212
11
32.732424
21
52.783754
0
LINE
8
Layer 1
10
32.732424
20
52.783754
11
35.486766
21
53.779615
0
LINE
8
Layer 1
10
35.486766
20
53.779615
11
41.874254
21
56.232741
0
LINE
8
Layer 1
10
41.874254
20
56.232741
11
50.271099
21
59.727756
0
LINE
8
Layer 1
10
50.271099
20
59.727756
11
56.127210
21
62.088889
0
LINE
8
Layer 1
10
56.127210
20
62.088889
11
56.374134
21
61.919317
0
LINE
8
Layer 1
10
56.374134
20
61.919317
11
56.402689
21
61.303440
0
LINE
8
Layer 1
10
56.402689
20
61.303440
11
55.742905
21
58.089814
0
LINE
8
Layer 1
10
55.742905
20
58.089814
11
55.192606
21
55.405155
0
LINE
8
Layer 1
10
55.192606
20
55.405155
11
54.801161
21
52.707412
0
LINE
8
Layer 1
10
54.801161
20
52.707412
11
54.609259
21
50.349249
0
LINE
8
Layer 1
10
54.609259
20
50.349249
11
54.657591
21
48.683333
0
LINE
8
Layer 1
10
54.657591
20
48.683333
11
54.976646
21
47.346296
0
LINE
8
Layer 1
10
54.976646
20
47.346296
11
55.493641
21
46.679014
0
LINE
8
Layer 1
10
55.493641
20
46.679014
11
55.860089
21
46.578334
0
LINE
8
Layer 1
10
55.860089
20
46.578334
11
56.316487
21
46.623256
0
LINE
8
Layer 1
10
56.316487
20
46.623256
11
57.553095
21
47.120787
0
LINE
8
Layer 1
10
57.553095
20
47.120787
11
57.553095
21
47.120787
0
LINE
8
Layer 1
10
63.852778
20
82.038373
11
63.603245
21
82.458372
0
LINE
8
Layer 1
10
63.603245
20
82.458372
11
63.511289
21
83.334064
0
LINE
8
Layer 1
10
63.511289
20
83.334064
11
63.579289
21
84.465930
0
LINE
8
Layer 1
10
63.579289
20
84.465930
11
63.809626
21
85.654444
0
LINE
8
Layer 1
10
63.809626
20
85.654444
11
65.189368
21
88.943705
0
LINE
8
Layer 1
10
65.189368
20
88.943705
11
66.262631
21
91.104077
0
LINE
8
Layer 1
10
66.262631
20
91.104077
11
65.336462
21
90.717099
0
LINE
8
Layer 1
10
65.336462
20
90.717099
11
59.766315
21
88.764274
0
LINE
8
Layer 1
10
59.766315
20
88.764274
11
54.553626
21
87.329236
0
LINE
8
Layer 1
10
54.553626
20
87.329236
11
52.090621
21
87.026953
0
LINE
8
Layer 1
10
52.090621
20
87.026953
11
51.214078
21
87.076332
0
LINE
8
Layer 1
10
51.214078
20
87.076332
11
50.554737
21
87.268705
0
LINE
8
Layer 1
10
50.554737
20
87.268705
11
50.098018
21
87.611057
0
LINE
8
Layer 1
10
50.098018
20
87.611057
11
49.829343
21
88.110372
0
LINE
8
Layer 1
10
49.829343
20
88.110372
11
49.734134
21
88.773636
0
LINE
8
Layer 1
10
49.734134
20
88.773636
11
49.797812
21
89.607833
0
LINE
8
Layer 1
10
49.797812
20
89.607833
11
50.200815
21
90.901001
0
LINE
8
Layer 1
10
50.200815
20
90.901001
11
51.000123
21
92.457135
0
LINE
8
Layer 1
10
51.000123
20
92.457135
11
52.072544
21
94.067805
0
LINE
8
Layer 1
10
52.072544
20
94.067805
11
53.294884
21
95.524577
0
LINE
8
Layer 1
10
53.294884
20
95.524577
11
54.519765
21
96.802222
0
LINE
8
Layer 1
10
54.519765
20
96.802222
11
53.153773
21
96.794941
0
LINE
8
Layer 1
10
53.153773
20
96.794941
11
50.804397
21
96.687861
0
LINE
8
Layer 1
10
50.804397
20
96.687861
11
48.292161
21
96.416178
0
LINE
8
Layer 1
10
48.292161
20
96.416178
11
45.907300
21
96.019502
0
LINE
8
Layer 1
10
45.907300
20
96.019502
11
43.940044
21
95.537443
0
LINE
8
Layer 1
10
43.940044
20
95.537443
11
41.567084
21
94.910654
0
LINE
8
Layer 1
10
41.567084
20
94.910654
11
39.337937
21
94.506192
0
LINE
8
Layer 1
10
39.337937
20
94.506192
11
37.508861
21
94.358899
0
LINE
8
Layer 1
10
37.508861
20
94.358899
11
36.336111
21
94.503615
0
LINE
8
Layer 1
10
36.336111
20
94.503615
11
35.940239
21
94.736255
0
LINE
8
Layer 1
10
35.940239
20
94.736255
11
35.671942
21
95.064477
0
LINE
8
Layer 1
10
35.671942
20
95.064477
11
35.516222
21
95.986891
0
LINE
8
Layer 1
10
35.516222
20
95.986891
11
35.865242
21
97.229311
0
LINE
8
Layer 1
10
35.865242
20
97.229311
11
36.715291
21
98.750188
0
LINE
8
Layer 1
10
36.715291
20
98.750188
11
38.220033
21
100.621068
0
LINE
8
Layer 1
10
38.220033
20
100.621068
11
40.878221
21
103.209613
0
LINE
8
Layer 1
10
40.878221
20
103.209613
11
45.315687
21
107.086028
0
LINE
8
Layer 1
10
45.315687
20
107.086028
11
52.158265
21
112.820521
0
LINE
8
Layer 1
10
52.158265
20
112.820521
11
60.163234
21
119.318076
0
LINE
8
Layer 1
10
60.163234
20
119.318076
11
61.924796
21
120.492058
0
LINE
8
Layer 1
10
61.924796
20
120.492058
11
63.237669
21
121.060196
0
LINE
8
Layer 1
10
63.237669
20
121.060196
11
64.672839
21
121.480570
0
LINE
8
Layer 1
10
64.672839
20
121.480570
11
65.370970
21
121.554215
0
LINE
8
Layer 1
10
65.370970
20
121.554215
11
65.307372
21
120.744166
0
LINE
8
Layer 1
10
65.307372
20
120.744166
11
64.911148
21
119.039917
0
LINE
8
Layer 1
10
64.911148
20
119.039917
11
64.385540
21
116.616126
0
LINE
8
Layer 1
10
64.385540
20
116.616126
11
64.123046
21
114.345822
0
LINE
8
Layer 1
10
64.123046
20
114.345822
11
64.139867
21
112.500423
0
LINE
8
Layer 1
10
64.139867
20
112.500423
11
64.452204
21
111.351351
0
LINE
8
Layer 1
10
64.452204
20
111.351351
11
64.980191
21
110.799105
0
LINE
8
Layer 1
10
64.980191
20
110.799105
11
65.595156
21
110.470180
0
LINE
8
Layer 1
10
65.595156
20
110.470180
11
66.213798
21
110.447397
0
LINE
8
Layer 1
10
66.213798
20
110.447397
11
66.986864
21
110.645121
0
LINE
8
Layer 1
10
66.986864
20
110.645121
11
68.958095
21
111.677427
0
LINE
8
Layer 1
10
68.958095
20
111.677427
11
71.432510
21
113.517772
0
LINE
8
Layer 1
10
71.432510
20
113.517772
11
74.333772
21
116.116825
0
LINE
8
Layer 1
10
74.333772
20
116.116825
11
76.777717
21
118.251111
0
LINE
8
Layer 1
10
76.777717
20
118.251111
11
77.028922
21
117.674390
0
LINE
8
Layer 1
10
77.028922
20
117.674390
11
77.326823
21
116.287807
0
LINE
8
Layer 1
10
77.326823
20
116.287807
11
77.921891
21
113.960500
0
LINE
8
Layer 1
10
77.921891
20
113.960500
11
78.781892
21
112.309014
0
LINE
8
Layer 1
10
78.781892
20
112.309014
11
79.295485
21
111.757557
0
LINE
8
Layer 1
10
79.295485
20
111.757557
11
79.856403
21
111.400080
0
LINE
8
Layer 1
10
79.856403
20
111.400080
11
80.458345
21
111.244926
0
LINE
8
Layer 1
10
80.458345
20
111.244926
11
81.095006
21
111.300435
0
LINE
8
Layer 1
10
81.095006
20
111.300435
11
81.739029
21
111.570136
0
LINE
8
Layer 1
10
81.739029
20
111.570136
11
82.452847
21
112.059615
0
LINE
8
Layer 1
10
82.452847
20
112.059615
11
83.999314
21
113.592002
0
LINE
8
Layer 1
10
83.999314
20
113.592002
11
85.553303
21
115.685779
0
LINE
8
Layer 1
10
85.553303
20
115.685779
11
86.933707
21
118.129132
0
LINE
8
Layer 1
10
86.933707
20
118.129132
11
87.385830
21
118.865110
0
LINE
8
Layer 1
10
87.385830
20
118.865110
11
87.841817
21
119.313446
0
LINE
8
Layer 1
10
87.841817
20
119.313446
11
88.194211
21
119.402681
0
LINE
8
Layer 1
10
88.194211
20
119.402681
11
88.335556
21
119.061357
0
LINE
8
Layer 1
10
88.335556
20
119.061357
11
89.647584
21
116.063423
0
LINE
8
Layer 1
10
89.647584
20
116.063423
11
90.881209
21
113.913570
0
LINE
8
Layer 1
10
90.881209
20
113.913570
11
92.333797
21
111.941549
0
LINE
8
Layer 1
10
92.333797
20
111.941549
11
93.801494
21
110.393110
0
LINE
8
Layer 1
10
93.801494
20
110.393110
11
95.080444
21
109.514005
0
LINE
8
Layer 1
10
95.080444
20
109.514005
11
95.904086
21
109.325625
0
LINE
8
Layer 1
10
95.904086
20
109.325625
11
96.748422
21
109.615512
0
LINE
8
Layer 1
10
96.748422
20
109.615512
11
97.584881
21
110.377133
0
LINE
8
Layer 1
10
97.584881
20
110.377133
11
98.410431
21
111.698319
0
LINE
8
Layer 1
10
98.410431
20
111.698319
11
99.127929
21
113.389433
0
LINE
8
Layer 1
10
99.127929
20
113.389433
11
99.640235
21
115.260842
0
LINE
8
Layer 1
10
99.640235
20
115.260842
11
100.028571
21
116.702939
0
LINE
8
Layer 1
10
100.028571
20
116.702939
11
100.231904
21
117.023159
0
LINE
8
Layer 1
10
100.231904
20
117.023159
11
100.461676
21
117.122222
0
LINE
8
Layer 1
10
100.461676
20
117.122222
11
101.523897
21
116.571175
0
LINE
8
Layer 1
10
101.523897
20
116.571175
11
103.443789
21
115.246317
0
LINE
8
Layer 1
10
103.443789
20
115.246317
11
107.425317
21
112.431623
0
LINE
8
Layer 1
10
107.425317
20
112.431623
11
110.995488
21
110.160542
0
LINE
8
Layer 1
10
110.995488
20
110.160542
11
113.800107
21
108.643548
0
LINE
8
Layer 1
10
113.800107
20
108.643548
11
114.804648
21
108.233605
0
LINE
8
Layer 1
10
114.804648
20
108.233605
11
115.484978
21
108.091111
0
LINE
8
Layer 1
10
115.484978
20
108.091111
11
115.970515
21
108.298217
0
LINE
8
Layer 1
10
115.970515
20
108.298217
11
116.442281
21
108.796153
0
LINE
8
Layer 1
10
116.442281
20
108.796153
11
116.717857
21
109.570441
0
LINE
8
Layer 1
10
116.717857
20
109.570441
11
116.730644
21
110.650577
0
LINE
8
Layer 1
10
116.730644
20
110.650577
11
116.480706
21
112.035906
0
LINE
8
Layer 1
10
116.480706
20
112.035906
11
115.968105
21
113.725774
0
LINE
8
Layer 1
10
115.968105
20
113.725774
11
115.428889
21
115.663689
0
LINE
8
Layer 1
10
115.428889
20
115.663689
11
115.470551
21
115.910821
0
LINE
8
Layer 1
10
115.470551
20
115.910821
11
115.928044
21
115.876100
0
LINE
8
Layer 1
10
115.928044
20
115.876100
11
120.085556
21
114.434476
0
LINE
8
Layer 1
10
120.085556
20
114.434476
11
123.244549
21
113.437337
0
LINE
8
Layer 1
10
123.244549
20
113.437337
11
125.747308
21
112.939222
0
LINE
8
Layer 1
10
125.747308
20
112.939222
11
127.570486
21
112.942800
0
LINE
8
Layer 1
10
127.570486
20
112.942800
11
128.219938
21
113.133558
0
LINE
8
Layer 1
10
128.219938
20
113.133558
11
128.690740
21
113.450740
0
LINE
8
Layer 1
10
128.690740
20
113.450740
11
129.184858
21
114.220254
0
LINE
8
Layer 1
10
129.184858
20
114.220254
11
129.165113
21
115.464037
0
LINE
8
Layer 1
10
129.165113
20
115.464037
11
129.118809
21
116.545994
0
LINE
8
Layer 1
10
129.118809
20
116.545994
11
129.209905
21
116.772746
0
LINE
8
Layer 1
10
129.209905
20
116.772746
11
129.385159
21
116.840000
0
LINE
8
Layer 1
10
129.385159
20
116.840000
11
131.463740
21
115.575733
0
LINE
8
Layer 1
10
131.463740
20
115.575733
11
135.923336
21
112.536111
0
LINE
8
Layer 1
10
135.923336
20
112.536111
11
140.390428
21
109.290298
0
LINE
8
Layer 1
10
140.390428
20
109.290298
11
143.623212
21
106.670404
0
LINE
8
Layer 1
10
143.623212
20
106.670404
11
145.560860
21
104.730079
0
LINE
8
Layer 1
10
145.560860
20
104.730079
11
146.024998
21
104.031521
0
LINE
8
Layer 1
10
146.024998
20
104.031521
11
146.142541
21
103.522975
0
LINE
8
Layer 1
10
146.142541
20
103.522975
11
146.020452
21
103.202464
0
LINE
8
Layer 1
10
146.020452
20
103.202464
11
145.737595
21
102.974536
0
LINE
8
Layer 1
10
145.737595
20
102.974536
11
144.566305
21
102.797058
0
LINE
8
Layer 1
10
144.566305
20
102.797058
11
142.382137
21
102.991810
0
LINE
8
Layer 1
10
142.382137
20
102.991810
11
138.938559
21
103.560062
0
LINE
8
Layer 1
10
138.938559
20
103.560062
11
135.471052
21
104.130020
0
LINE
8
Layer 1
10
135.471052
20
104.130020
11
133.005241
21
104.388039
0
LINE
8
Layer 1
10
133.005241
20
104.388039
11
131.436813
21
104.339538
0
LINE
8
Layer 1
10
131.436813
20
104.339538
11
130.661455
21
103.989934
0
LINE
8
Layer 1
10
130.661455
20
103.989934
11
130.455216
21
103.605735
0
LINE
8
Layer 1
10
130.455216
20
103.605735
11
130.432822
21
103.100097
0
LINE
8
Layer 1
10
130.432822
20
103.100097
11
131.080097
21
101.464410
0
LINE
8
Layer 1
10
131.080097
20
101.464410
11
132.884331
21
98.562687
0
LINE
8
Layer 1
10
132.884331
20
98.562687
11
136.126576
21
93.874740
0
LINE
8
Layer 1
10
136.126576
20
93.874740
11
137.653710
21
91.541340
0
LINE
8
Layer 1
10
137.653710
20
91.541340
11
138.288889
21
90.240338
0
LINE
8
Layer 1
10
138.288889
20
90.240338
11
138.253644
21
89.947046
0
LINE
8
Layer 1
10
138.253644
20
89.947046
11
138.103769
21
89.799905
0
LINE
8
Layer 1
10
138.103769
20
89.799905
11
137.195281
21
89.849401
0
LINE
8
Layer 1
10
137.195281
20
89.849401
11
132.435791
21
91.175467
0
LINE
8
Layer 1
10
132.435791
20
91.175467
11
124.154607
21
93.938753
0
LINE
8
Layer 1
10
124.154607
20
93.938753
11
119.017709
21
95.673333
0
LINE
8
Layer 1
10
119.017709
20
95.673333
11
119.268771
21
94.473889
0
LINE
8
Layer 1
10
119.268771
20
94.473889
11
120.174161
21
91.312266
0
LINE
8
Layer 1
10
120.174161
20
91.312266
11
120.734243
21
88.123757
0
LINE
8
Layer 1
10
120.734243
20
88.123757
11
120.878578
21
85.490507
0
LINE
8
Layer 1
10
120.878578
20
85.490507
11
120.772829
21
84.564024
0
LINE
8
Layer 1
10
120.772829
20
84.564024
11
120.536730
21
83.994659
0
LINE
8
Layer 1
10
120.536730
20
83.994659
11
119.877964
21
83.594414
0
LINE
8
Layer 1
10
119.877964
20
83.594414
11
118.922112
21
83.558648
0
LINE
8
Layer 1
10
118.922112
20
83.558648
11
117.741613
21
83.877756
0
LINE
8
Layer 1
10
117.741613
20
83.877756
11
116.408906
21
84.542128
0
LINE
8
Layer 1
10
116.408906
20
84.542128
11
114.869571
21
85.537995
0
LINE
8
Layer 1
10
114.869571
20
85.537995
11
113.358047
21
86.690452
0
LINE
8
Layer 1
10
113.358047
20
86.690452
11
109.449252
21
90.261601
0
LINE
8
Layer 1
10
109.449252
20
90.261601
11
106.715168
21
92.902241
0
LINE
8
Layer 1
10
106.715168
20
92.902241
11
106.571666
21
91.959455
0
LINE
8
Layer 1
10
106.571666
20
91.959455
11
106.278014
21
89.746667
0
LINE
8
Layer 1
10
106.278014
20
89.746667
11
105.747718
21
87.233687
0
LINE
8
Layer 1
10
105.747718
20
87.233687
11
105.334785
21
86.292506
0
LINE
8
Layer 1
10
105.334785
20
86.292506
11
104.809623
21
85.522096
0
LINE
8
Layer 1
10
104.809623
20
85.522096
11
104.002836
21
84.832288
0
LINE
8
Layer 1
10
104.002836
20
84.832288
11
102.920741
21
84.666667
0
LINE
8
Layer 1
10
102.920741
20
84.666667
11
102.240378
21
84.716331
0
LINE
8
Layer 1
10
102.240378
20
84.716331
11
101.667385
21
84.947480
0
LINE
8
Layer 1
10
101.667385
20
84.947480
11
100.048255
21
86.447167
0
LINE
8
Layer 1
10
100.048255
20
86.447167
11
98.349237
21
88.572680
0
LINE
8
Layer 1
10
98.349237
20
88.572680
11
96.660394
21
91.499461
0
LINE
8
Layer 1
10
96.660394
20
91.499461
11
94.975934
21
94.771261
0
LINE
8
Layer 1
10
94.975934
20
94.771261
11
94.375599
21
93.174332
0
LINE
8
Layer 1
10
94.375599
20
93.174332
11
93.276034
21
90.607542
0
LINE
8
Layer 1
10
93.276034
20
90.607542
11
92.036410
21
88.324921
0
LINE
8
Layer 1
10
92.036410
20
88.324921
11
90.710152
21
86.379301
0
LINE
8
Layer 1
10
90.710152
20
86.379301
11
89.350681
21
84.823514
0
LINE
8
Layer 1
10
89.350681
20
84.823514
11
88.011419
21
83.710392
0
LINE
8
Layer 1
10
88.011419
20
83.710392
11
86.745789
21
83.092766
0
LINE
8
Layer 1
10
86.745789
20
83.092766
11
85.607212
21
83.023469
0
LINE
8
Layer 1
10
85.607212
20
83.023469
11
85.102264
21
83.210953
0
LINE
8
Layer 1
10
85.102264
20
83.210953
11
84.649112
21
83.555332
0
LINE
8
Layer 1
10
84.649112
20
83.555332
11
84.015280
21
84.418732
0
LINE
8
Layer 1
10
84.015280
20
84.418732
11
83.417252
21
85.691257
0
LINE
8
Layer 1
10
83.417252
20
85.691257
11
82.868809
21
87.337820
0
LINE
8
Layer 1
10
82.868809
20
87.337820
11
82.383732
21
89.323333
0
LINE
8
Layer 1
10
82.383732
20
89.323333
11
81.848153
21
91.921528
0
LINE
8
Layer 1
10
81.848153
20
91.921528
11
77.963889
21
89.357632
0
LINE
8
Layer 1
10
77.963889
20
89.357632
11
72.675031
21
85.928977
0
LINE
8
Layer 1
10
72.675031
20
85.928977
11
68.504605
21
83.537365
0
LINE
8
Layer 1
10
68.504605
20
83.537365
11
65.536044
21
82.226073
0
LINE
8
Layer 1
10
65.536044
20
82.226073
11
64.528534
21
81.989069
0
LINE
8
Layer 1
10
64.528534
20
81.989069
11
63.852778
21
82.038373
0
LINE
8
Layer 1
10
63.852778
20
82.038373
11
63.852778
21
82.038373
0
LINE
8
Layer 1
10
68.431582
20
84.476342
11
72.020375
21
86.554603
0
LINE
8
Layer 1
10
72.020375
20
86.554603
11
76.695887
21
89.534009
0
LINE
8
Layer 1
10
76.695887
20
89.534009
11
80.624690
21
92.041887
0
LINE
8
Layer 1
10
80.624690
20
92.041887
11
82.418197
21
92.986471
0
LINE
8
Layer 1
10
82.418197
20
92.986471
11
82.610942
21
92.702938
0
LINE
8
Layer 1
10
82.610942
20
92.702938
11
82.691111
21
92.258111
0
LINE
8
Layer 1
10
82.691111
20
92.258111
11
83.211199
21
89.229545
0
LINE
8
Layer 1
10
83.211199
20
89.229545
11
84.149393
21
86.034990
0
LINE
8
Layer 1
10
84.149393
20
86.034990
11
84.739032
21
84.927367
0
LINE
8
Layer 1
10
84.739032
20
84.927367
11
85.366231
21
84.107850
0
LINE
8
Layer 1
10
85.366231
20
84.107850
11
86.051354
21
83.646428
0
LINE
8
Layer 1
10
86.051354
20
83.646428
11
86.891173
21
83.943907
0
LINE
8
Layer 1
10
86.891173
20
83.943907
11
87.851598
21
84.578735
0
LINE
8
Layer 1
10
87.851598
20
84.578735
11
88.842793
21
85.490172
0
LINE
8
Layer 1
10
88.842793
20
85.490172
11
90.822021
21
87.999596
0
LINE
8
Layer 1
10
90.822021
20
87.999596
11
92.637916
21
91.185629
0
LINE
8
Layer 1
10
92.637916
20
91.185629
11
94.099538
21
94.761719
0
LINE
8
Layer 1
10
94.099538
20
94.761719
11
94.551046
21
95.804185
0
LINE
8
Layer 1
10
94.551046
20
95.804185
11
94.948121
21
96.237778
0
LINE
8
Layer 1
10
94.948121
20
96.237778
11
95.433523
21
95.691096
0
LINE
8
Layer 1
10
95.433523
20
95.691096
11
96.097389
21
94.376734
0
LINE
8
Layer 1
10
96.097389
20
94.376734
11
97.065450
21
92.369488
0
LINE
8
Layer 1
10
97.065450
20
92.369488
11
98.280982
21
90.217396
0
LINE
8
Layer 1
10
98.280982
20
90.217396
11
99.519381
21
88.293519
0
LINE
8
Layer 1
10
99.519381
20
88.293519
11
100.556046
21
86.970921
0
LINE
8
Layer 1
10
100.556046
20
86.970921
11
101.468187
21
86.128298
0
LINE
8
Layer 1
10
101.468187
20
86.128298
11
102.281832
21
85.601708
0
LINE
8
Layer 1
10
102.281832
20
85.601708
11
102.987868
21
85.395546
0
LINE
8
Layer 1
10
102.987868
20
85.395546
11
103.577184
21
85.514205
0
LINE
8
Layer 1
10
103.577184
20
85.514205
11
104.021670
21
85.881228
0
LINE
8
Layer 1
10
104.021670
20
85.881228
11
104.439755
21
86.473974
0
LINE
8
Layer 1
10
104.439755
20
86.473974
11
105.156532
21
88.204569
0
LINE
8
Layer 1
10
105.156532
20
88.204569
11
105.647140
21
90.441847
0
LINE
8
Layer 1
10
105.647140
20
90.441847
11
105.831203
21
92.921667
0
LINE
8
Layer 1
10
105.831203
20
92.921667
11
105.922700
21
93.932292
0
LINE
8
Layer 1
10
105.922700
20
93.932292
11
106.198574
21
94.262222
0
LINE
8
Layer 1
10
106.198574
20
94.262222
11
107.380185
21
93.354048
0
LINE
8
Layer 1
10
107.380185
20
93.354048
11
109.708188
21
91.170565
0
LINE
8
Layer 1
10
109.708188
20
91.170565
11
112.923298
21
88.221029
0
LINE
8
Layer 1
10
112.923298
20
88.221029
11
115.840959
21
85.930058
0
LINE
8
Layer 1
10
115.840959
20
85.930058
11
118.148715
21
84.519017
0
LINE
8
Layer 1
10
118.148715
20
84.519017
11
118.976236
21
84.212646
0
LINE
8
Layer 1
10
118.976236
20
84.212646
11
119.534110
21
84.209269
0
LINE
8
Layer 1
10
119.534110
20
84.209269
11
119.867121
21
84.508733
0
LINE
8
Layer 1
10
119.867121
20
84.508733
11
120.074720
21
85.090837
0
LINE
8
Layer 1
10
120.074720
20
85.090837
11
120.119699
21
87.029776
0
LINE
8
Layer 1
10
120.119699
20
87.029776
11
119.681081
21
89.879696
0
LINE
8
Layer 1
10
119.681081
20
89.879696
11
118.770900
21
93.494211
0
LINE
8
Layer 1
10
118.770900
20
93.494211
11
118.197055
21
95.690189
0
LINE
8
Layer 1
10
118.197055
20
95.690189
11
118.052971
21
96.698156
0
LINE
8
Layer 1
10
118.052971
20
96.698156
11
120.058708
21
96.150844
0
LINE
8
Layer 1
10
120.058708
20
96.150844
11
124.653576
21
94.607535
0
LINE
8
Layer 1
10
124.653576
20
94.607535
11
133.773333
21
91.576384
0
LINE
8
Layer 1
10
133.773333
20
91.576384
11
136.807222
21
90.665379
0
LINE
8
Layer 1
10
136.807222
20
90.665379
11
137.112577
21
90.688169
0
LINE
8
Layer 1
10
137.112577
20
90.688169
11
136.876526
21
91.289294
0
LINE
8
Layer 1
10
136.876526
20
91.289294
11
134.344825
21
94.991453
0
LINE
8
Layer 1
10
134.344825
20
94.991453
11
131.572073
21
99.057246
0
LINE
8
Layer 1
10
131.572073
20
99.057246
11
130.076364
21
101.829807
0
LINE
8
Layer 1
10
130.076364
20
101.829807
11
129.767103
21
102.831069
0
LINE
8
Layer 1
10
129.767103
20
102.831069
11
129.728746
21
103.628953
0
LINE
8
Layer 1
10
129.728746
20
103.628953
11
129.945175
21
104.263437
0
LINE
8
Layer 1
10
129.945175
20
104.263437
11
130.400270
21
104.774498
0
LINE
8
Layer 1
10
130.400270
20
104.774498
11
130.834155
21
105.062464
0
LINE
8
Layer 1
10
130.834155
20
105.062464
11
131.342655
21
105.212103
0
LINE
8
Layer 1
10
131.342655
20
105.212103
11
133.208889
21
105.188611
0
LINE
8
Layer 1
10
133.208889
20
105.188611
11
139.217871
21
104.292188
0
LINE
8
Layer 1
10
139.217871
20
104.292188
11
142.315702
21
103.790744
0
LINE
8
Layer 1
10
142.315702
20
103.790744
11
144.297871
21
103.635443
0
LINE
8
Layer 1
10
144.297871
20
103.635443
11
145.485556
21
103.726635
0
LINE
8
Layer 1
10
145.485556
20
103.726635
11
143.634646
21
105.556095
0
LINE
8
Layer 1
10
143.634646
20
105.556095
11
141.326661
21
107.460697
0
LINE
8
Layer 1
10
141.326661
20
107.460697
11
137.407552
21
110.431827
0
LINE
8
Layer 1
10
137.407552
20
110.431827
11
133.259716
21
113.444129
0
LINE
8
Layer 1
10
133.259716
20
113.444129
11
130.265551
21
115.472250
0
LINE
8
Layer 1
10
130.265551
20
115.472250
11
130.132646
21
115.472924
0
LINE
8
Layer 1
10
130.132646
20
115.472924
11
130.024415
21
115.304544
0
LINE
8
Layer 1
10
130.024415
20
115.304544
11
129.894725
21
114.494259
0
LINE
8
Layer 1
10
129.894725
20
114.494259
11
129.684294
21
113.336321
0
LINE
8
Layer 1
10
129.684294
20
113.336321
11
129.122238
21
112.631578
0
LINE
8
Layer 1
10
129.122238
20
112.631578
11
128.061661
21
112.284838
0
LINE
8
Layer 1
10
128.061661
20
112.284838
11
126.355667
21
112.200910
0
LINE
8
Layer 1
10
126.355667
20
112.200910
11
125.021624
21
112.255853
0
LINE
8
Layer 1
10
125.021624
20
112.255853
11
123.782522
21
112.444191
0
LINE
8
Layer 1
10
123.782522
20
112.444191
11
120.297222
21
113.497552
0
LINE
8
Layer 1
10
120.297222
20
113.497552
11
117.656240
21
114.341312
0
LINE
8
Layer 1
10
117.656240
20
114.341312
11
116.557778
21
114.573792
0
LINE
8
Layer 1
10
116.557778
20
114.573792
11
116.981111
21
113.171111
0
LINE
8
Layer 1
10
116.981111
20
113.171111
11
117.267336
21
111.905871
0
LINE
8
Layer 1
10
117.267336
20
111.905871
11
117.390476
21
110.406308
0
LINE
8
Layer 1
10
117.390476
20
110.406308
11
117.341729
21
109.014508
0
LINE
8
Layer 1
10
117.341729
20
109.014508
11
117.112294
21
108.072558
0
LINE
8
Layer 1
10
117.112294
20
108.072558
11
116.610786
21
107.643886
0
LINE
8
Layer 1
10
116.610786
20
107.643886
11
115.553024
21
107.526667
0
LINE
8
Layer 1
10
115.553024
20
107.526667
11
114.699724
21
107.635403
0
LINE
8
Layer 1
10
114.699724
20
107.635403
11
113.645080
21
107.961643
0
LINE
8
Layer 1
10
113.645080
20
107.961643
11
110.931431
21
109.266816
0
LINE
8
Layer 1
10
110.931431
20
109.266816
11
107.411422
21
111.442554
0
LINE
8
Layer 1
10
107.411422
20
111.442554
11
103.084396
21
114.489222
0
LINE
8
Layer 1
10
103.084396
20
114.489222
11
100.975837
21
115.881338
0
LINE
8
Layer 1
10
100.975837
20
115.881338
11
100.578718
21
115.920708
0
LINE
8
Layer 1
10
100.578718
20
115.920708
11
100.471111
21
115.584568
0
LINE
8
Layer 1
10
100.471111
20
115.584568
11
99.756637
21
112.914097
0
LINE
8
Layer 1
10
99.756637
20
112.914097
11
99.184683
21
111.392388
0
LINE
8
Layer 1
10
99.184683
20
111.392388
11
98.534728
21
110.201621
0
LINE
8
Layer 1
10
98.534728
20
110.201621
11
97.806688
21
109.341759
0
LINE
8
Layer 1
10
97.806688
20
109.341759
11
97.000477
21
108.812766
0
LINE
8
Layer 1
10
97.000477
20
108.812766
11
96.116011
21
108.614604
0
LINE
8
Layer 1
10
96.116011
20
108.614604
11
95.153203
21
108.747237
0
LINE
8
Layer 1
10
95.153203
20
108.747237
11
94.111968
21
109.210628
0
LINE
8
Layer 1
10
94.111968
20
109.210628
11
92.992222
21
110.004741
0
LINE
8
Layer 1
10
92.992222
20
110.004741
11
91.962707
21
111.026759
0
LINE
8
Layer 1
10
91.962707
20
111.026759
11
90.887146
21
112.398494
0
LINE
8
Layer 1
10
90.887146
20
112.398494
11
89.837805
21
114.018210
0
LINE
8
Layer 1
10
89.837805
20
114.018210
11
88.886950
21
115.784170
0
LINE
8
Layer 1
10
88.886950
20
115.784170
11
87.822490
21
117.973896
0
LINE
8
Layer 1
10
87.822490
20
117.973896
11
86.834114
21
116.207503
0
LINE
8
Layer 1
10
86.834114
20
116.207503
11
84.908211
21
113.282168
0
LINE
8
Layer 1
10
84.908211
20
113.282168
11
83.938019
21
112.178645
0
LINE
8
Layer 1
10
83.938019
20
112.178645
11
82.989059
21
111.347490
0
LINE
8
Layer 1
10
82.989059
20
111.347490
11
81.940661
21
110.821108
0
LINE
8
Layer 1
10
81.940661
20
110.821108
11
80.762279
21
110.614456
0
LINE
8
Layer 1
10
80.762279
20
110.614456
11
79.619062
21
110.733747
0
LINE
8
Layer 1
10
79.619062
20
110.733747
11
78.676159
21
111.185195
0
LINE
8
Layer 1
10
78.676159
20
111.185195
11
78.052435
21
111.907054
0
LINE
8
Layer 1
10
78.052435
20
111.907054
11
77.453053
21
113.003190
0
LINE
8
Layer 1
10
77.453053
20
113.003190
11
76.952059
21
114.311780
0
LINE
8
Layer 1
10
76.952059
20
114.311780
11
76.623503
21
115.671002
0
LINE
8
Layer 1
10
76.623503
20
115.671002
11
76.422321
21
116.900892
0
LINE
8
Layer 1
10
76.422321
20
116.900892
11
75.111717
21
115.640705
0
LINE
8
Layer 1
10
75.111717
20
115.640705
11
71.499002
21
112.486200
0
LINE
8
Layer 1
10
71.499002
20
112.486200
11
69.871353
21
111.280738
0
LINE
8
Layer 1
10
69.871353
20
111.280738
11
68.564924
21
110.482360
0
LINE
8
Layer 1
10
68.564924
20
110.482360
11
67.135950
21
109.940688
0
LINE
8
Layer 1
10
67.135950
20
109.940688
11
65.840350
21
109.803290
0
LINE
8
Layer 1
10
65.840350
20
109.803290
11
64.753738
21
110.066182
0
LINE
8
Layer 1
10
64.753738
20
110.066182
11
63.951731
21
110.725379
0
LINE
8
Layer 1
10
63.951731
20
110.725379
11
63.647230
21
111.226941
0
LINE
8
Layer 1
10
63.647230
20
111.226941
11
63.473999
21
111.821060
0
LINE
8
Layer 1
10
63.473999
20
111.821060
11
63.406429
21
113.970935
0
LINE
8
Layer 1
10
63.406429
20
113.970935
11
63.599668
21
116.334435
0
LINE
8
Layer 1
10
63.599668
20
116.334435
11
63.997510
21
118.582460
0
LINE
8
Layer 1
10
63.997510
20
118.582460
11
64.541053
21
120.748253
0
LINE
8
Layer 1
10
64.541053
20
120.748253
11
63.103306
21
120.182936
0
LINE
8
Layer 1
10
63.103306
20
120.182936
11
61.242222
21
119.258210
0
LINE
8
Layer 1
10
61.242222
20
119.258210
11
51.538838
21
111.198925
0
LINE
8
Layer 1
10
51.538838
20
111.198925
11
44.961204
21
105.666808
0
LINE
8
Layer 1
10
44.961204
20
105.666808
11
40.681241
21
101.849947
0
LINE
8
Layer 1
10
40.681241
20
101.849947
11
38.150608
21
99.230105
0
LINE
8
Layer 1
10
38.150608
20
99.230105
11
36.820963
21
97.289044
0
LINE
8
Layer 1
10
36.820963
20
97.289044
11
36.205826
21
95.895422
0
LINE
8
Layer 1
10
36.205826
20
95.895422
11
36.215677
21
95.576468
0
LINE
8
Layer 1
10
36.215677
20
95.576468
11
36.406667
21
95.368127
0
LINE
8
Layer 1
10
36.406667
20
95.368127
11
37.343763
21
95.172758
0
LINE
8
Layer 1
10
37.343763
20
95.172758
11
38.983953
21
95.268973
0
LINE
8
Layer 1
10
38.983953
20
95.268973
11
41.099389
21
95.629088
0
LINE
8
Layer 1
10
41.099389
20
95.629088
11
43.462222
21
96.225416
0
LINE
8
Layer 1
10
43.462222
20
96.225416
11
46.703723
21
96.972821
0
LINE
8
Layer 1
10
46.703723
20
96.972821
11
50.750450
21
97.374281
0
LINE
8
Layer 1
10
50.750450
20
97.374281
11
55.336561
21
97.494796
0
LINE
8
Layer 1
10
55.336561
20
97.494796
11
55.560209
21
97.214120
0
LINE
8
Layer 1
10
55.560209
20
97.214120
11
55.429187
21
96.758037
0
LINE
8
Layer 1
10
55.429187
20
96.758037
11
53.826763
21
94.832277
0
LINE
8
Layer 1
10
53.826763
20
94.832277
11
52.408495
21
93.126738
0
LINE
8
Layer 1
10
52.408495
20
93.126738
11
51.357031
21
91.496893
0
LINE
8
Layer 1
10
51.357031
20
91.496893
11
50.725848
21
90.040823
0
LINE
8
Layer 1
10
50.725848
20
90.040823
11
50.568425
21
88.856606
0
LINE
8
Layer 1
10
50.568425
20
88.856606
11
50.646696
21
88.329462
0
LINE
8
Layer 1
10
50.646696
20
88.329462
11
50.821806
21
88.036122
0
LINE
8
Layer 1
10
50.821806
20
88.036122
11
51.875893
21
87.824581
0
LINE
8
Layer 1
10
51.875893
20
87.824581
11
53.694768
21
87.978844
0
LINE
8
Layer 1
10
53.694768
20
87.978844
11
56.378457
21
88.573036
0
LINE
8
Layer 1
10
56.378457
20
88.573036
11
59.619630
21
89.526860
0
LINE
8
Layer 1
10
59.619630
20
89.526860
11
63.110957
21
90.760017
0
LINE
8
Layer 1
10
63.110957
20
90.760017
11
67.414846
21
92.286667
0
LINE
8
Layer 1
10
67.414846
20
92.286667
11
67.672925
21
92.193610
0
LINE
8
Layer 1
10
67.672925
20
92.193610
11
67.649573
21
91.835337
0
LINE
8
Layer 1
10
67.649573
20
91.835337
11
66.599935
21
89.848518
0
LINE
8
Layer 1
10
66.599935
20
89.848518
11
65.632308
21
88.051451
0
LINE
8
Layer 1
10
65.632308
20
88.051451
11
64.926142
21
86.421019
0
LINE
8
Layer 1
10
64.926142
20
86.421019
11
64.493555
21
84.989806
0
LINE
8
Layer 1
10
64.493555
20
84.989806
11
64.346667
21
83.790395
0
LINE
8
Layer 1
10
64.346667
20
83.790395
11
64.444620
21
82.858342
0
LINE
8
Layer 1
10
64.444620
20
82.858342
11
64.635458
21
82.771264
0
LINE
8
Layer 1
10
64.635458
20
82.771264
11
64.981667
21
82.846441
0
LINE
8
Layer 1
10
64.981667
20
82.846441
11
68.431582
21
84.476342
0
LINE
8
Layer 1
10
68.431582
20
84.476342
11
68.431582
21
84.476342
0
LINE
8
Layer 1
10
113.030000
20
109.599772
11
110.995278
21
110.704003
0
LINE
8
Layer 1
10
110.995278
20
110.704003
11
108.542499
21
112.232529
0
LINE
8
Layer 1
10
108.542499
20
112.232529
11
102.795846
21
116.292331
0
LINE
8
Layer 1
10
102.795846
20
116.292331
11
99.778419
21
118.564107
0
LINE
8
Layer 1
10
99.778419
20
118.564107
11
99.430524
21
116.679131
0
LINE
8
Layer 1
10
99.430524
20
116.679131
11
98.761422
21
113.902284
0
LINE
8
Layer 1
10
98.761422
20
113.902284
11
97.921698
21
111.721075
0
LINE
8
Layer 1
10
97.921698
20
111.721075
11
96.989798
21
110.295222
0
LINE
8
Layer 1
10
96.989798
20
110.295222
11
96.513796
21
109.915466
0
LINE
8
Layer 1
10
96.513796
20
109.915466
11
96.044168
21
109.784444
0
LINE
8
Layer 1
10
96.044168
20
109.784444
11
95.107200
21
110.012295
0
LINE
8
Layer 1
10
95.107200
20
110.012295
11
94.094262
21
110.666155
0
LINE
8
Layer 1
10
94.094262
20
110.666155
11
93.036521
21
111.701487
0
LINE
8
Layer 1
10
93.036521
20
111.701487
11
91.965145
21
113.073751
0
LINE
8
Layer 1
10
91.965145
20
113.073751
11
90.911300
21
114.738409
0
LINE
8
Layer 1
10
90.911300
20
114.738409
11
89.906156
21
116.650924
0
LINE
8
Layer 1
10
89.906156
20
116.650924
11
88.980879
21
118.766757
0
LINE
8
Layer 1
10
88.980879
20
118.766757
11
88.166637
21
121.041369
0
LINE
8
Layer 1
10
88.166637
20
121.041369
11
87.993586
21
120.944350
0
LINE
8
Layer 1
10
87.993586
20
120.944350
11
87.614964
21
120.390876
0
LINE
8
Layer 1
10
87.614964
20
120.390876
11
86.464425
21
118.277344
0
LINE
8
Layer 1
10
86.464425
20
118.277344
11
84.656671
21
115.118532
0
LINE
8
Layer 1
10
84.656671
20
115.118532
11
83.776377
21
113.924941
0
LINE
8
Layer 1
10
83.776377
20
113.924941
11
82.916075
21
112.992585
0
LINE
8
Layer 1
10
82.916075
20
112.992585
11
82.078967
21
112.324486
0
LINE
8
Layer 1
10
82.078967
20
112.324486
11
81.268257
21
111.923662
0
LINE
8
Layer 1
10
81.268257
20
111.923662
11
80.487146
21
111.793133
0
LINE
8
Layer 1
10
80.487146
20
111.793133
11
79.738838
21
111.935918
0
LINE
8
Layer 1
10
79.738838
20
111.935918
11
79.352324
21
112.219536
0
LINE
8
Layer 1
10
79.352324
20
112.219536
11
78.972781
21
112.745929
0
LINE
8
Layer 1
10
78.972781
20
112.745929
11
78.289553
21
114.355087
0
LINE
8
Layer 1
10
78.289553
20
114.355087
11
77.799035
21
116.419485
0
LINE
8
Layer 1
10
77.799035
20
116.419485
11
77.611111
21
118.595216
0
LINE
8
Layer 1
10
77.611111
20
118.595216
11
77.611111
21
120.040425
0
LINE
8
Layer 1
10
77.611111
20
120.040425
11
75.019668
21
117.429176
0
LINE
8
Layer 1
10
75.019668
20
117.429176
11
71.403086
21
114.003937
0
LINE
8
Layer 1
10
71.403086
20
114.003937
11
69.973058
21
112.903036
0
LINE
8
Layer 1
10
69.973058
20
112.903036
11
68.446650
21
111.917683
0
LINE
8
Layer 1
10
68.446650
20
111.917683
11
67.165938
21
111.252434
0
LINE
8
Layer 1
10
67.165938
20
111.252434
11
66.146007
21
110.953569
0
LINE
8
Layer 1
10
66.146007
20
110.953569
11
65.394995
21
111.022147
0
LINE
8
Layer 1
10
65.394995
20
111.022147
11
64.921040
21
111.459224
0
LINE
8
Layer 1
10
64.921040
20
111.459224
11
64.726886
21
112.115400
0
LINE
8
Layer 1
10
64.726886
20
112.115400
11
64.649252
21
113.084150
0
LINE
8
Layer 1
10
64.649252
20
113.084150
11
64.809851
21
115.683364
0
LINE
8
Layer 1
10
64.809851
20
115.683364
11
65.335444
21
118.704850
0
LINE
8
Layer 1
10
65.335444
20
118.704850
11
66.158638
21
121.596587
0
LINE
8
Layer 1
10
66.158638
20
121.596587
11
66.462517
21
122.613292
0
LINE
8
Layer 1
10
66.462517
20
122.613292
11
66.369639
21
122.702125
0
LINE
8
Layer 1
10
66.369639
20
122.702125
11
66.108397
21
122.615788
0
LINE
8
Layer 1
10
66.108397
20
122.615788
11
58.219005
21
119.890037
0
LINE
8
Layer 1
10
58.219005
20
119.890037
11
50.553815
21
117.437368
0
LINE
8
Layer 1
10
50.553815
20
117.437368
11
49.562532
21
117.307335
0
LINE
8
Layer 1
10
49.562532
20
117.307335
11
49.013245
21
117.388296
0
LINE
8
Layer 1
10
49.013245
20
117.388296
11
48.998880
21
117.886207
0
LINE
8
Layer 1
10
48.998880
20
117.886207
11
49.457485
21
118.895162
0
LINE
8
Layer 1
10
49.457485
20
118.895162
11
51.814628
21
122.484444
0
LINE
8
Layer 1
10
51.814628
20
122.484444
11
54.883731
21
127.191310
0
LINE
8
Layer 1
10
54.883731
20
127.191310
11
55.818650
21
128.945621
0
LINE
8
Layer 1
10
55.818650
20
128.945621
11
56.162222
21
129.970612
0
LINE
8
Layer 1
10
56.162222
20
129.970612
11
56.082705
21
130.465548
0
LINE
8
Layer 1
10
56.082705
20
130.465548
11
55.822947
21
130.834190
0
LINE
8
Layer 1
10
55.822947
20
130.834190
11
55.351137
21
131.078909
0
LINE
8
Layer 1
10
55.351137
20
131.078909
11
54.635462
21
131.202074
0
LINE
8
Layer 1
10
54.635462
20
131.202074
11
52.345276
21
131.093218
0
LINE
8
Layer 1
10
52.345276
20
131.093218
11
48.697899
21
130.526578
0
LINE
8
Layer 1
10
48.697899
20
130.526578
11
43.406232
21
129.822222
0
LINE
8
Layer 1
10
43.406232
20
129.822222
11
42.254010
21
129.930393
0
LINE
8
Layer 1
10
42.254010
20
129.930393
11
42.084851
21
130.147103
0
LINE
8
Layer 1
10
42.084851
20
130.147103
11
42.051111
21
130.544672
0
LINE
8
Layer 1
10
42.051111
20
130.544672
11
42.162596
21
131.009132
0
LINE
8
Layer 1
10
42.162596
20
131.009132
11
42.491300
21
131.586970
0
LINE
8
Layer 1
10
42.491300
20
131.586970
11
43.765873
21
133.048700
0
LINE
8
Layer 1
10
43.765873
20
133.048700
11
45.805843
21
134.861702
0
LINE
8
Layer 1
10
45.805843
20
134.861702
11
48.542222
21
136.957816
0
LINE
8
Layer 1
10
48.542222
20
136.957816
11
56.198934
21
142.568354
0
LINE
8
Layer 1
10
56.198934
20
142.568354
11
60.624915
21
145.626667
0
LINE
8
Layer 1
10
60.624915
20
145.626667
11
60.883338
21
145.473442
0
LINE
8
Layer 1
10
60.883338
20
145.473442
11
61.087516
21
145.105052
0
LINE
8
Layer 1
10
61.087516
20
145.105052
11
61.327116
21
144.670891
0
LINE
8
Layer 1
10
61.327116
20
144.670891
11
61.740765
21
144.341125
0
LINE
8
Layer 1
10
61.740765
20
144.341125
11
63.112253
21
143.992993
0
LINE
8
Layer 1
10
63.112253
20
143.992993
11
65.246068
21
144.057081
0
LINE
8
Layer 1
10
65.246068
20
144.057081
11
68.186294
21
144.529818
0
LINE
8
Layer 1
10
68.186294
20
144.529818
11
70.331388
21
144.899105
0
LINE
8
Layer 1
10
70.331388
20
144.899105
11
71.326954
21
144.949345
0
LINE
8
Layer 1
10
71.326954
20
144.949345
11
71.265595
21
144.296540
0
LINE
8
Layer 1
10
71.265595
20
144.296540
11
70.869573
21
142.975530
0
LINE
8
Layer 1
10
70.869573
20
142.975530
11
70.440657
21
141.378653
0
LINE
8
Layer 1
10
70.440657
20
141.378653
11
70.324839
21
140.086563
0
LINE
8
Layer 1
10
70.324839
20
140.086563
11
70.534363
21
139.163810
0
LINE
8
Layer 1
10
70.534363
20
139.163810
11
70.788005
21
138.986508
0
LINE
8
Layer 1
10
70.788005
20
138.986508
11
71.212586
21
138.903019
0
LINE
8
Layer 1
10
71.212586
20
138.903019
11
72.423524
21
139.115584
0
LINE
8
Layer 1
10
72.423524
20
139.115584
11
74.308782
21
139.937233
0
LINE
8
Layer 1
10
74.308782
20
139.937233
11
76.829166
21
141.348103
0
LINE
8
Layer 1
10
76.829166
20
141.348103
11
79.945478
21
143.328331
0
LINE
8
Layer 1
10
79.945478
20
143.328331
11
84.144493
21
145.908889
0
LINE
8
Layer 1
10
84.144493
20
145.908889
11
84.924962
21
145.380785
0
LINE
8
Layer 1
10
84.924962
20
145.380785
11
86.362684
21
144.111088
0
LINE
8
Layer 1
10
86.362684
20
144.111088
11
88.689934
21
142.098243
0
LINE
8
Layer 1
10
88.689934
20
142.098243
11
90.717328
21
140.716278
0
LINE
8
Layer 1
10
90.717328
20
140.716278
11
92.376447
21
140.004061
0
LINE
8
Layer 1
10
92.376447
20
140.004061
11
93.046523
21
139.911253
0
LINE
8
Layer 1
10
93.046523
20
139.911253
11
93.598873
21
140.000457
0
LINE
8
Layer 1
10
93.598873
20
140.000457
11
94.193578
21
140.494290
0
LINE
8
Layer 1
10
94.193578
20
140.494290
11
94.586977
21
141.450481
0
LINE
8
Layer 1
10
94.586977
20
141.450481
11
94.775037
21
142.852668
0
LINE
8
Layer 1
10
94.775037
20
142.852668
11
94.753724
21
144.684490
0
LINE
8
Layer 1
10
94.753724
20
144.684490
11
94.714521
21
146.554452
0
LINE
8
Layer 1
10
94.714521
20
146.554452
11
94.806845
21
146.930071
0
LINE
8
Layer 1
10
94.806845
20
146.930071
11
94.984062
21
147.037778
0
LINE
8
Layer 1
10
94.984062
20
147.037778
11
95.814414
21
146.610447
0
LINE
8
Layer 1
10
95.814414
20
146.610447
11
97.281165
21
145.583035
0
LINE
8
Layer 1
10
97.281165
20
145.583035
11
98.974690
21
144.435836
0
LINE
8
Layer 1
10
98.974690
20
144.435836
11
100.858027
21
143.356096
0
LINE
8
Layer 1
10
100.858027
20
143.356096
11
102.533539
21
142.554066
0
LINE
8
Layer 1
10
102.533539
20
142.554066
11
103.603592
21
142.240000
0
LINE
8
Layer 1
10
103.603592
20
142.240000
11
104.236454
21
142.401275
0
LINE
8
Layer 1
10
104.236454
20
142.401275
11
104.555177
21
142.899371
0
LINE
8
Layer 1
10
104.555177
20
142.899371
11
104.564955
21
143.755699
0
LINE
8
Layer 1
10
104.564955
20
143.755699
11
104.270979
21
144.991667
0
LINE
8
Layer 1
10
104.270979
20
144.991667
11
104.260423
21
145.487468
0
LINE
8
Layer 1
10
104.260423
20
145.487468
11
104.739001
21
145.598413
0
LINE
8
Layer 1
10
104.739001
20
145.598413
11
105.836696
21
145.309856
0
LINE
8
Layer 1
10
105.836696
20
145.309856
11
107.683489
21
144.607150
0
LINE
8
Layer 1
10
107.683489
20
144.607150
11
109.818091
21
143.867979
0
LINE
8
Layer 1
10
109.818091
20
143.867979
11
111.654364
21
143.459958
0
LINE
8
Layer 1
10
111.654364
20
143.459958
11
112.989053
21
143.412294
0
LINE
8
Layer 1
10
112.989053
20
143.412294
11
113.404787
21
143.532725
0
LINE
8
Layer 1
10
113.404787
20
143.532725
11
113.618905
21
143.754198
0
LINE
8
Layer 1
10
113.618905
20
143.754198
11
113.705875
21
144.376017
0
LINE
8
Layer 1
10
113.705875
20
144.376017
11
113.512540
21
145.144148
0
LINE
8
Layer 1
10
113.512540
20
145.144148
11
112.183858
21
147.374387
0
LINE
8
Layer 1
10
112.183858
20
147.374387
11
110.662891
21
149.676105
0
LINE
8
Layer 1
10
110.662891
20
149.676105
11
110.389106
21
150.280678
0
LINE
8
Layer 1
10
110.389106
20
150.280678
11
110.408277
21
150.577908
0
LINE
8
Layer 1
10
110.408277
20
150.577908
11
112.304909
21
150.243678
0
LINE
8
Layer 1
10
112.304909
20
150.243678
11
113.335508
21
149.895781
0
LINE
8
Layer 1
10
113.335508
20
149.895781
11
114.279812
21
149.355787
0
LINE
8
Layer 1
10
114.279812
20
149.355787
11
117.218968
21
146.775297
0
LINE
8
Layer 1
10
117.218968
20
146.775297
11
127.574291
21
137.271709
0
LINE
8
Layer 1
10
127.574291
20
137.271709
11
133.287746
21
132.006845
0
LINE
8
Layer 1
10
133.287746
20
132.006845
11
137.219132
21
128.172870
0
LINE
8
Layer 1
10
137.219132
20
128.172870
11
139.668984
21
125.461518
0
LINE
8
Layer 1
10
139.668984
20
125.461518
11
140.937841
21
123.564526
0
LINE
8
Layer 1
10
140.937841
20
123.564526
11
141.449409
21
122.292591
0
LINE
8
Layer 1
10
141.449409
20
122.292591
11
141.586559
21
121.314539
0
LINE
8
Layer 1
10
141.586559
20
121.314539
11
141.335836
21
120.626272
0
LINE
8
Layer 1
10
141.335836
20
120.626272
11
140.683783
21
120.223690
0
LINE
8
Layer 1
10
140.683783
20
120.223690
11
139.616947
21
120.102696
0
LINE
8
Layer 1
10
139.616947
20
120.102696
11
138.121873
21
120.259191
0
LINE
8
Layer 1
10
138.121873
20
120.259191
11
133.793190
21
121.388254
0
LINE
8
Layer 1
10
133.793190
20
121.388254
11
130.987371
21
122.092032
0
LINE
8
Layer 1
10
130.987371
20
122.092032
11
127.806664
21
122.431449
0
LINE
8
Layer 1
10
127.806664
20
122.431449
11
124.481392
21
122.630356
0
LINE
8
Layer 1
10
124.481392
20
122.630356
11
125.276449
21
121.781288
0
LINE
8
Layer 1
10
125.276449
20
121.781288
11
126.645043
21
120.087101
0
LINE
8
Layer 1
10
126.645043
20
120.087101
11
127.727468
21
118.285417
0
LINE
8
Layer 1
10
127.727468
20
118.285417
11
128.437525
21
116.546503
0
LINE
8
Layer 1
10
128.437525
20
116.546503
11
128.689013
21
115.040627
0
LINE
8
Layer 1
10
128.689013
20
115.040627
11
128.603651
21
114.153686
0
LINE
8
Layer 1
10
128.603651
20
114.153686
11
128.285933
21
113.634890
0
LINE
8
Layer 1
10
128.285933
20
113.634890
11
127.627251
21
113.400452
0
LINE
8
Layer 1
10
127.627251
20
113.400452
11
126.518995
21
113.366590
0
LINE
8
Layer 1
10
126.518995
20
113.366590
11
124.351068
21
113.659428
0
LINE
8
Layer 1
10
124.351068
20
113.659428
11
121.522870
21
114.424883
0
LINE
8
Layer 1
10
121.522870
20
114.424883
11
118.084880
21
115.646944
0
LINE
8
Layer 1
10
118.084880
20
115.646944
11
114.087577
21
117.309598
0
LINE
8
Layer 1
10
114.087577
20
117.309598
11
114.014979
21
117.239645
0
LINE
8
Layer 1
10
114.014979
20
117.239645
11
114.078654
21
116.933996
0
LINE
8
Layer 1
10
114.078654
20
116.933996
11
114.553650
21
115.812152
0
LINE
8
Layer 1
10
114.553650
20
115.812152
11
115.612119
21
113.254692
0
LINE
8
Layer 1
10
115.612119
20
113.254692
11
116.163129
21
111.018990
0
LINE
8
Layer 1
10
116.163129
20
111.018990
11
116.163487
21
109.406506
0
LINE
8
Layer 1
10
116.163487
20
109.406506
11
115.943674
21
108.928177
0
LINE
8
Layer 1
10
115.943674
20
108.928177
11
115.570000
21
108.718700
0
LINE
8
Layer 1
10
115.570000
20
108.718700
11
114.591042
21
108.945354
0
LINE
8
Layer 1
10
114.591042
20
108.945354
11
113.030000
21
109.599772
0
LINE
8
Layer 1
10
113.030000
20
109.599772
11
113.030000
21
109.599772
0
LINE
8
Layer 1
10
115.428889
20
110.445818
11
115.276041
21
111.563845
0
LINE
8
Layer 1
10
115.276041
20
111.563845
11
114.857060
21
113.013854
0
LINE
8
Layer 1
10
114.857060
20
113.013854
11
113.458092
21
116.214914
0
LINE
8
Layer 1
10
113.458092
20
116.214914
11
112.655725
21
118.013223
0
LINE
8
Layer 1
10
112.655725
20
118.013223
11
112.677055
21
118.410742
0
LINE
8
Layer 1
10
112.677055
20
118.410742
11
112.967471
21
118.533333
0
LINE
8
Layer 1
10
112.967471
20
118.533333
11
116.142471
21
117.297084
0
LINE
8
Layer 1
10
116.142471
20
117.297084
11
119.094757
21
116.098895
0
LINE
8
Layer 1
10
119.094757
20
116.098895
11
121.919996
21
115.131360
0
LINE
8
Layer 1
10
121.919996
20
115.131360
11
124.358826
21
114.474513
0
LINE
8
Layer 1
10
124.358826
20
114.474513
11
126.151883
21
114.208388
0
LINE
8
Layer 1
10
126.151883
20
114.208388
11
127.705556
21
114.158889
0
LINE
8
Layer 1
10
127.705556
20
114.158889
11
127.793098
21
115.216401
0
LINE
8
Layer 1
10
127.793098
20
115.216401
11
127.630761
21
116.409232
0
LINE
8
Layer 1
10
127.630761
20
116.409232
11
127.020394
21
117.882134
0
LINE
8
Layer 1
10
127.020394
20
117.882134
11
126.027880
21
119.507748
0
LINE
8
Layer 1
10
126.027880
20
119.507748
11
124.719103
21
121.158720
0
LINE
8
Layer 1
10
124.719103
20
121.158720
11
123.738834
21
122.348900
0
LINE
8
Layer 1
10
123.738834
20
122.348900
11
123.331111
21
123.023562
0
LINE
8
Layer 1
10
123.331111
20
123.023562
11
124.032129
21
123.246213
0
LINE
8
Layer 1
10
124.032129
20
123.246213
11
125.776459
21
123.322899
0
LINE
8
Layer 1
10
125.776459
20
123.322899
11
128.026018
21
123.252740
0
LINE
8
Layer 1
10
128.026018
20
123.252740
11
130.242722
21
123.034857
0
LINE
8
Layer 1
10
130.242722
20
123.034857
11
132.423940
21
122.581109
0
LINE
8
Layer 1
10
132.423940
20
122.581109
11
134.897938
21
121.890502
0
LINE
8
Layer 1
10
134.897938
20
121.890502
11
137.139532
21
121.280150
0
LINE
8
Layer 1
10
137.139532
20
121.280150
11
138.971772
21
120.990633
0
LINE
8
Layer 1
10
138.971772
20
120.990633
11
140.234828
21
121.034630
0
LINE
8
Layer 1
10
140.234828
20
121.034630
11
140.602965
21
121.185658
0
LINE
8
Layer 1
10
140.602965
20
121.185658
11
140.768869
21
121.424819
0
LINE
8
Layer 1
10
140.768869
20
121.424819
11
140.647598
21
122.160391
0
LINE
8
Layer 1
10
140.647598
20
122.160391
11
140.214333
21
123.237165
0
LINE
8
Layer 1
10
140.214333
20
123.237165
11
139.700558
21
124.140637
0
LINE
8
Layer 1
10
139.700558
20
124.140637
11
138.894631
21
125.210406
0
LINE
8
Layer 1
10
138.894631
20
125.210406
11
135.489543
21
128.735293
0
LINE
8
Layer 1
10
135.489543
20
128.735293
11
128.165524
21
135.584741
0
LINE
8
Layer 1
10
128.165524
20
135.584741
11
115.089028
21
147.531667
0
LINE
8
Layer 1
10
115.089028
20
147.531667
11
112.902625
21
149.295556
0
LINE
8
Layer 1
10
112.902625
20
149.295556
11
112.159768
21
149.484763
0
LINE
8
Layer 1
10
112.159768
20
149.484763
11
111.980757
21
149.500920
0
LINE
8
Layer 1
10
111.980757
20
149.500920
11
111.985535
21
149.330626
0
LINE
8
Layer 1
10
111.985535
20
149.330626
11
112.574265
21
148.354872
0
LINE
8
Layer 1
10
112.574265
20
148.354872
11
113.968485
21
145.938079
0
LINE
8
Layer 1
10
113.968485
20
145.938079
11
114.408261
21
144.884350
0
LINE
8
Layer 1
10
114.408261
20
144.884350
11
114.576025
21
144.145000
0
LINE
8
Layer 1
10
114.576025
20
144.145000
11
114.402854
21
143.546413
0
LINE
8
Layer 1
10
114.402854
20
143.546413
11
113.931880
21
143.026920
0
LINE
8
Layer 1
10
113.931880
20
143.026920
11
113.259003
21
142.660772
0
LINE
8
Layer 1
10
113.259003
20
142.660772
11
112.480124
21
142.522222
0
LINE
8
Layer 1
10
112.480124
20
142.522222
11
111.230954
21
142.718818
0
LINE
8
Layer 1
10
111.230954
20
142.718818
11
109.378289
21
143.202981
0
LINE
8
Layer 1
10
109.378289
20
143.202981
11
106.036731
21
144.400281
0
LINE
8
Layer 1
10
106.036731
20
144.400281
11
105.379929
21
144.654899
0
LINE
8
Layer 1
10
105.379929
20
144.654899
11
105.432327
21
144.085968
0
LINE
8
Layer 1
10
105.432327
20
144.085968
11
105.529843
21
143.267454
0
LINE
8
Layer 1
10
105.529843
20
143.267454
11
105.387867
21
142.584685
0
LINE
8
Layer 1
10
105.387867
20
142.584685
11
105.016226
21
142.060746
0
LINE
8
Layer 1
10
105.016226
20
142.060746
11
104.424745
21
141.718724
0
LINE
8
Layer 1
10
104.424745
20
141.718724
11
103.322250
21
141.602972
0
LINE
8
Layer 1
10
103.322250
20
141.602972
11
101.927812
21
141.939250
0
LINE
8
Layer 1
10
101.927812
20
141.939250
11
100.206444
21
142.740329
0
LINE
8
Layer 1
10
100.206444
20
142.740329
11
98.123163
21
144.018979
0
LINE
8
Layer 1
10
98.123163
20
144.018979
11
95.496894
21
145.774935
0
LINE
8
Layer 1
10
95.496894
20
145.774935
11
95.618314
21
144.310749
0
LINE
8
Layer 1
10
95.618314
20
144.310749
11
95.610957
21
142.829483
0
LINE
8
Layer 1
10
95.610957
20
142.829483
11
95.381637
21
141.410202
0
LINE
8
Layer 1
10
95.381637
20
141.410202
11
94.979184
21
140.252114
0
LINE
8
Layer 1
10
94.979184
20
140.252114
11
94.452429
21
139.554427
0
LINE
8
Layer 1
10
94.452429
20
139.554427
11
93.801631
21
139.254537
0
LINE
8
Layer 1
10
93.801631
20
139.254537
11
93.027240
21
139.171474
0
LINE
8
Layer 1
10
93.027240
20
139.171474
11
92.140597
21
139.300435
0
LINE
8
Layer 1
10
92.140597
20
139.300435
11
91.153040
21
139.636614
0
LINE
8
Layer 1
10
91.153040
20
139.636614
11
88.920545
21
140.911410
0
LINE
8
Layer 1
10
88.920545
20
140.911410
11
86.420475
21
142.957426
0
LINE
8
Layer 1
10
86.420475
20
142.957426
11
84.122675
21
145.092126
0
LINE
8
Layer 1
10
84.122675
20
145.092126
11
80.492498
21
142.691798
0
LINE
8
Layer 1
10
80.492498
20
142.691798
11
76.471473
21
140.201611
0
LINE
8
Layer 1
10
76.471473
20
140.201611
11
73.366436
21
138.649711
0
LINE
8
Layer 1
10
73.366436
20
138.649711
11
72.165826
21
138.229059
0
LINE
8
Layer 1
10
72.165826
20
138.229059
11
71.204309
21
138.047109
0
LINE
8
Layer 1
10
71.204309
20
138.047109
11
70.485248
21
138.105236
0
LINE
8
Layer 1
10
70.485248
20
138.105236
11
70.012010
21
138.404817
0
LINE
8
Layer 1
10
70.012010
20
138.404817
11
69.669797
21
139.085650
0
LINE
8
Layer 1
10
69.669797
20
139.085650
11
69.520887
21
140.019183
0
LINE
8
Layer 1
10
69.520887
20
140.019183
11
69.569317
21
141.123500
0
LINE
8
Layer 1
10
69.569317
20
141.123500
11
69.819128
21
142.316683
0
LINE
8
Layer 1
10
69.819128
20
142.316683
11
70.273333
21
144.012864
0
LINE
8
Layer 1
10
70.273333
20
144.012864
11
68.368333
21
143.724805
0
LINE
8
Layer 1
10
68.368333
20
143.724805
11
66.345939
21
143.415845
0
LINE
8
Layer 1
10
66.345939
20
143.415845
11
64.158693
21
143.265378
0
LINE
8
Layer 1
10
64.158693
20
143.265378
11
62.116328
21
143.346347
0
LINE
8
Layer 1
10
62.116328
20
143.346347
11
61.529859
21
143.530207
0
LINE
8
Layer 1
10
61.529859
20
143.530207
11
61.011085
21
143.850975
0
LINE
8
Layer 1
10
61.011085
20
143.850975
11
60.168115
21
144.474173
0
LINE
8
Layer 1
10
60.168115
20
144.474173
11
57.812392
21
142.709333
0
LINE
8
Layer 1
10
57.812392
20
142.709333
11
50.432860
21
137.302271
0
LINE
8
Layer 1
10
50.432860
20
137.302271
11
46.495229
21
134.311352
0
LINE
8
Layer 1
10
46.495229
20
134.311352
11
44.082860
21
132.235025
0
LINE
8
Layer 1
10
44.082860
20
132.235025
11
42.756667
21
130.810000
0
LINE
8
Layer 1
10
42.756667
20
130.810000
11
43.890590
21
130.726420
0
LINE
8
Layer 1
10
43.890590
20
130.726420
11
45.917842
21
130.878473
0
LINE
8
Layer 1
10
45.917842
20
130.878473
11
49.199554
21
131.361420
0
LINE
8
Layer 1
10
49.199554
20
131.361420
11
52.434755
21
131.878408
0
LINE
8
Layer 1
10
52.434755
20
131.878408
11
54.421438
21
132.054037
0
LINE
8
Layer 1
10
54.421438
20
132.054037
11
55.576330
21
131.889820
0
LINE
8
Layer 1
10
55.576330
20
131.889820
11
56.316160
21
131.387271
0
LINE
8
Layer 1
10
56.316160
20
131.387271
11
56.805400
21
130.780334
0
LINE
8
Layer 1
10
56.805400
20
130.780334
11
57.008889
21
130.293866
0
LINE
8
Layer 1
10
57.008889
20
130.293866
11
56.783723
21
129.238469
0
LINE
8
Layer 1
10
56.783723
20
129.238469
11
56.077780
21
127.701109
0
LINE
8
Layer 1
10
56.077780
20
127.701109
11
53.040887
21
122.837222
0
LINE
8
Layer 1
10
53.040887
20
122.837222
11
50.736961
21
119.266582
0
LINE
8
Layer 1
10
50.736961
20
119.266582
11
50.365731
21
118.489437
0
LINE
8
Layer 1
10
50.365731
20
118.489437
11
50.440440
21
118.252991
0
LINE
8
Layer 1
10
50.440440
20
118.252991
11
58.420000
21
120.814352
0
LINE
8
Layer 1
10
58.420000
20
120.814352
11
66.715152
21
123.531509
0
LINE
8
Layer 1
10
66.715152
20
123.531509
11
67.244275
21
123.606031
0
LINE
8
Layer 1
10
67.244275
20
123.606031
11
67.370033
21
123.519767
0
LINE
8
Layer 1
10
67.370033
20
123.519767
11
67.399005
21
123.282825
0
LINE
8
Layer 1
10
67.399005
20
123.282825
11
66.483298
21
119.803333
0
LINE
8
Layer 1
10
66.483298
20
119.803333
11
65.475207
21
115.467452
0
LINE
8
Layer 1
10
65.475207
20
115.467452
11
65.286760
21
113.830258
0
LINE
8
Layer 1
10
65.286760
20
113.830258
11
65.329808
21
112.677222
0
LINE
8
Layer 1
10
65.329808
20
112.677222
11
65.600787
21
111.946817
0
LINE
8
Layer 1
10
65.600787
20
111.946817
11
66.161739
21
111.760000
0
LINE
8
Layer 1
10
66.161739
20
111.760000
11
67.355441
21
112.170533
0
LINE
8
Layer 1
10
67.355441
20
112.170533
11
69.138113
21
113.353382
0
LINE
8
Layer 1
10
69.138113
20
113.353382
11
71.412946
21
115.235418
0
LINE
8
Layer 1
10
71.412946
20
115.235418
11
74.083127
21
117.743515
0
LINE
8
Layer 1
10
74.083127
20
117.743515
11
76.777824
21
120.259247
0
LINE
8
Layer 1
10
76.777824
20
120.259247
11
78.104794
21
121.226501
0
LINE
8
Layer 1
10
78.104794
20
121.226501
11
78.370902
21
120.604674
0
LINE
8
Layer 1
10
78.370902
20
120.604674
11
78.457778
21
118.979417
0
LINE
8
Layer 1
10
78.457778
20
118.979417
11
78.625743
21
116.374561
0
LINE
8
Layer 1
10
78.625743
20
116.374561
11
79.099864
21
114.362719
0
LINE
8
Layer 1
10
79.099864
20
114.362719
11
79.835479
21
113.066038
0
LINE
8
Layer 1
10
79.835479
20
113.066038
11
80.287388
21
112.724054
0
LINE
8
Layer 1
10
80.287388
20
112.724054
11
80.787923
21
112.606667
0
LINE
8
Layer 1
10
80.787923
20
112.606667
11
81.347340
21
112.763036
0
LINE
8
Layer 1
10
81.347340
20
112.763036
11
81.994760
21
113.217127
0
LINE
8
Layer 1
10
81.994760
20
113.217127
11
83.488383
21
114.928357
0
LINE
8
Layer 1
10
83.488383
20
114.928357
11
85.138338
21
117.560131
0
LINE
8
Layer 1
10
85.138338
20
117.560131
11
86.814172
21
120.932222
0
LINE
8
Layer 1
10
86.814172
20
120.932222
11
87.542327
21
122.327458
0
LINE
8
Layer 1
10
87.542327
20
122.327458
11
88.053421
21
122.907778
0
LINE
8
Layer 1
10
88.053421
20
122.907778
11
88.494212
21
122.325675
0
LINE
8
Layer 1
10
88.494212
20
122.325675
11
89.053343
21
120.926154
0
LINE
8
Layer 1
10
89.053343
20
120.926154
11
90.515143
21
117.137843
0
LINE
8
Layer 1
10
90.515143
20
117.137843
11
92.253966
21
114.065933
0
LINE
8
Layer 1
10
92.253966
20
114.065933
11
93.215189
21
112.812896
0
LINE
8
Layer 1
10
93.215189
20
112.812896
11
94.252765
21
111.711770
0
LINE
8
Layer 1
10
94.252765
20
111.711770
11
95.192015
21
110.929020
0
LINE
8
Layer 1
10
95.192015
20
110.929020
11
95.858262
21
110.631111
0
LINE
8
Layer 1
10
95.858262
20
110.631111
11
96.241200
21
110.776772
0
LINE
8
Layer 1
10
96.241200
20
110.776772
11
96.645496
21
111.193921
0
LINE
8
Layer 1
10
96.645496
20
111.193921
11
97.468459
21
112.723673
0
LINE
8
Layer 1
10
97.468459
20
112.723673
11
98.227743
21
114.982354
0
LINE
8
Layer 1
10
98.227743
20
114.982354
11
98.823941
21
117.731949
0
LINE
8
Layer 1
10
98.823941
20
117.731949
11
99.133222
21
119.095204
0
LINE
8
Layer 1
10
99.133222
20
119.095204
11
99.429166
21
119.662222
0
LINE
8
Layer 1
10
99.429166
20
119.662222
11
101.857251
21
118.019139
0
LINE
8
Layer 1
10
101.857251
20
118.019139
11
106.014111
21
114.973997
0
LINE
8
Layer 1
10
106.014111
20
114.973997
11
110.070246
21
112.236793
0
LINE
8
Layer 1
10
110.070246
20
112.236793
11
113.321638
21
110.261532
0
LINE
8
Layer 1
10
113.321638
20
110.261532
11
114.425550
21
109.701508
0
LINE
8
Layer 1
10
114.425550
20
109.701508
11
115.064269
21
109.502222
0
LINE
8
Layer 1
10
115.064269
20
109.502222
11
115.331070
21
109.755367
0
LINE
8
Layer 1
10
115.331070
20
109.755367
11
115.428889
21
110.445818
0
LINE
8
Layer 1
10
115.428889
20
110.445818
11
115.428889
21
110.445818
0
LINE
8
Layer 1
10
70.895281
20
140.954032
11
71.226185
21
142.554388
0
LINE
8
Layer 1
10
71.226185
20
142.554388
11
71.901423
21
144.263209
0
LINE
8
Layer 1
10
71.901423
20
144.263209
11
72.726194
21
146.081366
0
LINE
8
Layer 1
10
72.726194
20
146.081366
11
69.991111
21
145.429467
0
LINE
8
Layer 1
10
69.991111
20
145.429467
11
67.460933
21
144.898877
0
LINE
8
Layer 1
10
67.460933
20
144.898877
11
64.997811
21
144.590277
0
LINE
8
Layer 1
10
64.997811
20
144.590277
11
63.021799
21
144.537832
0
LINE
8
Layer 1
10
63.021799
20
144.537832
11
61.952951
21
144.775705
0
LINE
8
Layer 1
10
61.952951
20
144.775705
11
61.600461
21
145.216217
0
LINE
8
Layer 1
10
61.600461
20
145.216217
11
61.504410
21
145.728373
0
LINE
8
Layer 1
10
61.504410
20
145.728373
11
61.656595
21
146.301770
0
LINE
8
Layer 1
10
61.656595
20
146.301770
11
62.048816
21
146.926008
0
LINE
8
Layer 1
10
62.048816
20
146.926008
11
63.520556
21
148.285391
0
LINE
8
Layer 1
10
63.520556
20
148.285391
11
65.854013
21
149.723306
0
LINE
8
Layer 1
10
65.854013
20
149.723306
11
67.300894
21
150.584841
0
LINE
8
Layer 1
10
67.300894
20
150.584841
11
67.813005
21
151.088299
0
LINE
8
Layer 1
10
67.813005
20
151.088299
11
67.071831
21
151.225919
0
LINE
8
Layer 1
10
67.071831
20
151.225919
11
65.438015
21
151.109072
0
LINE
8
Layer 1
10
65.438015
20
151.109072
11
60.960000
21
150.284177
0
LINE
8
Layer 1
10
60.960000
20
150.284177
11
57.334640
21
149.508328
0
LINE
8
Layer 1
10
57.334640
20
149.508328
11
54.366431
21
149.134532
0
LINE
8
Layer 1
10
54.366431
20
149.134532
11
52.176146
21
149.170692
0
LINE
8
Layer 1
10
52.176146
20
149.170692
11
51.410466
21
149.344976
0
LINE
8
Layer 1
10
51.410466
20
149.344976
11
50.884557
21
149.624714
0
LINE
8
Layer 1
10
50.884557
20
149.624714
11
50.576461
21
150.088186
0
LINE
8
Layer 1
10
50.576461
20
150.088186
11
50.579480
21
150.725487
0
LINE
8
Layer 1
10
50.579480
20
150.725487
11
50.898193
21
151.557534
0
LINE
8
Layer 1
10
50.898193
20
151.557534
11
51.537181
21
152.605240
0
LINE
8
Layer 1
10
51.537181
20
152.605240
11
52.745451
21
154.031332
0
LINE
8
Layer 1
10
52.745451
20
154.031332
11
54.992535
21
156.182277
0
LINE
8
Layer 1
10
54.992535
20
156.182277
11
64.004551
21
163.931913
0
LINE
8
Layer 1
10
64.004551
20
163.931913
11
71.466135
21
170.347945
0
LINE
8
Layer 1
10
71.466135
20
170.347945
11
77.348291
21
175.761117
0
LINE
8
Layer 1
10
77.348291
20
175.761117
11
81.916931
21
180.427906
0
LINE
8
Layer 1
10
81.916931
20
180.427906
11
85.437969
21
184.604790
0
LINE
8
Layer 1
10
85.437969
20
184.604790
11
86.657460
21
186.149394
0
LINE
8
Layer 1
10
86.657460
20
186.149394
11
87.556294
21
187.091447
0
LINE
8
Layer 1
10
87.556294
20
187.091447
11
88.476643
21
187.727842
0
LINE
8
Layer 1
10
88.476643
20
187.727842
11
89.760679
21
188.355470
0
LINE
8
Layer 1
10
89.760679
20
188.355470
11
92.487383
21
189.383018
0
LINE
8
Layer 1
10
92.487383
20
189.383018
11
93.963985
21
188.239253
0
LINE
8
Layer 1
10
93.963985
20
188.239253
11
96.898762
21
185.361351
0
LINE
8
Layer 1
10
96.898762
20
185.361351
11
99.829482
21
182.462970
0
LINE
8
Layer 1
10
99.829482
20
182.462970
11
100.484364
21
181.952617
0
LINE
8
Layer 1
10
100.484364
20
181.952617
11
100.622024
21
181.920724
0
LINE
8
Layer 1
10
100.622024
20
181.920724
11
100.638054
21
182.033333
0
LINE
8
Layer 1
10
100.638054
20
182.033333
11
100.280440
21
183.963548
0
LINE
8
Layer 1
10
100.280440
20
183.963548
11
100.385974
21
184.804377
0
LINE
8
Layer 1
10
100.385974
20
184.804377
11
100.614387
21
184.817998
0
LINE
8
Layer 1
10
100.614387
20
184.817998
11
100.960945
21
184.561345
0
LINE
8
Layer 1
10
100.960945
20
184.561345
11
102.011644
21
183.239977
0
LINE
8
Layer 1
10
102.011644
20
183.239977
11
104.705174
21
179.739434
0
LINE
8
Layer 1
10
104.705174
20
179.739434
11
108.084316
21
175.926408
0
LINE
8
Layer 1
10
108.084316
20
175.926408
11
111.819835
21
172.152010
0
LINE
8
Layer 1
10
111.819835
20
172.152010
11
115.582500
21
168.767351
0
LINE
8
Layer 1
10
115.582500
20
168.767351
11
122.767838
21
163.092802
0
LINE
8
Layer 1
10
122.767838
20
163.092802
11
127.903326
21
158.894197
0
LINE
8
Layer 1
10
127.903326
20
158.894197
11
129.137877
21
157.593883
0
LINE
8
Layer 1
10
129.137877
20
157.593883
11
129.540000
21
156.773632
0
LINE
8
Layer 1
10
129.540000
20
156.773632
11
129.469600
21
156.561383
0
LINE
8
Layer 1
10
129.469600
20
156.561383
11
129.247337
21
156.427143
0
LINE
8
Layer 1
10
129.247337
20
156.427143
11
128.280835
21
156.399388
0
LINE
8
Layer 1
10
128.280835
20
156.399388
11
123.795248
21
157.353708
0
LINE
8
Layer 1
10
123.795248
20
157.353708
11
120.654812
21
158.050627
0
LINE
8
Layer 1
10
120.654812
20
158.050627
11
118.715248
21
158.270885
0
LINE
8
Layer 1
10
118.715248
20
158.270885
11
118.053091
21
158.203735
0
LINE
8
Layer 1
10
118.053091
20
158.203735
11
117.709843
21
158.066222
0
LINE
8
Layer 1
10
117.709843
20
158.066222
11
117.588695
21
157.767384
0
LINE
8
Layer 1
10
117.588695
20
157.767384
11
117.592833
21
157.216255
0
LINE
8
Layer 1
10
117.592833
20
157.216255
11
117.750156
21
156.566146
0
LINE
8
Layer 1
10
117.750156
20
156.566146
11
118.203815
21
155.624541
0
LINE
8
Layer 1
10
118.203815
20
155.624541
11
120.203389
21
152.499619
0
LINE
8
Layer 1
10
120.203389
20
152.499619
11
122.766667
21
148.459475
0
LINE
8
Layer 1
10
122.766667
20
148.459475
11
122.695039
21
148.290982
0
LINE
8
Layer 1
10
122.695039
20
148.290982
11
122.451569
21
148.208503
0
LINE
8
Layer 1
10
122.451569
20
148.208503
11
121.277575
21
148.335362
0
LINE
8
Layer 1
10
121.277575
20
148.335362
11
114.980703
21
149.992811
0
LINE
8
Layer 1
10
114.980703
20
149.992811
11
108.472433
21
151.746506
0
LINE
8
Layer 1
10
108.472433
20
151.746506
11
110.079020
21
149.567584
0
LINE
8
Layer 1
10
110.079020
20
149.567584
11
111.984824
21
146.939659
0
LINE
8
Layer 1
10
111.984824
20
146.939659
11
112.953557
21
145.045791
0
LINE
8
Layer 1
10
112.953557
20
145.045791
11
113.078092
21
144.399862
0
LINE
8
Layer 1
10
113.078092
20
144.399862
11
112.958242
21
143.968328
0
LINE
8
Layer 1
10
112.958242
20
143.968328
11
112.590636
21
143.761482
0
LINE
8
Layer 1
10
112.590636
20
143.761482
11
111.971901
21
143.789617
0
LINE
8
Layer 1
10
111.971901
20
143.789617
11
109.173558
21
144.573575
0
LINE
8
Layer 1
10
109.173558
20
144.573575
11
105.610330
21
145.975564
0
LINE
8
Layer 1
10
105.610330
20
145.975564
11
103.713187
21
146.730748
0
LINE
8
Layer 1
10
103.713187
20
146.730748
11
102.833782
21
146.954522
0
LINE
8
Layer 1
10
102.833782
20
146.954522
11
102.939122
21
146.479169
0
LINE
8
Layer 1
10
102.939122
20
146.479169
11
103.409564
21
145.553472
0
LINE
8
Layer 1
10
103.409564
20
145.553472
11
103.945620
21
144.446748
0
LINE
8
Layer 1
10
103.945620
20
144.446748
11
104.141728
21
143.577092
0
LINE
8
Layer 1
10
104.141728
20
143.577092
11
103.995614
21
143.009918
0
LINE
8
Layer 1
10
103.995614
20
143.009918
11
103.505000
21
142.810642
0
LINE
8
Layer 1
10
103.505000
20
142.810642
11
102.163012
21
143.162194
0
LINE
8
Layer 1
10
102.163012
20
143.162194
11
100.264968
21
144.129276
0
LINE
8
Layer 1
10
100.264968
20
144.129276
11
97.984812
21
145.609983
0
LINE
8
Layer 1
10
97.984812
20
145.609983
11
95.496490
21
147.502409
0
LINE
8
Layer 1
10
95.496490
20
147.502409
11
93.839247
21
148.683461
0
LINE
8
Layer 1
10
93.839247
20
148.683461
11
93.992200
21
147.320000
0
LINE
8
Layer 1
10
93.992200
20
147.320000
11
94.249931
21
143.752931
0
LINE
8
Layer 1
10
94.249931
20
143.752931
11
94.154967
21
141.794927
0
LINE
8
Layer 1
10
94.154967
20
141.794927
11
93.999355
21
141.235799
0
LINE
8
Layer 1
10
93.999355
20
141.235799
11
93.748552
21
140.821512
0
LINE
8
Layer 1
10
93.748552
20
140.821512
11
93.156275
21
140.340634
0
LINE
8
Layer 1
10
93.156275
20
140.340634
11
92.225721
21
140.520211
0
LINE
8
Layer 1
10
92.225721
20
140.520211
11
90.958549
21
141.116460
0
LINE
8
Layer 1
10
90.958549
20
141.116460
11
89.412678
21
142.122393
0
LINE
8
Layer 1
10
89.412678
20
142.122393
11
87.736343
21
143.431506
0
LINE
8
Layer 1
10
87.736343
20
143.431506
11
86.077778
21
144.937299
0
LINE
8
Layer 1
10
86.077778
20
144.937299
11
84.243333
21
146.735478
0
LINE
8
Layer 1
10
84.243333
20
146.735478
11
80.574444
21
144.272214
0
LINE
8
Layer 1
10
80.574444
20
144.272214
11
77.495500
21
142.292962
0
LINE
8
Layer 1
10
77.495500
20
142.292962
11
74.843123
21
140.759888
0
LINE
8
Layer 1
10
74.843123
20
140.759888
11
72.796756
21
139.769368
0
LINE
8
Layer 1
10
72.796756
20
139.769368
11
71.535846
21
139.417778
0
LINE
8
Layer 1
10
71.535846
20
139.417778
11
71.098582
21
139.444767
0
LINE
8
Layer 1
10
71.098582
20
139.444767
11
70.884443
21
139.617769
0
LINE
8
Layer 1
10
70.884443
20
139.617769
11
70.895281
21
140.954032
0
LINE
8
Layer 1
10
70.895281
20
140.954032
11
70.895281
21
140.954032
0
LINE
8
Layer 1
10
75.494444
20
142.012348
11
80.549346
21
145.271600
0
LINE
8
Layer 1
10
80.549346
20
145.271600
11
84.005908
21
147.517352
0
LINE
8
Layer 1
10
84.005908
20
147.517352
11
84.945186
21
146.989379
0
LINE
8
Layer 1
10
84.945186
20
146.989379
11
86.710743
21
145.472446
0
LINE
8
Layer 1
10
86.710743
20
145.472446
11
90.055251
21
142.661496
0
LINE
8
Layer 1
10
90.055251
20
142.661496
11
91.437695
21
141.749303
0
LINE
8
Layer 1
10
91.437695
20
141.749303
11
92.498113
21
141.259735
0
LINE
8
Layer 1
10
92.498113
20
141.259735
11
93.068890
21
141.264209
0
LINE
8
Layer 1
10
93.068890
20
141.264209
11
93.438740
21
141.868274
0
LINE
8
Layer 1
10
93.438740
20
141.868274
11
93.598255
21
142.914338
0
LINE
8
Layer 1
10
93.598255
20
142.914338
11
93.564308
21
144.517866
0
LINE
8
Layer 1
10
93.564308
20
144.517866
11
93.354759
21
146.421631
0
LINE
8
Layer 1
10
93.354759
20
146.421631
11
92.987467
21
148.368405
0
LINE
8
Layer 1
10
92.987467
20
148.368405
11
92.777358
21
149.582475
0
LINE
8
Layer 1
10
92.777358
20
149.582475
11
92.870135
21
150.202119
0
LINE
8
Layer 1
10
92.870135
20
150.202119
11
93.284489
21
150.252012
0
LINE
8
Layer 1
10
93.284489
20
150.252012
11
94.039109
21
149.756831
0
LINE
8
Layer 1
10
94.039109
20
149.756831
11
97.253489
21
147.254183
0
LINE
8
Layer 1
10
97.253489
20
147.254183
11
100.097090
21
145.254305
0
LINE
8
Layer 1
10
100.097090
20
145.254305
11
102.199681
21
144.000722
0
LINE
8
Layer 1
10
102.199681
20
144.000722
11
102.857402
21
143.729893
0
LINE
8
Layer 1
10
102.857402
20
143.729893
11
103.191033
21
143.736960
0
LINE
8
Layer 1
10
103.191033
20
143.736960
11
103.072843
21
144.255341
0
LINE
8
Layer 1
10
103.072843
20
144.255341
11
102.568220
21
145.281204
0
LINE
8
Layer 1
10
102.568220
20
145.281204
11
102.120240
21
146.228007
0
LINE
8
Layer 1
10
102.120240
20
146.228007
11
101.975052
21
146.948486
0
LINE
8
Layer 1
10
101.975052
20
146.948486
11
102.132846
21
147.461199
0
LINE
8
Layer 1
10
102.132846
20
147.461199
11
102.593812
21
147.784701
0
LINE
8
Layer 1
10
102.593812
20
147.784701
11
103.793647
21
147.528193
0
LINE
8
Layer 1
10
103.793647
20
147.528193
11
106.057435
21
146.673212
0
LINE
8
Layer 1
10
106.057435
20
146.673212
11
110.270744
21
145.063276
0
LINE
8
Layer 1
10
110.270744
20
145.063276
11
111.652798
21
144.667977
0
LINE
8
Layer 1
10
111.652798
20
144.667977
11
112.274985
21
144.636465
0
LINE
8
Layer 1
10
112.274985
20
144.636465
11
111.990184
21
145.338555
0
LINE
8
Layer 1
10
111.990184
20
145.338555
11
111.025954
21
146.837442
0
LINE
8
Layer 1
10
111.025954
20
146.837442
11
108.275205
21
150.456290
0
LINE
8
Layer 1
10
108.275205
20
150.456290
11
106.803101
21
152.415917
0
LINE
8
Layer 1
10
106.803101
20
152.415917
11
106.729341
21
152.837126
0
LINE
8
Layer 1
10
106.729341
20
152.837126
11
107.059041
21
152.964444
0
LINE
8
Layer 1
10
107.059041
20
152.964444
11
113.761819
21
151.166088
0
LINE
8
Layer 1
10
113.761819
20
151.166088
11
120.908166
21
149.173486
0
LINE
8
Layer 1
10
120.908166
20
149.173486
11
121.730776
21
148.979238
0
LINE
8
Layer 1
10
121.730776
20
148.979238
11
121.031048
21
149.913509
0
LINE
8
Layer 1
10
121.031048
20
149.913509
11
118.880518
21
152.907926
0
LINE
8
Layer 1
10
118.880518
20
152.907926
11
117.488296
21
155.158077
0
LINE
8
Layer 1
10
117.488296
20
155.158077
11
116.790474
21
156.782438
0
LINE
8
Layer 1
10
116.790474
20
156.782438
11
116.723140
21
157.899484
0
LINE
8
Layer 1
10
116.723140
20
157.899484
11
116.923552
21
158.420220
0
LINE
8
Layer 1
10
116.923552
20
158.420220
11
117.250700
21
158.799537
0
LINE
8
Layer 1
10
117.250700
20
158.799537
11
117.739135
21
159.038818
0
LINE
8
Layer 1
10
117.739135
20
159.038818
11
118.423406
21
159.139447
0
LINE
8
Layer 1
10
118.423406
20
159.139447
11
120.517657
21
158.930273
0
LINE
8
Layer 1
10
120.517657
20
158.930273
11
123.809847
21
158.183078
0
LINE
8
Layer 1
10
123.809847
20
158.183078
11
128.239300
21
157.070188
0
LINE
8
Layer 1
10
128.239300
20
157.070188
11
128.459750
21
157.087019
0
LINE
8
Layer 1
10
128.459750
20
157.087019
11
128.392033
21
157.301548
0
LINE
8
Layer 1
10
128.392033
20
157.301548
11
127.423241
21
158.295695
0
LINE
8
Layer 1
10
127.423241
20
158.295695
11
122.370226
21
162.348283
0
LINE
8
Layer 1
10
122.370226
20
162.348283
11
115.830627
21
167.499543
0
LINE
8
Layer 1
10
115.830627
20
167.499543
11
110.676835
21
172.060494
0
LINE
8
Layer 1
10
110.676835
20
172.060494
11
106.259616
21
176.651974
0
LINE
8
Layer 1
10
106.259616
20
176.651974
11
101.929737
21
181.894824
0
LINE
8
Layer 1
10
101.929737
20
181.894824
11
101.508354
21
182.351753
0
LINE
8
Layer 1
10
101.508354
20
182.351753
11
101.413911
21
182.382426
0
LINE
8
Layer 1
10
101.413911
20
182.382426
11
101.419299
21
182.265041
0
LINE
8
Layer 1
10
101.419299
20
182.265041
11
101.760539
21
180.759032
0
LINE
8
Layer 1
10
101.760539
20
180.759032
11
101.830589
21
179.913975
0
LINE
8
Layer 1
10
101.830589
20
179.913975
11
101.690391
21
179.803284
0
LINE
8
Layer 1
10
101.690391
20
179.803284
11
101.403381
21
179.821767
0
LINE
8
Layer 1
10
101.403381
20
179.821767
11
99.794491
21
181.186042
0
LINE
8
Layer 1
10
99.794491
20
181.186042
11
96.699761
21
184.332840
0
LINE
8
Layer 1
10
96.699761
20
184.332840
11
92.546935
21
188.749014
0
LINE
8
Layer 1
10
92.546935
20
188.749014
11
90.300912
21
187.728750
0
LINE
8
Layer 1
10
90.300912
20
187.728750
11
89.006676
21
187.102664
0
LINE
8
Layer 1
10
89.006676
20
187.102664
11
88.104732
21
186.488782
0
LINE
8
Layer 1
10
88.104732
20
186.488782
11
87.264586
21
185.602507
0
LINE
8
Layer 1
10
87.264586
20
185.602507
11
86.155742
21
184.159243
0
LINE
8
Layer 1
10
86.155742
20
184.159243
11
82.691034
21
180.024344
0
LINE
8
Layer 1
10
82.691034
20
180.024344
11
77.840911
21
175.101339
0
LINE
8
Layer 1
10
77.840911
20
175.101339
11
71.448990
21
169.240218
0
LINE
8
Layer 1
10
71.448990
20
169.240218
11
63.358889
21
162.290969
0
LINE
8
Layer 1
10
63.358889
20
162.290969
11
57.260613
21
157.048611
0
LINE
8
Layer 1
10
57.260613
20
157.048611
11
53.430452
21
153.426032
0
LINE
8
Layer 1
10
53.430452
20
153.426032
11
52.295423
21
152.148619
0
LINE
8
Layer 1
10
52.295423
20
152.148619
11
51.642833
21
151.187904
0
LINE
8
Layer 1
10
51.642833
20
151.187904
11
51.444486
21
150.514471
0
LINE
8
Layer 1
10
51.444486
20
150.514471
11
51.672185
21
150.098904
0
LINE
8
Layer 1
10
51.672185
20
150.098904
11
52.822315
21
149.913340
0
LINE
8
Layer 1
10
52.822315
20
149.913340
11
54.936998
21
150.004703
0
LINE
8
Layer 1
10
54.936998
20
150.004703
11
57.494284
21
150.326802
0
LINE
8
Layer 1
10
57.494284
20
150.326802
11
59.972222
21
150.833444
0
LINE
8
Layer 1
10
59.972222
20
150.833444
11
62.617725
21
151.416274
0
LINE
8
Layer 1
10
62.617725
20
151.416274
11
65.243660
21
151.840726
0
LINE
8
Layer 1
10
65.243660
20
151.840726
11
67.318853
21
152.036698
0
LINE
8
Layer 1
10
67.318853
20
152.036698
11
68.312132
21
151.934091
0
LINE
8
Layer 1
10
68.312132
20
151.934091
11
68.642444
21
151.014605
0
LINE
8
Layer 1
10
68.642444
20
151.014605
11
68.620717
21
150.644804
0
LINE
8
Layer 1
10
68.620717
20
150.644804
11
68.413395
21
150.320343
0
LINE
8
Layer 1
10
68.413395
20
150.320343
11
67.175470
21
149.539452
0
LINE
8
Layer 1
10
67.175470
20
149.539452
11
64.988389
21
148.269516
0
LINE
8
Layer 1
10
64.988389
20
148.269516
11
63.380333
21
147.079856
0
LINE
8
Layer 1
10
63.380333
20
147.079856
11
62.493015
21
146.094020
0
LINE
8
Layer 1
10
62.493015
20
146.094020
11
62.363919
21
145.716144
0
LINE
8
Layer 1
10
62.363919
20
145.716144
11
62.468150
21
145.435554
0
LINE
8
Layer 1
10
62.468150
20
145.435554
11
62.879886
21
145.283361
0
LINE
8
Layer 1
10
62.879886
20
145.283361
11
63.648534
21
145.241593
0
LINE
8
Layer 1
10
63.648534
20
145.241593
11
65.984472
21
145.450953
0
LINE
8
Layer 1
10
65.984472
20
145.450953
11
68.931774
21
145.986868
0
LINE
8
Layer 1
10
68.931774
20
145.986868
11
71.946251
21
146.772574
0
LINE
8
Layer 1
10
71.946251
20
146.772574
11
73.294570
21
147.100937
0
LINE
8
Layer 1
10
73.294570
20
147.100937
11
73.988913
21
147.103976
0
LINE
8
Layer 1
10
73.988913
20
147.103976
11
73.781561
21
146.199510
0
LINE
8
Layer 1
10
73.781561
20
146.199510
11
72.961971
21
144.346004
0
LINE
8
Layer 1
10
72.961971
20
144.346004
11
72.023021
21
142.285970
0
LINE
8
Layer 1
10
72.023021
20
142.285970
11
71.528700
21
140.884958
0
LINE
8
Layer 1
10
71.528700
20
140.884958
11
71.351010
21
139.953249
0
LINE
8
Layer 1
10
71.351010
20
139.953249
11
72.434950
21
140.403673
0
LINE
8
Layer 1
10
72.434950
20
140.403673
11
75.494444
21
142.012348
0
LINE
8
Layer 1
10
75.494444
20
142.012348
11
75.494444
21
142.012348
0
LINE
8
Layer 1
10
98.158780
20
184.533921
11
95.316139
21
187.657531
0
LINE
8
Layer 1
10
95.316139
20
187.657531
11
92.842278
21
190.256112
0
LINE
8
Layer 1
10
92.842278
20
190.256112
11
87.837250
21
187.977120
0
LINE
8
Layer 1
10
87.837250
20
187.977120
11
82.479444
21
185.700173
0
LINE
8
Layer 1
10
82.479444
20
185.700173
11
82.184517
21
185.869950
0
LINE
8
Layer 1
10
82.184517
20
185.869950
11
82.352436
21
186.539299
0
LINE
8
Layer 1
10
82.352436
20
186.539299
11
84.508794
21
190.370976
0
LINE
8
Layer 1
10
84.508794
20
190.370976
11
86.978239
21
194.687320
0
LINE
8
Layer 1
10
86.978239
20
194.687320
11
86.293781
21
195.320807
0
LINE
8
Layer 1
10
86.293781
20
195.320807
11
84.525556
21
196.370950
0
LINE
8
Layer 1
10
84.525556
20
196.370950
11
82.731681
21
197.438830
0
LINE
8
Layer 1
10
82.731681
20
197.438830
11
81.985556
21
198.114954
0
LINE
8
Layer 1
10
81.985556
20
198.114954
11
82.191028
21
198.343493
0
LINE
8
Layer 1
10
82.191028
20
198.343493
11
82.819897
21
198.625015
0
LINE
8
Layer 1
10
82.819897
20
198.625015
11
85.422531
21
199.374385
0
LINE
8
Layer 1
10
85.422531
20
199.374385
11
89.091420
21
200.468522
0
LINE
8
Layer 1
10
89.091420
20
200.468522
11
90.596206
21
204.984078
0
LINE
8
Layer 1
10
90.596206
20
204.984078
11
91.666545
21
208.255100
0
LINE
8
Layer 1
10
91.666545
20
208.255100
11
92.023726
21
209.021889
0
LINE
8
Layer 1
10
92.023726
20
209.021889
11
92.285213
21
209.267778
0
LINE
8
Layer 1
10
92.285213
20
209.267778
11
92.590752
21
208.950209
0
LINE
8
Layer 1
10
92.590752
20
208.950209
11
93.090791
21
207.995066
0
LINE
8
Layer 1
10
93.090791
20
207.995066
11
94.681229
21
204.157428
0
LINE
8
Layer 1
10
94.681229
20
204.157428
11
96.661111
21
199.047077
0
LINE
8
Layer 1
10
96.661111
20
199.047077
11
100.612222
21
198.795205
0
LINE
8
Layer 1
10
100.612222
20
198.795205
11
103.786329
21
198.510317
0
LINE
8
Layer 1
10
103.786329
20
198.510317
11
104.395429
21
198.343110
0
LINE
8
Layer 1
10
104.395429
20
198.343110
11
104.563333
21
198.123567
0
LINE
8
Layer 1
10
104.563333
20
198.123567
11
103.706087
21
197.426011
0
LINE
8
Layer 1
10
103.706087
20
197.426011
11
101.713249
21
196.174987
0
LINE
8
Layer 1
10
101.713249
20
196.174987
11
99.453168
21
194.888583
0
LINE
8
Layer 1
10
99.453168
20
194.888583
11
97.794197
21
194.084883
0
LINE
8
Layer 1
10
97.794197
20
194.084883
11
97.886530
21
192.682898
0
LINE
8
Layer 1
10
97.886530
20
192.682898
11
98.570308
21
189.203835
0
LINE
8
Layer 1
10
98.570308
20
189.203835
11
99.624444
21
184.216508
0
LINE
8
Layer 1
10
99.624444
20
184.216508
11
99.445285
21
184.014603
0
LINE
8
Layer 1
10
99.445285
20
184.014603
11
99.024548
21
184.025485
0
LINE
8
Layer 1
10
99.024548
20
184.025485
11
98.537343
21
184.211232
0
LINE
8
Layer 1
10
98.537343
20
184.211232
11
98.158780
21
184.533921
0
LINE
8
Layer 1
10
98.158780
20
184.533921
11
98.158780
21
184.533921
0
LINE
8
Layer 1
10
97.657827
20
189.754270
11
96.802222
21
194.010664
0
LINE
8
Layer 1
10
96.802222
20
194.010664
11
97.665566
21
194.772931
0
LINE
8
Layer 1
10
97.665566
20
194.772931
11
99.786527
21
196.047800
0
LINE
8
Layer 1
10
99.786527
20
196.047800
11
101.635445
21
197.114383
0
LINE
8
Layer 1
10
101.635445
20
197.114383
11
102.298394
21
197.727806
0
LINE
8
Layer 1
10
102.298394
20
197.727806
11
102.192266
21
197.904035
0
LINE
8
Layer 1
10
102.192266
20
197.904035
11
101.798209
21
198.014316
0
LINE
8
Layer 1
10
101.798209
20
198.014316
11
100.157723
21
198.100163
0
LINE
8
Layer 1
10
100.157723
20
198.100163
11
97.306167
21
198.293821
0
LINE
8
Layer 1
10
97.306167
20
198.293821
11
96.037998
21
198.467644
0
LINE
8
Layer 1
10
96.037998
20
198.467644
11
94.251478
21
203.086670
0
LINE
8
Layer 1
10
94.251478
20
203.086670
11
92.942834
21
206.304037
0
LINE
8
Layer 1
10
92.942834
20
206.304037
11
92.305257
21
207.553118
0
LINE
8
Layer 1
10
92.305257
20
207.553118
11
91.002245
21
203.536381
0
LINE
8
Layer 1
10
91.002245
20
203.536381
11
89.858937
21
199.672222
0
LINE
8
Layer 1
10
89.858937
20
199.672222
11
86.574926
21
198.825556
0
LINE
8
Layer 1
10
86.574926
20
198.825556
11
83.290918
21
197.978889
0
LINE
8
Layer 1
10
83.290918
20
197.978889
11
85.672126
21
196.732082
0
LINE
8
Layer 1
10
85.672126
20
196.732082
11
87.353853
21
195.732601
0
LINE
8
Layer 1
10
87.353853
20
195.732601
11
88.053333
21
195.080427
0
LINE
8
Layer 1
10
88.053333
20
195.080427
11
87.390111
21
193.692280
0
LINE
8
Layer 1
10
87.390111
20
193.692280
11
85.795556
21
190.923333
0
LINE
8
Layer 1
10
85.795556
20
190.923333
11
83.537778
21
187.027860
0
LINE
8
Layer 1
10
83.537778
20
187.027860
11
88.074133
21
188.974535
0
LINE
8
Layer 1
10
88.074133
20
188.974535
11
92.956541
21
191.064444
0
LINE
8
Layer 1
10
92.956541
20
191.064444
11
93.931866
21
190.272708
0
LINE
8
Layer 1
10
93.931866
20
190.272708
11
95.790842
21
188.369174
0
LINE
8
Layer 1
10
95.790842
20
188.369174
11
98.396258
21
185.791074
0
LINE
8
Layer 1
10
98.396258
20
185.791074
11
97.657827
21
189.754270
0
LINE
8
Layer 1
10
97.657827
20
189.754270
11
97.657827
21
189.754270
 0 
ENDSEC
 0 
EOF