0
SECTION
2
HEADER
9
$ACADVER
1
AC1003
9
$INSBASE
10
0.0
20
0.0
30
0.0
9
$EXTMIN
10
0.000
20
0.000
30
0.0
9
$EXTMAX
10
679.000
20
694.000
30
0.0
9
$LIMMIN
10
0.000
20
0.000
9
$LIMMAX
10
679.000
20
694.000
9
$LTSCALE
40
1.0
9
$LUNITS
70
2
9
$LUPREC
70
3
9
$LIMCHECK
70
0
9
$UCSNAME
2

9
$UCSORG
10
0.0
20
0.0
30
0.0
9
$UCSXDIR
10
1.0
20
0.0
30
0.0
9
$UCSYDIR
10
0.0
20
1.0
30
0.0
9
$WORLDVIEW
70
1
9
$UNITMODE
70
0
0
ENDSEC
0
SECTION
2
TABLES
0
TABLE
2
VPORT
70
1
0
VPORT
2
*ACTIVE
70
0
10
0.0
20
0.0
11
1.0
21
1.0
12
339.500
22
347.000
13
0.0
23
0.0
14
1.0
24
1.0
15
0.0
25
0.0
16
0.0
26
0.0
36
1.0
17
0.0
27
0.0
37
0.0
40
500.0
41
1.022
42
50.0
43
0.0
44
0.0
50
0.0
51
0.0
71
0
72
100
73
1
74
1
75
0
76
0
77
0
78
0
0
ENDTAB
0
TABLE
2
LTYPE
70
1
0
LTYPE
2
CONTINUOUS
70
64
3
Solid line
72
65
73
0
40
0.000
0
ENDTAB
0
TABLE
2
LAYER
70
1
0
LAYER
2
0
70
64
62
7
6
CONTINUOUS
0
ENDTAB
0
ENDSEC
0
SECTION
2
BLOCKS
0
ENDSEC
0
SECTION
2
ENTITIES
0
POLYLINE
8
0
6
CONTINUOUS
66
1
62
7
10
0.0
20
0.0
30
0.000000
0
VERTEX
8
0
10
344.000000
20
623.000000
0
VERTEX
8
0
10
347.000000
20
625.000000
0
VERTEX
8
0
10
350.300000
20
630.900000
0
VERTEX
8
0
10
351.000000
20
632.000000
0
VERTEX
8
0
10
350.300000
20
636.100000
0
VERTEX
8
0
10
349.000000
20
640.000000
0
VERTEX
8
0
10
345.100000
20
643.200000
0
VERTEX
8
0
10
342.100000
20
644.300000
0
VERTEX
8
0
10
338.000000
20
645.000000
0
VERTEX
8
0
10
333.900000
20
643.200000
0
VERTEX
8
0
10
329.000000
20
639.000000
0
VERTEX
8
0
10
328.000000
20
636.000000
0
VERTEX
8
0
10
328.000000
20
632.000000
0
VERTEX
8
0
10
329.800000
20
627.900000
0
VERTEX
8
0
10
332.000000
20
625.000000
0
VERTEX
8
0
10
344.000000
20
623.000000
0
SEQEND
0
POLYLINE
8
0
6
CONTINUOUS
66
1
62
7
10
0.0
20
0.0
30
0.000000
0
VERTEX
8
0
10
390.000000
20
600.000000
0
VERTEX
8
0
10
387.000000
20
601.000000
0
SEQEND
0
POLYLINE
8
0
6
CONTINUOUS
66
1
62
7
10
0.0
20
0.0
30
0.000000
0
VERTEX
8
0
10
392.000000
20
600.000000
0
VERTEX
8
0
10
391.000000
20
601.000000
0
VERTEX
8
0
10
390.000000
20
600.000000
0
SEQEND
0
POLYLINE
8
0
6
CONTINUOUS
66
1
62
7
10
0.0
20
0.0
30
0.000000
0
VERTEX
8
0
10
391.000000
20
599.000000
0
VERTEX
8
0
10
390.000000
20
600.000000
0
SEQEND
0
POLYLINE
8
0
6
CONTINUOUS
66
1
62
7
10
0.0
20
0.0
30
0.000000
0
VERTEX
8
0
10
391.000000
20
599.000000
0
VERTEX
8
0
10
392.000000
20
600.000000
0
SEQEND
0
POLYLINE
8
0
6
CONTINUOUS
66
1
62
7
10
0.0
20
0.0
30
0.000000
0
VERTEX
8
0
10
278.000000
20
597.000000
0
VERTEX
8
0
10
279.000000
20
598.000000
0
SEQEND
0
POLYLINE
8
0
6
CONTINUOUS
66
1
62
7
10
0.0
20
0.0
30
0.000000
0
VERTEX
8
0
10
294.000000
20
533.000000
0
VERTEX
8
0
10
281.230769
20
551.153846
0
VERTEX
8
0
10
273.800000
20
564.900000
0
VERTEX
8
0
10
272.000000
20
573.000000
0
VERTEX
8
0
10
272.000000
20
582.000000
0
VERTEX
8
0
10
274.300000
20
590.900000
0
VERTEX
8
0
10
278.000000
20
597.000000
0
SEQEND
0
POLYLINE
8
0
6
CONTINUOUS
66
1
62
7
10
0.0
20
0.0
30
0.000000
0
VERTEX
8
0
10
293.000000
20
532.000000
0
VERTEX
8
0
10
294.000000
20
533.000000
0
SEQEND
0
POLYLINE
8
0
6
CONTINUOUS
66
1
62
7
10
0.0
20
0.0
30
0.000000
0
VERTEX
8
0
10
295.000000
20
532.000000
0
VERTEX
8
0
10
294.000000
20
533.000000
0
SEQEND
0
POLYLINE
8
0
6
CONTINUOUS
66
1
62
7
10
0.0
20
0.0
30
0.000000
0
VERTEX
8
0
10
294.000000
20
531.000000
0
VERTEX
8
0
10
293.000000
20
532.000000
0
SEQEND
0
POLYLINE
8
0
6
CONTINUOUS
66
1
62
7
10
0.0
20
0.0
30
0.000000
0
VERTEX
8
0
10
294.000000
20
531.000000
0
VERTEX
8
0
10
295.000000
20
532.000000
0
SEQEND
0
POLYLINE
8
0
6
CONTINUOUS
66
1
62
7
10
0.0
20
0.0
30
0.000000
0
VERTEX
8
0
10
296.000000
20
531.000000
0
VERTEX
8
0
10
295.000000
20
532.000000
0
SEQEND
0
POLYLINE
8
0
6
CONTINUOUS
66
1
62
7
10
0.0
20
0.0
30
0.000000
0
VERTEX
8
0
10
296.000000
20
530.000000
0
VERTEX
8
0
10
294.000000
20
531.000000
0
SEQEND
0
POLYLINE
8
0
6
CONTINUOUS
66
1
62
7
10
0.0
20
0.0
30
0.000000
0
VERTEX
8
0
10
296.000000
20
530.000000
0
VERTEX
8
0
10
296.000000
20
531.000000
0
SEQEND
0
POLYLINE
8
0
6
CONTINUOUS
66
1
62
7
10
0.0
20
0.0
30
0.000000
0
VERTEX
8
0
10
298.000000
20
528.000000
0
VERTEX
8
0
10
296.000000
20
530.000000
0
SEQEND
0
POLYLINE
8
0
6
CONTINUOUS
66
1
62
7
10
0.0
20
0.0
30
0.000000
0
VERTEX
8
0
10
334.000000
20
499.000000
0
VERTEX
8
0
10
336.153846
20
500.769231
0
VERTEX
8
0
10
345.000000
20
507.000000
0
VERTEX
8
0
10
356.000000
20
518.000000
0
VERTEX
8
0
10
383.200000
20
549.900000
0
VERTEX
8
0
10
388.769231
20
559.153846
0
VERTEX
8
0
10
397.000000
20
575.000000
0
VERTEX
8
0
10
397.000000
20
580.000000
0
VERTEX
8
0
10
392.000000
20
593.000000
0
VERTEX
8
0
10
390.180000
20
594.240000
0
VERTEX
8
0
10
386.820000
20
596.760000
0
VERTEX
8
0
10
374.000000
20
601.000000
0
VERTEX
8
0
10
369.000000
20
601.000000
0
VERTEX
8
0
10
361.088235
20
598.647059
0
VERTEX
8
0
10
353.088235
20
596.647059
0
VERTEX
8
0
10
340.000000
20
594.000000
0
VERTEX
8
0
10
333.000000
20
594.000000
0
VERTEX
8
0
10
325.053846
20
595.430769
0
VERTEX
8
0
10
324.000000
20
596.000000
0
VERTEX
8
0
10
299.000000
20
596.000000
0
VERTEX
8
0
10
289.000000
20
593.000000
0
VERTEX
8
0
10
285.760000
20
589.180000
0
VERTEX
8
0
10
283.441176
20
585.735294
0
VERTEX
8
0
10
281.000000
20
579.000000
0
VERTEX
8
0
10
281.000000
20
571.000000
0
VERTEX
8
0
10
283.200000
20
562.100000
0
VERTEX
8
0
10
287.800000
20
552.900000
0
VERTEX
8
0
10
303.756098
20
531.804878
0
VERTEX
8
0
10
306.760000
20
527.820000
0
VERTEX
8
0
10
314.000000
20
518.000000
0
VERTEX
8
0
10
333.000000
20
499.000000
0
VERTEX
8
0
10
334.000000
20
499.000000
0
SEQEND
0
POLYLINE
8
0
6
CONTINUOUS
66
1
62
7
10
0.0
20
0.0
30
0.000000
0
VERTEX
8
0
10
391.000000
20
599.000000
0
VERTEX
8
0
10
396.000000
20
595.000000
0
VERTEX
8
0
10
396.800000
20
592.900000
0
VERTEX
8
0
10
398.200000
20
590.100000
0
VERTEX
8
0
10
401.000000
20
585.000000
0
VERTEX
8
0
10
400.000000
20
570.000000
0
VERTEX
8
0
10
405.900000
20
567.700000
0
VERTEX
8
0
10
408.000000
20
567.000000
0
VERTEX
8
0
10
414.000000
20
558.000000
0
VERTEX
8
0
10
433.100000
20
557.300000
0
VERTEX
8
0
10
440.000000
20
554.000000
0
VERTEX
8
0
10
443.240000
20
550.180000
0
VERTEX
8
0
10
447.700000
20
542.900000
0
VERTEX
8
0
10
450.000000
20
538.000000
0
VERTEX
8
0
10
450.000000
20
525.000000
0
VERTEX
8
0
10
447.647059
20
517.088235
0
VERTEX
8
0
10
447.000000
20
516.000000
0
VERTEX
8
0
10
447.000000
20
506.000000
0
VERTEX
8
0
10
451.200000
20
495.100000
0
VERTEX
8
0
10
454.000000
20
490.000000
0
VERTEX
8
0
10
458.800000
20
500.100000
0
VERTEX
8
0
10
466.000000
20
511.000000
0
VERTEX
8
0
10
476.000000
20
517.000000
0
VERTEX
8
0
10
488.100000
20
514.200000
0
VERTEX
8
0
10
496.100000
20
510.200000
0
VERTEX
8
0
10
510.820000
20
495.760000
0
VERTEX
8
0
10
514.252809
20
494.095506
0
VERTEX
8
0
10
538.053846
20
491.430769
0
VERTEX
8
0
10
544.946154
20
490.569231
0
VERTEX
8
0
10
555.750000
20
489.250000
0
VERTEX
8
0
10
556.000000
20
490.000000
0
VERTEX
8
0
10
549.240000
20
500.180000
0
VERTEX
8
0
10
537.000000
20
516.000000
0
VERTEX
8
0
10
515.000000
20
538.000000
0
VERTEX
8
0
10
507.788235
20
543.752941
0
VERTEX
8
0
10
507.204918
20
544.245902
0
VERTEX
8
0
10
484.846154
20
561.769231
0
VERTEX
8
0
10
479.153846
20
565.230769
0
VERTEX
8
0
10
454.900000
20
578.800000
0
VERTEX
8
0
10
437.100000
20
586.200000
0
VERTEX
8
0
10
418.088235
20
593.352941
0
VERTEX
8
0
10
394.911765
20
599.647059
0
VERTEX
8
0
10
392.000000
20
600.000000
0
SEQEND
0
POLYLINE
8
0
6
CONTINUOUS
66
1
62
7
10
0.0
20
0.0
30
0.000000
0
VERTEX
8
0
10
431.000000
20
457.000000
0
VERTEX
8
0
10
440.900000
20
460.200000
0
VERTEX
8
0
10
445.000000
20
463.000000
0
VERTEX
8
0
10
449.300000
20
471.900000
0
VERTEX
8
0
10
450.000000
20
473.000000
0
VERTEX
8
0
10
450.000000
20
482.000000
0
VERTEX
8
0
10
442.700000
20
505.900000
0
VERTEX
8
0
10
442.200000
20
507.100000
0
VERTEX
8
0
10
441.000000
20
511.000000
0
VERTEX
8
0
10
443.352941
20
518.911765
0
VERTEX
8
0
10
446.000000
20
538.000000
0
VERTEX
8
0
10
444.200000
20
541.100000
0
VERTEX
8
0
10
440.000000
20
549.000000
0
VERTEX
8
0
10
432.100000
20
554.200000
0
VERTEX
8
0
10
431.000000
20
555.000000
0
VERTEX
8
0
10
415.076923
20
552.615385
0
VERTEX
8
0
10
413.900000
20
552.200000
0
VERTEX
8
0
10
390.180000
20
540.760000
0
VERTEX
8
0
10
382.820000
20
535.240000
0
VERTEX
8
0
10
367.233888
20
521.750520
0
VERTEX
8
0
10
343.000000
20
499.000000
0
VERTEX
8
0
10
342.800000
20
498.100000
0
VERTEX
8
0
10
341.000000
20
495.000000
0
VERTEX
8
0
10
365.180000
20
477.240000
0
VERTEX
8
0
10
379.100000
20
470.300000
0
VERTEX
8
0
10
391.900000
20
464.800000
0
VERTEX
8
0
10
401.911765
20
461.647059
0
VERTEX
8
0
10
419.035294
20
457.458824
0
VERTEX
8
0
10
431.000000
20
457.000000
0
SEQEND
0
POLYLINE
8
0
6
CONTINUOUS
66
1
62
7
10
0.0
20
0.0
30
0.000000
0
VERTEX
8
0
10
247.000000
20
440.000000
0
VERTEX
8
0
10
259.911765
20
443.352941
0
VERTEX
8
0
10
280.900000
20
454.200000
0
VERTEX
8
0
10
288.180000
20
458.760000
0
VERTEX
8
0
10
300.783186
20
468.247788
0
VERTEX
8
0
10
308.216814
20
474.752212
0
VERTEX
8
0
10
316.000000
20
481.000000
0
VERTEX
8
0
10
329.000000
20
494.000000
0
VERTEX
8
0
10
328.200000
20
497.100000
0
VERTEX
8
0
10
310.000000
20
517.000000
0
VERTEX
8
0
10
296.846154
20
524.769231
0
VERTEX
8
0
10
280.846154
20
535.769231
0
VERTEX
8
0
10
262.900000
20
545.800000
0
VERTEX
8
0
10
253.000000
20
549.000000
0
VERTEX
8
0
10
244.932432
20
548.405405
0
VERTEX
8
0
10
240.067568
20
547.594595
0
VERTEX
8
0
10
236.153846
20
545.769231
0
VERTEX
8
0
10
233.846154
20
544.230769
0
VERTEX
8
0
10
229.000000
20
540.000000
0
VERTEX
8
0
10
228.760000
20
539.180000
0
VERTEX
8
0
10
225.405405
20
532.932432
0
VERTEX
8
0
10
224.000000
20
527.000000
0
VERTEX
8
0
10
224.647059
20
522.911765
0
VERTEX
8
0
10
227.647059
20
510.911765
0
VERTEX
8
0
10
232.000000
20
492.000000
0
VERTEX
8
0
10
226.000000
20
472.000000
0
VERTEX
8
0
10
226.000000
20
463.000000
0
VERTEX
8
0
10
229.000000
20
448.000000
0
VERTEX
8
0
10
232.000000
20
445.000000
0
VERTEX
8
0
10
244.088235
20
440.352941
0
VERTEX
8
0
10
247.000000
20
440.000000
0
SEQEND
0
POLYLINE
8
0
6
CONTINUOUS
66
1
62
7
10
0.0
20
0.0
30
0.000000
0
VERTEX
8
0
10
466.000000
20
421.000000
0
VERTEX
8
0
10
466.500000
20
422.000000
0
VERTEX
8
0
10
458.700000
20
445.900000
0
VERTEX
8
0
10
458.300000
20
447.100000
0
VERTEX
8
0
10
454.000000
20
459.000000
0
VERTEX
8
0
10
452.000000
20
461.000000
0
VERTEX
8
0
10
444.100000
20
455.800000
0
VERTEX
8
0
10
433.000000
20
453.000000
0
VERTEX
8
0
10
416.000000
20
453.000000
0
VERTEX
8
0
10
403.088235
20
456.352941
0
VERTEX
8
0
10
376.100000
20
467.200000
0
VERTEX
8
0
10
374.900000
20
467.800000
0
VERTEX
8
0
10
360.000000
20
475.000000
0
VERTEX
8
0
10
359.000000
20
474.000000
0
VERTEX
8
0
10
358.529231
20
457.026154
0
VERTEX
8
0
10
355.250000
20
425.250000
0
VERTEX
8
0
10
356.000000
20
425.000000
0
VERTEX
8
0
10
366.000000
20
427.000000
0
VERTEX
8
0
10
429.000000
20
427.000000
0
VERTEX
8
0
10
446.932432
20
423.594595
0
VERTEX
8
0
10
466.000000
20
421.000000
0
SEQEND
0
POLYLINE
8
0
6
CONTINUOUS
66
1
62
7
10
0.0
20
0.0
30
0.000000
0
VERTEX
8
0
10
482.000000
20
408.000000
0
VERTEX
8
0
10
506.900000
20
419.300000
0
VERTEX
8
0
10
546.846154
20
438.230769
0
VERTEX
8
0
10
555.000000
20
444.000000
0
VERTEX
8
0
10
558.200000
20
447.900000
0
VERTEX
8
0
10
560.769231
20
452.153846
0
VERTEX
8
0
10
563.000000
20
460.000000
0
VERTEX
8
0
10
563.000000
20
466.000000
0
VERTEX
8
0
10
558.000000
20
478.000000
0
VERTEX
8
0
10
552.100000
20
482.200000
0
VERTEX
8
0
10
547.100000
20
484.300000
0
VERTEX
8
0
10
514.100000
20
489.200000
0
VERTEX
8
0
10
498.768493
20
502.750685
0
VERTEX
8
0
10
490.900000
20
508.800000
0
VERTEX
8
0
10
490.100000
20
509.200000
0
VERTEX
8
0
10
482.000000
20
512.000000
0
VERTEX
8
0
10
478.000000
20
512.000000
0
VERTEX
8
0
10
474.180000
20
509.760000
0
VERTEX
8
0
10
470.000000
20
507.000000
0
VERTEX
8
0
10
465.769231
20
502.153846
0
VERTEX
8
0
10
463.800000
20
499.100000
0
VERTEX
8
0
10
460.647059
20
490.088235
0
VERTEX
8
0
10
458.000000
20
480.000000
0
VERTEX
8
0
10
458.000000
20
465.000000
0
VERTEX
8
0
10
471.245902
20
422.204918
0
VERTEX
8
0
10
479.000000
20
408.000000
0
VERTEX
8
0
10
482.000000
20
408.000000
0
SEQEND
0
POLYLINE
8
0
6
CONTINUOUS
66
1
62
7
10
0.0
20
0.0
30
0.000000
0
VERTEX
8
0
10
322.000000
20
396.000000
0
VERTEX
8
0
10
321.000000
20
397.000000
0
SEQEND
0
POLYLINE
8
0
6
CONTINUOUS
66
1
62
7
10
0.0
20
0.0
30
0.000000
0
VERTEX
8
0
10
322.000000
20
396.000000
0
VERTEX
8
0
10
323.000000
20
397.000000
0
VERTEX
8
0
10
322.000000
20
398.000000
0
VERTEX
8
0
10
321.000000
20
397.000000
0
SEQEND
0
POLYLINE
8
0
6
CONTINUOUS
66
1
62
7
10
0.0
20
0.0
30
0.000000
0
VERTEX
8
0
10
499.000000
20
370.000000
0
VERTEX
8
0
10
498.000000
20
371.000000
0
VERTEX
8
0
10
499.000000
20
372.000000
0
VERTEX
8
0
10
500.000000
20
371.000000
0
SEQEND
0
POLYLINE
8
0
6
CONTINUOUS
66
1
62
7
10
0.0
20
0.0
30
0.000000
0
VERTEX
8
0
10
500.000000
20
370.000000
0
VERTEX
8
0
10
499.000000
20
370.000000
0
SEQEND
0
POLYLINE
8
0
6
CONTINUOUS
66
1
62
7
10
0.0
20
0.0
30
0.000000
0
VERTEX
8
0
10
500.000000
20
370.000000
0
VERTEX
8
0
10
500.000000
20
371.000000
0
SEQEND
0
POLYLINE
8
0
6
CONTINUOUS
66
1
62
7
10
0.0
20
0.0
30
0.000000
0
VERTEX
8
0
10
499.000000
20
369.000000
0
VERTEX
8
0
10
499.000000
20
370.000000
0
SEQEND
0
POLYLINE
8
0
6
CONTINUOUS
66
1
62
7
10
0.0
20
0.0
30
0.000000
0
VERTEX
8
0
10
501.000000
20
369.000000
0
VERTEX
8
0
10
500.000000
20
370.000000
0
SEQEND
0
POLYLINE
8
0
6
CONTINUOUS
66
1
62
7
10
0.0
20
0.0
30
0.000000
0
VERTEX
8
0
10
500.000000
20
368.000000
0
VERTEX
8
0
10
499.000000
20
369.000000
0
SEQEND
0
POLYLINE
8
0
6
CONTINUOUS
66
1
62
7
10
0.0
20
0.0
30
0.000000
0
VERTEX
8
0
10
500.000000
20
368.000000
0
VERTEX
8
0
10
501.000000
20
369.000000
0
SEQEND
0
POLYLINE
8
0
6
CONTINUOUS
66
1
62
7
10
0.0
20
0.0
30
0.000000
0
VERTEX
8
0
10
386.000000
20
333.000000
0
VERTEX
8
0
10
387.173410
20
335.127168
0
VERTEX
8
0
10
388.455172
20
345.962069
0
VERTEX
8
0
10
392.200000
20
354.900000
0
VERTEX
8
0
10
392.800000
20
356.100000
0
VERTEX
8
0
10
397.000000
20
361.000000
0
VERTEX
8
0
10
417.180000
20
375.760000
0
VERTEX
8
0
10
448.100000
20
391.800000
0
VERTEX
8
0
10
457.900000
20
396.200000
0
VERTEX
8
0
10
464.000000
20
400.000000
0
VERTEX
8
0
10
463.000000
20
402.000000
0
VERTEX
8
0
10
442.932432
20
404.594595
0
VERTEX
8
0
10
438.067568
20
405.405405
0
VERTEX
8
0
10
410.000000
20
408.000000
0
VERTEX
8
0
10
364.000000
20
408.000000
0
VERTEX
8
0
10
352.000000
20
405.000000
0
VERTEX
8
0
10
343.300000
20
386.900000
0
VERTEX
8
0
10
339.700000
20
378.100000
0
VERTEX
8
0
10
330.769231
20
362.153846
0
VERTEX
8
0
10
322.000000
20
349.000000
0
VERTEX
8
0
10
325.000000
20
346.000000
0
VERTEX
8
0
10
342.100000
20
335.300000
0
VERTEX
8
0
10
349.000000
20
333.000000
0
VERTEX
8
0
10
356.000000
20
333.000000
0
VERTEX
8
0
10
357.000000
20
334.000000
0
VERTEX
8
0
10
382.000000
20
334.000000
0
VERTEX
8
0
10
386.000000
20
333.000000
0
SEQEND
0
POLYLINE
8
0
6
CONTINUOUS
66
1
62
7
10
0.0
20
0.0
30
0.000000
0
VERTEX
8
0
10
555.000000
20
331.000000
0
VERTEX
8
0
10
558.820000
20
333.240000
0
VERTEX
8
0
10
566.000000
20
339.000000
0
VERTEX
8
0
10
569.769231
20
345.153846
0
VERTEX
8
0
10
573.560976
20
359.048780
0
VERTEX
8
0
10
575.420000
20
373.940000
0
VERTEX
8
0
10
580.230769
20
381.846154
0
VERTEX
8
0
10
582.200000
20
384.900000
0
VERTEX
8
0
10
584.594595
20
390.067568
0
VERTEX
8
0
10
585.405405
20
394.932432
0
VERTEX
8
0
10
586.000000
20
402.000000
0
VERTEX
8
0
10
582.230769
20
412.153846
0
VERTEX
8
0
10
578.000000
20
418.000000
0
VERTEX
8
0
10
565.923077
20
421.615385
0
VERTEX
8
0
10
553.000000
20
424.000000
0
VERTEX
8
0
10
535.951220
20
422.439024
0
VERTEX
8
0
10
522.067568
20
420.594595
0
VERTEX
8
0
10
504.100000
20
413.700000
0
VERTEX
8
0
10
495.100000
20
409.800000
0
VERTEX
8
0
10
484.000000
20
404.000000
0
VERTEX
8
0
10
484.000000
20
402.000000
0
VERTEX
8
0
10
490.230769
20
393.153846
0
VERTEX
8
0
10
491.769231
20
390.846154
0
VERTEX
8
0
10
507.756098
20
368.804878
0
VERTEX
8
0
10
510.760000
20
364.820000
0
VERTEX
8
0
10
530.000000
20
344.000000
0
VERTEX
8
0
10
535.195122
20
340.243902
0
VERTEX
8
0
10
547.100000
20
334.200000
0
VERTEX
8
0
10
555.000000
20
331.000000
0
SEQEND
0
POLYLINE
8
0
6
CONTINUOUS
66
1
62
7
10
0.0
20
0.0
30
0.000000
0
VERTEX
8
0
10
230.000000
20
325.000000
0
VERTEX
8
0
10
229.576923
20
325.615385
0
VERTEX
8
0
10
249.000000
20
349.000000
0
VERTEX
8
0
10
257.000000
20
357.000000
0
VERTEX
8
0
10
274.195122
20
370.756098
0
VERTEX
8
0
10
286.820000
20
380.240000
0
VERTEX
8
0
10
297.100000
20
386.800000
0
VERTEX
8
0
10
299.900000
20
388.200000
0
VERTEX
8
0
10
317.100000
20
395.700000
0
VERTEX
8
0
10
321.000000
20
397.000000
0
SEQEND
0
POLYLINE
8
0
6
CONTINUOUS
66
1
62
7
10
0.0
20
0.0
30
0.000000
0
VERTEX
8
0
10
230.000000
20
325.000000
0
VERTEX
8
0
10
237.900000
20
329.200000
0
VERTEX
8
0
10
259.100000
20
340.700000
0
VERTEX
8
0
10
274.100000
20
344.700000
0
VERTEX
8
0
10
286.735294
20
348.441176
0
VERTEX
8
0
10
296.204918
20
355.754098
0
VERTEX
8
0
10
302.245902
20
361.795082
0
VERTEX
8
0
10
309.760000
20
371.180000
0
VERTEX
8
0
10
317.800000
20
387.100000
0
VERTEX
8
0
10
322.000000
20
396.000000
0
SEQEND
0
POLYLINE
8
0
6
CONTINUOUS
66
1
62
7
10
0.0
20
0.0
30
0.000000
0
VERTEX
8
0
10
227.000000
20
323.000000
0
VERTEX
8
0
10
230.000000
20
325.000000
0
SEQEND
0
POLYLINE
8
0
6
CONTINUOUS
66
1
62
7
10
0.0
20
0.0
30
0.000000
0
VERTEX
8
0
10
486.000000
20
301.000000
0
VERTEX
8
0
10
499.000000
20
305.000000
0
VERTEX
8
0
10
502.647059
20
312.088235
0
VERTEX
8
0
10
503.352941
20
314.911765
0
VERTEX
8
0
10
504.000000
20
316.000000
0
VERTEX
8
0
10
504.000000
20
336.000000
0
VERTEX
8
0
10
501.615385
20
345.923077
0
VERTEX
8
0
10
500.615385
20
350.923077
0
VERTEX
8
0
10
491.700000
20
376.900000
0
VERTEX
8
0
10
488.200000
20
384.100000
0
VERTEX
8
0
10
484.000000
20
393.000000
0
VERTEX
8
0
10
477.000000
20
399.000000
0
VERTEX
8
0
10
472.900000
20
398.300000
0
VERTEX
8
0
10
469.900000
20
397.200000
0
VERTEX
8
0
10
423.180000
20
374.760000
0
VERTEX
8
0
10
398.000000
20
356.000000
0
VERTEX
8
0
10
396.352941
20
350.911765
0
VERTEX
8
0
10
395.647059
20
348.088235
0
VERTEX
8
0
10
394.000000
20
343.000000
0
VERTEX
8
0
10
394.000000
20
333.000000
0
VERTEX
8
0
10
401.000000
20
326.000000
0
VERTEX
8
0
10
405.180000
20
323.240000
0
VERTEX
8
0
10
405.820000
20
322.760000
0
VERTEX
8
0
10
411.088235
20
319.352941
0
VERTEX
8
0
10
413.911765
20
318.647059
0
VERTEX
8
0
10
439.067568
20
318.405405
0
VERTEX
8
0
10
443.932432
20
317.594595
0
VERTEX
8
0
10
476.040984
20
301.450820
0
VERTEX
8
0
10
486.000000
20
301.000000
0
SEQEND
0
POLYLINE
8
0
6
CONTINUOUS
66
1
62
7
10
0.0
20
0.0
30
0.000000
0
VERTEX
8
0
10
364.000000
20
260.000000
0
VERTEX
8
0
10
362.000000
20
260.000000
0
SEQEND
0
POLYLINE
8
0
6
CONTINUOUS
66
1
62
7
10
0.0
20
0.0
30
0.000000
0
VERTEX
8
0
10
364.000000
20
260.000000
0
VERTEX
8
0
10
364.000000
20
261.000000
0
VERTEX
8
0
10
366.846154
20
263.230769
0
VERTEX
8
0
10
369.153846
20
264.769231
0
VERTEX
8
0
10
393.783186
20
284.247788
0
VERTEX
8
0
10
407.000000
20
296.000000
0
VERTEX
8
0
10
407.300000
20
297.900000
0
VERTEX
8
0
10
409.250000
20
313.750000
0
VERTEX
8
0
10
410.000000
20
314.000000
0
VERTEX
8
0
10
416.000000
20
313.000000
0
VERTEX
8
0
10
425.048780
20
313.560976
0
VERTEX
8
0
10
432.951220
20
314.439024
0
VERTEX
8
0
10
443.000000
20
315.000000
0
VERTEX
8
0
10
446.846154
20
312.769231
0
VERTEX
8
0
10
457.900000
20
305.800000
0
VERTEX
8
0
10
470.100000
20
299.300000
0
VERTEX
8
0
10
471.900000
20
298.700000
0
VERTEX
8
0
10
482.000000
20
296.000000
0
VERTEX
8
0
10
488.000000
20
296.000000
0
VERTEX
8
0
10
497.900000
20
299.200000
0
VERTEX
8
0
10
500.000000
20
300.000000
0
VERTEX
8
0
10
503.230769
20
303.846154
0
VERTEX
8
0
10
505.200000
20
306.900000
0
VERTEX
8
0
10
509.000000
20
317.000000
0
VERTEX
8
0
10
509.000000
20
329.000000
0
VERTEX
8
0
10
507.544828
20
340.962069
0
VERTEX
8
0
10
501.200000
20
365.100000
0
VERTEX
8
0
10
500.000000
20
368.000000
0
SEQEND
0
POLYLINE
8
0
6
CONTINUOUS
66
1
62
7
10
0.0
20
0.0
30
0.000000
0
VERTEX
8
0
10
309.000000
20
250.000000
0
VERTEX
8
0
10
308.000000
20
251.000000
0
SEQEND
0
POLYLINE
8
0
6
CONTINUOUS
66
1
62
7
10
0.0
20
0.0
30
0.000000
0
VERTEX
8
0
10
308.000000
20
251.000000
0
VERTEX
8
0
10
296.800000
20
276.900000
0
VERTEX
8
0
10
278.200000
20
314.100000
0
VERTEX
8
0
10
278.000000
20
315.000000
0
VERTEX
8
0
10
276.000000
20
317.000000
0
VERTEX
8
0
10
272.000000
20
317.000000
0
VERTEX
8
0
10
270.900000
20
316.300000
0
VERTEX
8
0
10
253.153846
20
308.769231
0
VERTEX
8
0
10
245.900000
20
304.200000
0
VERTEX
8
0
10
219.223757
20
283.751381
0
VERTEX
8
0
10
201.000000
20
267.000000
0
VERTEX
8
0
10
189.200000
20
249.900000
0
VERTEX
8
0
10
186.800000
20
246.100000
0
VERTEX
8
0
10
186.000000
20
245.000000
0
VERTEX
8
0
10
187.000000
20
244.000000
0
VERTEX
8
0
10
204.100000
20
253.800000
0
VERTEX
8
0
10
204.900000
20
254.200000
0
VERTEX
8
0
10
227.088235
20
262.647059
0
VERTEX
8
0
10
229.911765
20
263.352941
0
VERTEX
8
0
10
237.000000
20
265.000000
0
VERTEX
8
0
10
272.000000
20
265.000000
0
VERTEX
8
0
10
275.911765
20
263.647059
0
VERTEX
8
0
10
282.911765
20
261.647059
0
VERTEX
8
0
10
297.100000
20
256.200000
0
VERTEX
8
0
10
308.000000
20
251.000000
0
SEQEND
0
POLYLINE
8
0
6
CONTINUOUS
66
1
62
7
10
0.0
20
0.0
30
0.000000
0
VERTEX
8
0
10
323.000000
20
244.000000
0
VERTEX
8
0
10
331.900000
20
248.200000
0
VERTEX
8
0
10
361.846154
20
266.230769
0
VERTEX
8
0
10
376.180000
20
276.760000
0
VERTEX
8
0
10
396.000000
20
292.000000
0
VERTEX
8
0
10
401.000000
20
297.000000
0
VERTEX
8
0
10
404.000000
20
306.000000
0
VERTEX
8
0
10
404.000000
20
313.000000
0
VERTEX
8
0
10
401.760000
20
315.820000
0
VERTEX
8
0
10
399.000000
20
320.000000
0
VERTEX
8
0
10
393.153846
20
324.230769
0
VERTEX
8
0
10
390.100000
20
326.200000
0
VERTEX
8
0
10
387.000000
20
328.000000
0
VERTEX
8
0
10
348.000000
20
327.000000
0
VERTEX
8
0
10
333.153846
20
336.230769
0
VERTEX
8
0
10
328.900000
20
338.800000
0
VERTEX
8
0
10
316.100000
20
344.300000
0
VERTEX
8
0
10
310.000000
20
346.000000
0
VERTEX
8
0
10
304.000000
20
346.000000
0
VERTEX
8
0
10
296.088235
20
343.647059
0
VERTEX
8
0
10
291.000000
20
342.000000
0
VERTEX
8
0
10
285.800000
20
335.100000
0
VERTEX
8
0
10
283.700000
20
330.100000
0
VERTEX
8
0
10
282.000000
20
325.000000
0
VERTEX
8
0
10
282.000000
20
320.000000
0
VERTEX
8
0
10
283.384615
20
315.076923
0
VERTEX
8
0
10
283.800000
20
313.900000
0
VERTEX
8
0
10
300.800000
20
277.900000
0
VERTEX
8
0
10
301.800000
20
275.900000
0
VERTEX
8
0
10
315.000000
20
251.000000
0
VERTEX
8
0
10
322.000000
20
244.000000
0
VERTEX
8
0
10
323.000000
20
244.000000
0
SEQEND
0
POLYLINE
8
0
6
CONTINUOUS
66
1
62
7
10
0.0
20
0.0
30
0.000000
0
VERTEX
8
0
10
295.000000
20
234.000000
0
VERTEX
8
0
10
294.000000
20
234.000000
0
SEQEND
0
POLYLINE
8
0
6
CONTINUOUS
66
1
62
7
10
0.0
20
0.0
30
0.000000
0
VERTEX
8
0
10
341.000000
20
205.000000
0
VERTEX
8
0
10
340.000000
20
206.000000
0
VERTEX
8
0
10
341.000000
20
207.000000
0
VERTEX
8
0
10
342.000000
20
206.000000
0
SEQEND
0
POLYLINE
8
0
6
CONTINUOUS
66
1
62
7
10
0.0
20
0.0
30
0.000000
0
VERTEX
8
0
10
341.000000
20
205.000000
0
VERTEX
8
0
10
342.000000
20
206.000000
0
SEQEND
0
POLYLINE
8
0
6
CONTINUOUS
66
1
62
7
10
0.0
20
0.0
30
0.000000
0
VERTEX
8
0
10
343.000000
20
204.000000
0
VERTEX
8
0
10
342.000000
20
206.000000
0
SEQEND
0
POLYLINE
8
0
6
CONTINUOUS
66
1
62
7
10
0.0
20
0.0
30
0.000000
0
VERTEX
8
0
10
342.000000
20
203.000000
0
VERTEX
8
0
10
341.000000
20
205.000000
0
SEQEND
0
POLYLINE
8
0
6
CONTINUOUS
66
1
62
7
10
0.0
20
0.0
30
0.000000
0
VERTEX
8
0
10
342.000000
20
203.000000
0
VERTEX
8
0
10
343.000000
20
204.000000
0
SEQEND
0
POLYLINE
8
0
6
CONTINUOUS
66
1
62
7
10
0.0
20
0.0
30
0.000000
0
VERTEX
8
0
10
394.000000
20
171.000000
0
VERTEX
8
0
10
399.900000
20
173.200000
0
VERTEX
8
0
10
404.000000
20
176.000000
0
VERTEX
8
0
10
408.769231
20
183.153846
0
VERTEX
8
0
10
411.700000
20
193.100000
0
VERTEX
8
0
10
416.647059
20
210.088235
0
VERTEX
8
0
10
418.249480
20
214.766112
0
VERTEX
8
0
10
432.750520
20
230.233888
0
VERTEX
8
0
10
433.800000
20
232.100000
0
VERTEX
8
0
10
434.200000
20
232.900000
0
VERTEX
8
0
10
436.000000
20
238.000000
0
VERTEX
8
0
10
436.000000
20
247.000000
0
VERTEX
8
0
10
434.647059
20
250.911765
0
VERTEX
8
0
10
434.200000
20
252.100000
0
VERTEX
8
0
10
430.000000
20
259.000000
0
VERTEX
8
0
10
427.100000
20
260.200000
0
VERTEX
8
0
10
419.000000
20
263.000000
0
VERTEX
8
0
10
407.000000
20
263.000000
0
VERTEX
8
0
10
394.035294
20
261.541176
0
VERTEX
8
0
10
366.088235
20
254.647059
0
VERTEX
8
0
10
358.088235
20
252.647059
0
VERTEX
8
0
10
330.100000
20
242.700000
0
VERTEX
8
0
10
328.900000
20
242.200000
0
VERTEX
8
0
10
325.000000
20
239.000000
0
VERTEX
8
0
10
330.248276
20
232.220690
0
VERTEX
8
0
10
337.751724
20
223.779310
0
VERTEX
8
0
10
351.760000
20
205.820000
0
VERTEX
8
0
10
366.000000
20
187.000000
0
VERTEX
8
0
10
374.000000
20
179.000000
0
VERTEX
8
0
10
379.195122
20
175.243902
0
VERTEX
8
0
10
385.076923
20
172.384615
0
VERTEX
8
0
10
394.000000
20
171.000000
0
SEQEND
0
POLYLINE
8
0
6
CONTINUOUS
66
1
62
7
10
0.0
20
0.0
30
0.000000
0
VERTEX
8
0
10
343.000000
20
204.000000
0
VERTEX
8
0
10
360.000000
20
185.000000
0
VERTEX
8
0
10
380.153846
20
169.230769
0
VERTEX
8
0
10
380.900000
20
168.800000
0
VERTEX
8
0
10
387.000000
20
167.000000
0
VERTEX
8
0
10
398.000000
20
167.000000
0
VERTEX
8
0
10
408.000000
20
171.000000
0
VERTEX
8
0
10
413.000000
20
176.000000
0
VERTEX
8
0
10
420.647059
20
203.088235
0
VERTEX
8
0
10
421.352941
20
205.911765
0
VERTEX
8
0
10
439.200000
20
231.900000
0
VERTEX
8
0
10
442.000000
20
242.000000
0
VERTEX
8
0
10
437.769231
20
252.846154
0
VERTEX
8
0
10
431.000000
20
262.000000
0
VERTEX
8
0
10
423.088235
20
265.352941
0
VERTEX
8
0
10
411.000000
20
267.000000
0
VERTEX
8
0
10
400.000000
20
267.000000
0
VERTEX
8
0
10
367.100000
20
260.700000
0
VERTEX
8
0
10
364.000000
20
260.000000
0
SEQEND
0
POLYLINE
8
0
6
CONTINUOUS
66
1
62
7
10
0.0
20
0.0
30
0.000000
0
VERTEX
8
0
10
278.000000
20
597.000000
0
VERTEX
8
0
10
249.100000
20
588.700000
0
VERTEX
8
0
10
228.100000
20
579.800000
0
VERTEX
8
0
10
209.900000
20
571.200000
0
VERTEX
8
0
10
180.820000
20
551.240000
0
VERTEX
8
0
10
154.000000
20
528.000000
0
VERTEX
8
0
10
145.000000
20
519.000000
0
VERTEX
8
0
10
138.243902
20
509.804878
0
VERTEX
8
0
10
124.240000
20
491.820000
0
VERTEX
8
0
10
113.230769
20
473.846154
0
VERTEX
8
0
10
101.800000
20
453.100000
0
VERTEX
8
0
10
87.647059
20
416.088235
0
VERTEX
8
0
10
84.615385
20
402.076923
0
VERTEX
8
0
10
80.439024
20
381.951220
0
VERTEX
8
0
10
77.000000
20
349.000000
0
VERTEX
8
0
10
78.544828
20
322.962069
0
VERTEX
8
0
10
80.439024
20
303.048780
0
VERTEX
8
0
10
88.352941
20
269.088235
0
VERTEX
8
0
10
89.352941
20
265.088235
0
VERTEX
8
0
10
104.800000
20
225.900000
0
VERTEX
8
0
10
117.800000
20
203.900000
0
VERTEX
8
0
10
125.243902
20
192.195122
0
VERTEX
8
0
10
141.243902
20
172.195122
0
VERTEX
8
0
10
146.000000
20
166.000000
0
VERTEX
8
0
10
147.000000
20
167.000000
0
VERTEX
8
0
10
147.489140
20
212.989593
0
VERTEX
8
0
10
149.405405
20
226.932432
0
VERTEX
8
0
10
150.352941
20
230.911765
0
VERTEX
8
0
10
160.300000
20
259.900000
0
VERTEX
8
0
10
170.800000
20
284.100000
0
VERTEX
8
0
10
178.230769
20
297.846154
0
VERTEX
8
0
10
183.769231
20
306.153846
0
VERTEX
8
0
10
201.000000
20
329.000000
0
VERTEX
8
0
10
237.000000
20
365.000000
0
VERTEX
8
0
10
244.153846
20
369.769231
0
VERTEX
8
0
10
281.900000
20
396.200000
0
VERTEX
8
0
10
294.900000
20
403.200000
0
VERTEX
8
0
10
328.100000
20
419.800000
0
VERTEX
8
0
10
329.000000
20
420.000000
0
VERTEX
8
0
10
331.230769
20
422.846154
0
VERTEX
8
0
10
332.600000
20
425.200000
0
VERTEX
8
0
10
335.000000
20
437.000000
0
VERTEX
8
0
10
335.000000
20
455.000000
0
VERTEX
8
0
10
333.531034
20
471.972414
0
VERTEX
8
0
10
333.384615
20
473.076923
0
VERTEX
8
0
10
330.000000
20
484.000000
0
VERTEX
8
0
10
329.000000
20
485.000000
0
VERTEX
8
0
10
328.000000
20
485.000000
0
VERTEX
8
0
10
316.771698
20
474.249057
0
VERTEX
8
0
10
286.153846
20
451.769231
0
VERTEX
8
0
10
281.100000
20
448.800000
0
VERTEX
8
0
10
264.911765
20
441.352941
0
VERTEX
8
0
10
262.088235
20
440.647059
0
VERTEX
8
0
10
247.000000
20
437.000000
0
VERTEX
8
0
10
240.911765
20
437.647059
0
VERTEX
8
0
10
233.180000
20
440.240000
0
VERTEX
8
0
10
225.000000
20
447.000000
0
VERTEX
8
0
10
222.352941
20
452.088235
0
VERTEX
8
0
10
221.647059
20
454.911765
0
VERTEX
8
0
10
221.000000
20
456.000000
0
VERTEX
8
0
10
221.000000
20
469.000000
0
VERTEX
8
0
10
224.405405
20
486.932432
0
VERTEX
8
0
10
225.647059
20
492.088235
0
VERTEX
8
0
10
227.000000
20
498.000000
0
VERTEX
8
0
10
224.700000
20
503.900000
0
VERTEX
8
0
10
220.000000
20
520.000000
0
VERTEX
8
0
10
220.000000
20
535.000000
0
VERTEX
8
0
10
224.000000
20
543.000000
0
VERTEX
8
0
10
228.000000
20
547.000000
0
VERTEX
8
0
10
239.000000
20
552.000000
0
VERTEX
8
0
10
254.000000
20
552.000000
0
VERTEX
8
0
10
264.900000
20
548.700000
0
VERTEX
8
0
10
282.846154
20
538.769231
0
VERTEX
8
0
10
293.000000
20
532.000000
0
SEQEND
0
POLYLINE
8
0
6
CONTINUOUS
66
1
62
7
10
0.0
20
0.0
30
0.000000
0
VERTEX
8
0
10
333.000000
20
135.000000
0
VERTEX
8
0
10
345.000000
20
145.000000
0
VERTEX
8
0
10
345.647059
20
148.088235
0
VERTEX
8
0
10
346.352941
20
150.911765
0
VERTEX
8
0
10
348.000000
20
167.000000
0
VERTEX
8
0
10
344.647059
20
179.911765
0
VERTEX
8
0
10
339.300000
20
195.100000
0
VERTEX
8
0
10
327.200000
20
222.100000
0
VERTEX
8
0
10
326.200000
20
224.100000
0
VERTEX
8
0
10
323.000000
20
231.000000
0
VERTEX
8
0
10
318.000000
20
236.000000
0
VERTEX
8
0
10
315.000000
20
236.000000
0
VERTEX
8
0
10
307.100000
20
232.800000
0
VERTEX
8
0
10
293.900000
20
227.200000
0
VERTEX
8
0
10
277.846154
20
218.230769
0
VERTEX
8
0
10
251.000000
20
200.000000
0
VERTEX
8
0
10
247.000000
20
196.000000
0
VERTEX
8
0
10
240.230769
20
186.846154
0
VERTEX
8
0
10
236.800000
20
180.100000
0
VERTEX
8
0
10
235.000000
20
177.000000
0
VERTEX
8
0
10
235.000000
20
169.000000
0
VERTEX
8
0
10
238.230769
20
162.153846
0
VERTEX
8
0
10
242.000000
20
157.000000
0
VERTEX
8
0
10
245.846154
20
154.769231
0
VERTEX
8
0
10
256.044554
20
149.445545
0
VERTEX
8
0
10
264.955446
20
148.554455
0
VERTEX
8
0
10
291.982192
20
147.519178
0
VERTEX
8
0
10
301.900000
20
142.800000
0
VERTEX
8
0
10
303.900000
20
141.800000
0
VERTEX
8
0
10
315.076923
20
136.384615
0
VERTEX
8
0
10
318.923077
20
135.615385
0
VERTEX
8
0
10
333.000000
20
135.000000
0
SEQEND
0
POLYLINE
8
0
6
CONTINUOUS
66
1
62
7
10
0.0
20
0.0
30
0.000000
0
VERTEX
8
0
10
294.000000
20
234.000000
0
VERTEX
8
0
10
290.820000
20
231.240000
0
VERTEX
8
0
10
283.900000
20
227.200000
0
VERTEX
8
0
10
283.100000
20
226.800000
0
VERTEX
8
0
10
267.846154
20
218.230769
0
VERTEX
8
0
10
251.000000
20
206.000000
0
VERTEX
8
0
10
233.800000
20
188.100000
0
VERTEX
8
0
10
230.647059
20
180.088235
0
VERTEX
8
0
10
230.000000
20
179.000000
0
VERTEX
8
0
10
230.000000
20
168.000000
0
VERTEX
8
0
10
236.000000
20
158.000000
0
VERTEX
8
0
10
241.846154
20
152.769231
0
VERTEX
8
0
10
248.180000
20
148.240000
0
VERTEX
8
0
10
263.000000
20
144.000000
0
VERTEX
8
0
10
290.000000
20
145.000000
0
VERTEX
8
0
10
295.804878
20
141.756098
0
VERTEX
8
0
10
304.180000
20
135.240000
0
VERTEX
8
0
10
311.076923
20
132.384615
0
VERTEX
8
0
10
316.053846
20
131.430769
0
VERTEX
8
0
10
329.000000
20
130.000000
0
VERTEX
8
0
10
336.100000
20
131.700000
0
VERTEX
8
0
10
342.846154
20
135.230769
0
VERTEX
8
0
10
348.000000
20
139.000000
0
VERTEX
8
0
10
348.200000
20
139.900000
0
VERTEX
8
0
10
352.594595
20
151.067568
0
VERTEX
8
0
10
353.405405
20
155.932432
0
VERTEX
8
0
10
354.000000
20
162.000000
0
VERTEX
8
0
10
342.647059
20
199.911765
0
VERTEX
8
0
10
342.000000
20
203.000000
0
SEQEND
0
POLYLINE
8
0
6
CONTINUOUS
66
1
62
7
10
0.0
20
0.0
30
0.000000
0
VERTEX
8
0
10
294.000000
20
234.000000
0
VERTEX
8
0
10
292.100000
20
235.200000
0
VERTEX
8
0
10
273.000000
20
242.000000
0
VERTEX
8
0
10
251.000000
20
242.000000
0
VERTEX
8
0
10
242.048780
20
240.560976
0
VERTEX
8
0
10
228.100000
20
236.700000
0
VERTEX
8
0
10
221.900000
20
234.200000
0
VERTEX
8
0
10
214.180000
20
229.760000
0
VERTEX
8
0
10
210.820000
20
227.240000
0
VERTEX
8
0
10
206.000000
20
224.000000
0
VERTEX
8
0
10
190.000000
20
208.000000
0
VERTEX
8
0
10
187.230769
20
202.846154
0
VERTEX
8
0
10
185.800000
20
200.100000
0
VERTEX
8
0
10
179.352941
20
183.911765
0
VERTEX
8
0
10
177.554455
20
171.044554
0
VERTEX
8
0
10
175.352941
20
144.911765
0
VERTEX
8
0
10
174.000000
20
140.000000
0
VERTEX
8
0
10
194.820000
20
125.760000
0
VERTEX
8
0
10
198.846154
20
122.769231
0
VERTEX
8
0
10
229.900000
20
105.800000
0
VERTEX
8
0
10
238.900000
20
101.700000
0
VERTEX
8
0
10
272.076923
20
90.384615
0
VERTEX
8
0
10
295.923077
20
85.615385
0
VERTEX
8
0
10
335.000000
20
81.000000
0
VERTEX
8
0
10
348.000000
20
81.000000
0
VERTEX
8
0
10
375.959016
20
83.450820
0
VERTEX
8
0
10
388.923077
20
86.384615
0
VERTEX
8
0
10
397.923077
20
88.384615
0
VERTEX
8
0
10
418.900000
20
94.300000
0
VERTEX
8
0
10
439.900000
20
101.300000
0
VERTEX
8
0
10
456.900000
20
109.200000
0
VERTEX
8
0
10
475.100000
20
118.800000
0
VERTEX
8
0
10
488.180000
20
127.760000
0
VERTEX
8
0
10
496.180000
20
133.760000
0
VERTEX
8
0
10
509.000000
20
143.000000
0
VERTEX
8
0
10
539.000000
20
173.000000
0
VERTEX
8
0
10
544.760000
20
181.180000
0
VERTEX
8
0
10
564.200000
20
207.900000
0
VERTEX
8
0
10
569.200000
20
217.900000
0
VERTEX
8
0
10
580.700000
20
240.100000
0
VERTEX
8
0
10
585.800000
20
255.100000
0
VERTEX
8
0
10
592.615385
20
276.076923
0
VERTEX
8
0
10
595.405405
20
290.932432
0
VERTEX
8
0
10
599.544828
20
315.037931
0
VERTEX
8
0
10
600.455172
20
325.962069
0
VERTEX
8
0
10
602.000000
20
349.000000
0
VERTEX
8
0
10
597.569231
20
387.946154
0
VERTEX
8
0
10
596.000000
20
392.000000
0
VERTEX
8
0
10
594.756098
20
390.195122
0
VERTEX
8
0
10
590.752941
20
385.211765
0
VERTEX
8
0
10
581.646154
20
373.630769
0
VERTEX
8
0
10
577.352941
20
352.911765
0
VERTEX
8
0
10
573.800000
20
340.100000
0
VERTEX
8
0
10
570.200000
20
332.900000
0
VERTEX
8
0
10
567.000000
20
329.000000
0
VERTEX
8
0
10
566.100000
20
328.800000
0
VERTEX
8
0
10
557.000000
20
326.000000
0
VERTEX
8
0
10
552.000000
20
326.000000
0
VERTEX
8
0
10
538.100000
20
333.200000
0
VERTEX
8
0
10
526.846154
20
340.769231
0
VERTEX
8
0
10
521.000000
20
346.000000
0
VERTEX
8
0
10
501.000000
20
369.000000
0
SEQEND
0
POLYLINE
8
0
6
CONTINUOUS
66
1
62
7
10
0.0
20
0.0
30
0.000000
0
VERTEX
8
0
10
346.000000
20
50.000000
0
VERTEX
8
0
10
370.964706
20
52.458824
0
VERTEX
8
0
10
396.088235
20
56.647059
0
VERTEX
8
0
10
408.923077
20
59.384615
0
VERTEX
8
0
10
425.100000
20
63.700000
0
VERTEX
8
0
10
453.900000
20
73.300000
0
VERTEX
8
0
10
466.900000
20
80.200000
0
VERTEX
8
0
10
483.100000
20
88.800000
0
VERTEX
8
0
10
502.820000
20
101.240000
0
VERTEX
8
0
10
506.180000
20
103.760000
0
VERTEX
8
0
10
528.000000
20
119.000000
0
VERTEX
8
0
10
561.000000
20
152.000000
0
VERTEX
8
0
10
572.760000
20
168.180000
0
VERTEX
8
0
10
584.760000
20
184.180000
0
VERTEX
8
0
10
599.800000
20
212.100000
0
VERTEX
8
0
10
603.800000
20
220.100000
0
VERTEX
8
0
10
613.700000
20
245.100000
0
VERTEX
8
0
10
620.352941
20
264.911765
0
VERTEX
8
0
10
627.560976
20
301.048780
0
VERTEX
8
0
10
631.000000
20
335.000000
0
VERTEX
8
0
10
630.458824
20
348.035294
0
VERTEX
8
0
10
627.560976
20
382.951220
0
VERTEX
8
0
10
622.615385
20
405.923077
0
VERTEX
8
0
10
619.647059
20
418.911765
0
VERTEX
8
0
10
608.800000
20
448.900000
0
VERTEX
8
0
10
605.800000
20
456.900000
0
VERTEX
8
0
10
589.200000
20
489.100000
0
VERTEX
8
0
10
585.200000
20
496.100000
0
VERTEX
8
0
10
557.000000
20
535.000000
0
VERTEX
8
0
10
521.788235
20
566.752941
0
VERTEX
8
0
10
485.846154
20
592.769231
0
VERTEX
8
0
10
451.100000
20
610.200000
0
VERTEX
8
0
10
407.088235
20
623.352941
0
VERTEX
8
0
10
371.000000
20
630.000000
0
VERTEX
8
0
10
367.200000
20
644.100000
0
VERTEX
8
0
10
365.000000
20
649.000000
0
VERTEX
8
0
10
356.000000
20
658.000000
0
VERTEX
8
0
10
353.900000
20
658.700000
0
VERTEX
8
0
10
347.100000
20
661.300000
0
VERTEX
8
0
10
346.000000
20
662.000000
0
VERTEX
8
0
10
333.000000
20
662.000000
0
VERTEX
8
0
10
330.100000
20
660.700000
0
VERTEX
8
0
10
328.900000
20
660.200000
0
VERTEX
8
0
10
323.000000
20
658.000000
0
VERTEX
8
0
10
314.000000
20
649.000000
0
VERTEX
8
0
10
311.230769
20
643.846154
0
VERTEX
8
0
10
308.000000
20
630.000000
0
VERTEX
8
0
10
269.088235
20
622.647059
0
VERTEX
8
0
10
227.100000
20
609.800000
0
VERTEX
8
0
10
190.846154
20
591.230769
0
VERTEX
8
0
10
157.211765
20
566.752941
0
VERTEX
8
0
10
121.000000
20
534.000000
0
VERTEX
8
0
10
94.200000
20
496.900000
0
VERTEX
8
0
10
89.800000
20
489.100000
0
VERTEX
8
0
10
73.300000
20
457.900000
0
VERTEX
8
0
10
69.700000
20
448.100000
0
VERTEX
8
0
10
59.352941
20
418.911765
0
VERTEX
8
0
10
55.615385
20
402.076923
0
VERTEX
8
0
10
51.439024
20
382.951220
0
VERTEX
8
0
10
48.000000
20
347.000000
0
VERTEX
8
0
10
48.541176
20
333.964706
0
VERTEX
8
0
10
51.439024
20
301.048780
0
VERTEX
8
0
10
59.352941
20
262.088235
0
VERTEX
8
0
10
65.800000
20
243.900000
0
VERTEX
8
0
10
75.200000
20
220.100000
0
VERTEX
8
0
10
79.800000
20
210.900000
0
VERTEX
8
0
10
94.240000
20
184.180000
0
VERTEX
8
0
10
108.760000
20
164.820000
0
VERTEX
8
0
10
118.000000
20
152.000000
0
VERTEX
8
0
10
151.000000
20
119.000000
0
VERTEX
8
0
10
176.180000
20
101.240000
0
VERTEX
8
0
10
195.900000
20
88.800000
0
VERTEX
8
0
10
212.846154
20
79.769231
0
VERTEX
8
0
10
225.100000
20
73.300000
0
VERTEX
8
0
10
253.900000
20
63.700000
0
VERTEX
8
0
10
270.076923
20
59.384615
0
VERTEX
8
0
10
282.911765
20
56.647059
0
VERTEX
8
0
10
308.035294
20
52.458824
0
VERTEX
8
0
10
346.000000
20
50.000000
0
SEQEND
0
ENDSEC
0
EOF
