0
SECTION
2
HEADER
9
$ACADVER
1
AC1003
9
$INSBASE
10
0.0
20
0.0
30
0.0
9
$EXTMIN
10
0.000
20
0.000
30
0.0
9
$EXTMAX
10
646.000
20
687.000
30
0.0
9
$LIMMIN
10
0.000
20
0.000
9
$LIMMAX
10
646.000
20
687.000
9
$LTSCALE
40
1.0
9
$LUNITS
70
2
9
$LUPREC
70
3
9
$LIMCHECK
70
0
9
$UCSNAME
2

9
$UCSORG
10
0.0
20
0.0
30
0.0
9
$UCSXDIR
10
1.0
20
0.0
30
0.0
9
$UCSYDIR
10
0.0
20
1.0
30
0.0
9
$WORLDVIEW
70
1
9
$UNITMODE
70
0
0
ENDSEC
0
SECTION
2
TABLES
0
TABLE
2
VPORT
70
1
0
VPORT
2
*ACTIVE
70
0
10
0.0
20
0.0
11
1.0
21
1.0
12
323.000
22
343.500
13
0.0
23
0.0
14
1.0
24
1.0
15
0.0
25
0.0
16
0.0
26
0.0
36
1.0
17
0.0
27
0.0
37
0.0
40
500.0
41
1.063
42
50.0
43
0.0
44
0.0
50
0.0
51
0.0
71
0
72
100
73
1
74
1
75
0
76
0
77
0
78
0
0
ENDTAB
0
TABLE
2
LTYPE
70
1
0
LTYPE
2
CONTINUOUS
70
64
3
Solid line
72
65
73
0
40
0.000
0
ENDTAB
0
TABLE
2
LAYER
70
1
0
LAYER
2
0
70
64
62
7
6
CONTINUOUS
0
ENDTAB
0
ENDSEC
0
SECTION
2
BLOCKS
0
ENDSEC
0
SECTION
2
ENTITIES
0
POLYLINE
8
0
6
CONTINUOUS
66
1
62
7
10
0.0
20
0.0
30
0.000000
0
VERTEX
8
0
10
321.000000
20
606.000000
0
VERTEX
8
0
10
324.000000
20
607.000000
0
VERTEX
8
0
10
328.000000
20
612.000000
0
VERTEX
8
0
10
328.000000
20
618.000000
0
VERTEX
8
0
10
327.000000
20
620.000000
0
VERTEX
8
0
10
322.000000
20
625.000000
0
VERTEX
8
0
10
315.000000
20
625.000000
0
VERTEX
8
0
10
309.000000
20
619.000000
0
VERTEX
8
0
10
309.000000
20
612.000000
0
VERTEX
8
0
10
313.000000
20
607.000000
0
VERTEX
8
0
10
321.000000
20
606.000000
0
SEQEND
0
POLYLINE
8
0
6
CONTINUOUS
66
1
62
7
10
0.0
20
0.0
30
0.000000
0
VERTEX
8
0
10
278.000000
20
544.000000
0
VERTEX
8
0
10
284.076923
20
545.615385
0
VERTEX
8
0
10
309.900000
20
552.300000
0
VERTEX
8
0
10
313.100000
20
553.800000
0
VERTEX
8
0
10
339.846154
20
566.230769
0
VERTEX
8
0
10
349.000000
20
571.000000
0
VERTEX
8
0
10
356.000000
20
579.000000
0
VERTEX
8
0
10
355.000000
20
580.000000
0
VERTEX
8
0
10
325.000000
20
583.000000
0
VERTEX
8
0
10
313.000000
20
583.000000
0
VERTEX
8
0
10
278.053846
20
579.569231
0
VERTEX
8
0
10
242.088235
20
570.647059
0
VERTEX
8
0
10
210.100000
20
557.800000
0
VERTEX
8
0
10
207.100000
20
556.700000
0
VERTEX
8
0
10
204.000000
20
555.000000
0
VERTEX
8
0
10
206.000000
20
551.000000
0
VERTEX
8
0
10
209.900000
20
547.800000
0
VERTEX
8
0
10
211.900000
20
546.800000
0
VERTEX
8
0
10
215.030973
20
545.464602
0
VERTEX
8
0
10
228.969027
20
544.535398
0
VERTEX
8
0
10
278.000000
20
544.000000
0
SEQEND
0
POLYLINE
8
0
6
CONTINUOUS
66
1
62
7
10
0.0
20
0.0
30
0.000000
0
VERTEX
8
0
10
467.000000
20
517.000000
0
VERTEX
8
0
10
470.911765
20
518.352941
0
VERTEX
8
0
10
481.000000
20
523.000000
0
VERTEX
8
0
10
482.000000
20
524.000000
0
VERTEX
8
0
10
480.180000
20
525.240000
0
VERTEX
8
0
10
457.820000
20
541.760000
0
VERTEX
8
0
10
431.900000
20
555.800000
0
VERTEX
8
0
10
404.900000
20
567.700000
0
VERTEX
8
0
10
388.911765
20
572.647059
0
VERTEX
8
0
10
386.088235
20
573.352941
0
VERTEX
8
0
10
369.000000
20
578.000000
0
VERTEX
8
0
10
368.000000
20
577.000000
0
VERTEX
8
0
10
368.000000
20
573.000000
0
VERTEX
8
0
10
372.000000
20
561.000000
0
VERTEX
8
0
10
378.000000
20
555.000000
0
VERTEX
8
0
10
401.180000
20
537.240000
0
VERTEX
8
0
10
411.100000
20
532.200000
0
VERTEX
8
0
10
422.900000
20
526.700000
0
VERTEX
8
0
10
435.076923
20
522.384615
0
VERTEX
8
0
10
438.923077
20
521.615385
0
VERTEX
8
0
10
462.067568
20
517.405405
0
VERTEX
8
0
10
467.000000
20
517.000000
0
SEQEND
0
POLYLINE
8
0
6
CONTINUOUS
66
1
62
7
10
0.0
20
0.0
30
0.000000
0
VERTEX
8
0
10
428.000000
20
471.000000
0
VERTEX
8
0
10
439.180000
20
479.760000
0
VERTEX
8
0
10
450.000000
20
490.000000
0
VERTEX
8
0
10
460.200000
20
502.900000
0
VERTEX
8
0
10
462.000000
20
506.000000
0
VERTEX
8
0
10
460.000000
20
508.000000
0
VERTEX
8
0
10
438.911765
20
512.647059
0
VERTEX
8
0
10
436.088235
20
513.352941
0
VERTEX
8
0
10
419.100000
20
520.200000
0
VERTEX
8
0
10
417.900000
20
520.800000
0
VERTEX
8
0
10
395.180000
20
532.240000
0
VERTEX
8
0
10
391.195122
20
535.243902
0
VERTEX
8
0
10
367.000000
20
554.000000
0
VERTEX
8
0
10
366.000000
20
554.000000
0
VERTEX
8
0
10
364.000000
20
552.000000
0
VERTEX
8
0
10
359.405405
20
529.932432
0
VERTEX
8
0
10
358.594595
20
525.067568
0
VERTEX
8
0
10
358.000000
20
524.000000
0
VERTEX
8
0
10
358.000000
20
511.000000
0
VERTEX
8
0
10
360.200000
20
507.100000
0
VERTEX
8
0
10
363.000000
20
503.000000
0
VERTEX
8
0
10
371.846154
20
496.769231
0
VERTEX
8
0
10
391.100000
20
484.200000
0
VERTEX
8
0
10
398.100000
20
481.300000
0
VERTEX
8
0
10
419.911765
20
473.647059
0
VERTEX
8
0
10
428.000000
20
471.000000
0
SEQEND
0
POLYLINE
8
0
6
CONTINUOUS
66
1
62
7
10
0.0
20
0.0
30
0.000000
0
VERTEX
8
0
10
281.000000
20
466.000000
0
VERTEX
8
0
10
291.100000
20
467.800000
0
VERTEX
8
0
10
300.846154
20
472.230769
0
VERTEX
8
0
10
306.153846
20
475.769231
0
VERTEX
8
0
10
319.773756
20
487.248869
0
VERTEX
8
0
10
340.000000
20
505.000000
0
VERTEX
8
0
10
344.800000
20
513.100000
0
VERTEX
8
0
10
347.300000
20
520.900000
0
VERTEX
8
0
10
353.594595
20
546.067568
0
VERTEX
8
0
10
354.405405
20
550.932432
0
VERTEX
8
0
10
356.750000
20
563.750000
0
VERTEX
8
0
10
356.000000
20
564.000000
0
VERTEX
8
0
10
334.900000
20
554.200000
0
VERTEX
8
0
10
325.900000
20
550.200000
0
VERTEX
8
0
10
296.923077
20
542.384615
0
VERTEX
8
0
10
277.076923
20
538.615385
0
VERTEX
8
0
10
254.032995
20
536.538071
0
VERTEX
8
0
10
252.967005
20
536.461929
0
VERTEX
8
0
10
217.000000
20
534.000000
0
VERTEX
8
0
10
216.000000
20
533.000000
0
VERTEX
8
0
10
243.200000
20
481.100000
0
VERTEX
8
0
10
246.200000
20
475.100000
0
VERTEX
8
0
10
250.000000
20
469.000000
0
VERTEX
8
0
10
250.900000
20
468.800000
0
VERTEX
8
0
10
259.020755
20
466.477358
0
VERTEX
8
0
10
281.000000
20
466.000000
0
SEQEND
0
POLYLINE
8
0
6
CONTINUOUS
66
1
62
7
10
0.0
20
0.0
30
0.000000
0
VERTEX
8
0
10
115.000000
20
460.000000
0
VERTEX
8
0
10
141.153846
20
476.769231
0
VERTEX
8
0
10
170.000000
20
496.000000
0
VERTEX
8
0
10
186.000000
20
512.000000
0
VERTEX
8
0
10
192.752212
20
520.216814
0
VERTEX
8
0
10
193.230769
20
520.846154
0
VERTEX
8
0
10
202.000000
20
535.000000
0
VERTEX
8
0
10
202.000000
20
540.000000
0
VERTEX
8
0
10
199.769231
20
543.846154
0
VERTEX
8
0
10
195.000000
20
551.000000
0
VERTEX
8
0
10
188.900000
20
547.200000
0
VERTEX
8
0
10
165.195122
20
531.756098
0
VERTEX
8
0
10
150.804878
20
520.243902
0
VERTEX
8
0
10
145.000000
20
516.000000
0
VERTEX
8
0
10
132.000000
20
503.000000
0
VERTEX
8
0
10
114.769231
20
482.153846
0
VERTEX
8
0
10
112.769231
20
479.153846
0
VERTEX
8
0
10
104.000000
20
467.000000
0
VERTEX
8
0
10
104.000000
20
465.000000
0
VERTEX
8
0
10
115.000000
20
460.000000
0
SEQEND
0
POLYLINE
8
0
6
CONTINUOUS
66
1
62
7
10
0.0
20
0.0
30
0.000000
0
VERTEX
8
0
10
537.000000
20
435.000000
0
VERTEX
8
0
10
538.900000
20
436.200000
0
VERTEX
8
0
10
548.000000
20
440.000000
0
VERTEX
8
0
10
547.200000
20
443.100000
0
VERTEX
8
0
10
529.760000
20
471.820000
0
VERTEX
8
0
10
527.240000
20
475.180000
0
VERTEX
8
0
10
514.000000
20
493.000000
0
VERTEX
8
0
10
488.000000
20
519.000000
0
VERTEX
8
0
10
479.800000
20
508.100000
0
VERTEX
8
0
10
478.000000
20
503.000000
0
VERTEX
8
0
10
478.000000
20
498.000000
0
VERTEX
8
0
10
483.200000
20
484.100000
0
VERTEX
8
0
10
484.800000
20
480.900000
0
VERTEX
8
0
10
489.240000
20
472.180000
0
VERTEX
8
0
10
491.760000
20
468.820000
0
VERTEX
8
0
10
502.000000
20
456.000000
0
VERTEX
8
0
10
512.000000
20
446.000000
0
VERTEX
8
0
10
522.100000
20
438.200000
0
VERTEX
8
0
10
522.900000
20
437.800000
0
VERTEX
8
0
10
528.044554
20
435.445545
0
VERTEX
8
0
10
537.000000
20
435.000000
0
SEQEND
0
POLYLINE
8
0
6
CONTINUOUS
66
1
62
7
10
0.0
20
0.0
30
0.000000
0
VERTEX
8
0
10
387.000000
20
422.000000
0
VERTEX
8
0
10
388.088235
20
422.647059
0
VERTEX
8
0
10
393.000000
20
424.000000
0
VERTEX
8
0
10
399.000000
20
430.000000
0
VERTEX
8
0
10
422.760000
20
461.180000
0
VERTEX
8
0
10
423.200000
20
461.900000
0
VERTEX
8
0
10
424.000000
20
463.000000
0
VERTEX
8
0
10
422.000000
20
465.000000
0
VERTEX
8
0
10
415.053846
20
465.430769
0
VERTEX
8
0
10
403.100000
20
468.300000
0
VERTEX
8
0
10
397.100000
20
470.200000
0
VERTEX
8
0
10
381.846154
20
478.769231
0
VERTEX
8
0
10
376.153846
20
482.230769
0
VERTEX
8
0
10
358.000000
20
495.000000
0
VERTEX
8
0
10
356.000000
20
495.000000
0
VERTEX
8
0
10
355.000000
20
494.000000
0
VERTEX
8
0
10
346.000000
20
442.000000
0
VERTEX
8
0
10
350.000000
20
437.000000
0
VERTEX
8
0
10
356.100000
20
433.200000
0
VERTEX
8
0
10
360.100000
20
431.200000
0
VERTEX
8
0
10
378.911765
20
423.647059
0
VERTEX
8
0
10
387.000000
20
422.000000
0
SEQEND
0
POLYLINE
8
0
6
CONTINUOUS
66
1
62
7
10
0.0
20
0.0
30
0.000000
0
VERTEX
8
0
10
173.000000
20
419.000000
0
VERTEX
8
0
10
188.911765
20
423.352941
0
VERTEX
8
0
10
208.846154
20
433.230769
0
VERTEX
8
0
10
223.795082
20
444.245902
0
VERTEX
8
0
10
233.000000
20
452.000000
0
VERTEX
8
0
10
235.760000
20
456.180000
0
VERTEX
8
0
10
239.000000
20
463.000000
0
VERTEX
8
0
10
239.000000
20
467.000000
0
VERTEX
8
0
10
226.800000
20
493.900000
0
VERTEX
8
0
10
223.800000
20
499.900000
0
VERTEX
8
0
10
209.000000
20
529.000000
0
VERTEX
8
0
10
200.240000
20
517.820000
0
VERTEX
8
0
10
180.000000
20
496.000000
0
VERTEX
8
0
10
167.795082
20
486.245902
0
VERTEX
8
0
10
146.846154
20
470.230769
0
VERTEX
8
0
10
126.100000
20
455.800000
0
VERTEX
8
0
10
121.000000
20
453.000000
0
VERTEX
8
0
10
172.100000
20
419.200000
0
VERTEX
8
0
10
173.000000
20
419.000000
0
SEQEND
0
POLYLINE
8
0
6
CONTINUOUS
66
1
62
7
10
0.0
20
0.0
30
0.000000
0
VERTEX
8
0
10
294.000000
20
419.000000
0
VERTEX
8
0
10
302.911765
20
421.352941
0
VERTEX
8
0
10
322.820000
20
431.240000
0
VERTEX
8
0
10
331.000000
20
437.000000
0
VERTEX
8
0
10
333.200000
20
440.900000
0
VERTEX
8
0
10
336.700000
20
448.100000
0
VERTEX
8
0
10
343.615385
20
475.076923
0
VERTEX
8
0
10
345.384615
20
483.923077
0
VERTEX
8
0
10
346.000000
20
485.000000
0
VERTEX
8
0
10
346.000000
20
496.000000
0
VERTEX
8
0
10
344.000000
20
497.000000
0
VERTEX
8
0
10
319.195122
20
475.756098
0
VERTEX
8
0
10
314.804878
20
472.243902
0
VERTEX
8
0
10
303.900000
20
465.200000
0
VERTEX
8
0
10
303.100000
20
464.800000
0
VERTEX
8
0
10
292.923077
20
460.384615
0
VERTEX
8
0
10
263.000000
20
456.000000
0
VERTEX
8
0
10
261.000000
20
454.000000
0
VERTEX
8
0
10
261.800000
20
451.900000
0
VERTEX
8
0
10
267.230769
20
443.153846
0
VERTEX
8
0
10
281.000000
20
422.000000
0
VERTEX
8
0
10
281.900000
20
421.800000
0
VERTEX
8
0
10
290.076923
20
419.384615
0
VERTEX
8
0
10
294.000000
20
419.000000
0
SEQEND
0
POLYLINE
8
0
6
CONTINUOUS
66
1
62
7
10
0.0
20
0.0
30
0.000000
0
VERTEX
8
0
10
478.000000
20
412.000000
0
VERTEX
8
0
10
502.100000
20
421.800000
0
VERTEX
8
0
10
511.000000
20
426.000000
0
VERTEX
8
0
10
514.000000
20
429.000000
0
VERTEX
8
0
10
512.800000
20
430.900000
0
VERTEX
8
0
10
487.800000
20
462.900000
0
VERTEX
8
0
10
485.230769
20
467.153846
0
VERTEX
8
0
10
473.200000
20
488.100000
0
VERTEX
8
0
10
469.000000
20
493.000000
0
VERTEX
8
0
10
465.000000
20
491.000000
0
VERTEX
8
0
10
453.000000
20
479.000000
0
VERTEX
8
0
10
445.240000
20
468.820000
0
VERTEX
8
0
10
444.760000
20
468.180000
0
VERTEX
8
0
10
440.000000
20
460.000000
0
VERTEX
8
0
10
440.000000
20
456.000000
0
VERTEX
8
0
10
446.200000
20
441.100000
0
VERTEX
8
0
10
460.000000
20
423.000000
0
VERTEX
8
0
10
466.900000
20
416.800000
0
VERTEX
8
0
10
475.088235
20
412.352941
0
VERTEX
8
0
10
478.000000
20
412.000000
0
SEQEND
0
POLYLINE
8
0
6
CONTINUOUS
66
1
62
7
10
0.0
20
0.0
30
0.000000
0
VERTEX
8
0
10
312.000000
20
391.000000
0
VERTEX
8
0
10
326.000000
20
397.000000
0
VERTEX
8
0
10
328.230769
20
399.846154
0
VERTEX
8
0
10
330.300000
20
403.900000
0
VERTEX
8
0
10
334.000000
20
423.000000
0
VERTEX
8
0
10
334.000000
20
428.000000
0
VERTEX
8
0
10
333.000000
20
429.000000
0
VERTEX
8
0
10
301.911765
20
413.352941
0
VERTEX
8
0
10
294.923077
20
411.384615
0
VERTEX
8
0
10
288.000000
20
410.000000
0
VERTEX
8
0
10
287.000000
20
409.000000
0
VERTEX
8
0
10
288.200000
20
407.100000
0
VERTEX
8
0
10
288.800000
20
405.900000
0
VERTEX
8
0
10
293.000000
20
401.000000
0
VERTEX
8
0
10
300.211765
20
395.247059
0
VERTEX
8
0
10
309.088235
20
391.352941
0
VERTEX
8
0
10
312.000000
20
391.000000
0
SEQEND
0
POLYLINE
8
0
6
CONTINUOUS
66
1
62
7
10
0.0
20
0.0
30
0.000000
0
VERTEX
8
0
10
360.000000
20
388.000000
0
VERTEX
8
0
10
363.100000
20
389.800000
0
VERTEX
8
0
10
366.000000
20
391.000000
0
VERTEX
8
0
10
376.230769
20
402.846154
0
VERTEX
8
0
10
383.000000
20
413.000000
0
VERTEX
8
0
10
383.000000
20
415.000000
0
VERTEX
8
0
10
368.100000
20
420.300000
0
VERTEX
8
0
10
351.100000
20
430.200000
0
VERTEX
8
0
10
349.900000
20
430.800000
0
VERTEX
8
0
10
346.000000
20
433.000000
0
VERTEX
8
0
10
345.000000
20
432.000000
0
VERTEX
8
0
10
343.405405
20
423.932432
0
VERTEX
8
0
10
341.000000
20
406.000000
0
VERTEX
8
0
10
341.000000
20
398.000000
0
VERTEX
8
0
10
344.000000
20
393.000000
0
VERTEX
8
0
10
349.900000
20
389.800000
0
VERTEX
8
0
10
353.053846
20
388.430769
0
VERTEX
8
0
10
360.000000
20
388.000000
0
SEQEND
0
POLYLINE
8
0
6
CONTINUOUS
66
1
62
7
10
0.0
20
0.0
30
0.000000
0
VERTEX
8
0
10
235.000000
20
385.000000
0
VERTEX
8
0
10
245.100000
20
389.800000
0
VERTEX
8
0
10
261.000000
20
402.000000
0
VERTEX
8
0
10
266.000000
20
407.000000
0
VERTEX
8
0
10
271.000000
20
415.000000
0
VERTEX
8
0
10
271.000000
20
417.000000
0
VERTEX
8
0
10
260.230769
20
437.153846
0
VERTEX
8
0
10
252.000000
20
449.000000
0
VERTEX
8
0
10
246.000000
20
452.000000
0
VERTEX
8
0
10
243.100000
20
450.700000
0
VERTEX
8
0
10
223.204918
20
433.754098
0
VERTEX
8
0
10
217.795082
20
429.245902
0
VERTEX
8
0
10
205.900000
20
423.200000
0
VERTEX
8
0
10
203.900000
20
422.300000
0
VERTEX
8
0
10
186.000000
20
415.000000
0
VERTEX
8
0
10
184.000000
20
413.000000
0
VERTEX
8
0
10
186.000000
20
411.000000
0
VERTEX
8
0
10
214.100000
20
394.200000
0
VERTEX
8
0
10
214.900000
20
393.800000
0
VERTEX
8
0
10
232.088235
20
385.352941
0
VERTEX
8
0
10
235.000000
20
385.000000
0
SEQEND
0
POLYLINE
8
0
6
CONTINUOUS
66
1
62
7
10
0.0
20
0.0
30
0.000000
0
VERTEX
8
0
10
420.000000
20
385.000000
0
VERTEX
8
0
10
421.100000
20
385.800000
0
VERTEX
8
0
10
463.000000
20
405.000000
0
VERTEX
8
0
10
465.000000
20
407.000000
0
VERTEX
8
0
10
462.240000
20
410.180000
0
VERTEX
8
0
10
441.230769
20
436.153846
0
VERTEX
8
0
10
436.230769
20
444.153846
0
VERTEX
8
0
10
433.000000
20
451.000000
0
VERTEX
8
0
10
430.000000
20
454.000000
0
VERTEX
8
0
10
401.756098
20
423.195122
0
VERTEX
8
0
10
398.000000
20
419.000000
0
VERTEX
8
0
10
398.000000
20
415.000000
0
VERTEX
8
0
10
401.300000
20
407.100000
0
VERTEX
8
0
10
401.800000
20
405.900000
0
VERTEX
8
0
10
407.760000
20
396.820000
0
VERTEX
8
0
10
410.000000
20
393.000000
0
VERTEX
8
0
10
414.804878
20
388.756098
0
VERTEX
8
0
10
420.000000
20
385.000000
0
SEQEND
0
POLYLINE
8
0
6
CONTINUOUS
66
1
62
7
10
0.0
20
0.0
30
0.000000
0
VERTEX
8
0
10
265.000000
20
364.000000
0
VERTEX
8
0
10
270.900000
20
367.200000
0
VERTEX
8
0
10
279.795082
20
373.245902
0
VERTEX
8
0
10
286.000000
20
378.000000
0
VERTEX
8
0
10
289.200000
20
381.900000
0
VERTEX
8
0
10
290.000000
20
383.000000
0
VERTEX
8
0
10
290.000000
20
386.000000
0
VERTEX
8
0
10
288.200000
20
389.100000
0
VERTEX
8
0
10
280.000000
20
403.000000
0
VERTEX
8
0
10
276.000000
20
406.000000
0
VERTEX
8
0
10
272.900000
20
405.200000
0
VERTEX
8
0
10
259.783186
20
394.247788
0
VERTEX
8
0
10
244.100000
20
380.800000
0
VERTEX
8
0
10
241.000000
20
379.000000
0
VERTEX
8
0
10
241.000000
20
377.000000
0
VERTEX
8
0
10
252.900000
20
369.800000
0
VERTEX
8
0
10
265.000000
20
364.000000
0
SEQEND
0
POLYLINE
8
0
6
CONTINUOUS
66
1
62
7
10
0.0
20
0.0
30
0.000000
0
VERTEX
8
0
10
376.000000
20
364.000000
0
VERTEX
8
0
10
377.100000
20
364.800000
0
VERTEX
8
0
10
407.000000
20
381.000000
0
VERTEX
8
0
10
408.000000
20
382.000000
0
VERTEX
8
0
10
408.000000
20
386.000000
0
VERTEX
8
0
10
396.800000
20
402.900000
0
VERTEX
8
0
10
396.200000
20
404.100000
0
VERTEX
8
0
10
393.000000
20
408.000000
0
VERTEX
8
0
10
392.000000
20
408.000000
0
VERTEX
8
0
10
386.760000
20
401.180000
0
VERTEX
8
0
10
380.243902
20
392.804878
0
VERTEX
8
0
10
371.200000
20
379.900000
0
VERTEX
8
0
10
370.800000
20
379.100000
0
VERTEX
8
0
10
369.000000
20
376.000000
0
VERTEX
8
0
10
369.000000
20
373.000000
0
VERTEX
8
0
10
370.400000
20
370.200000
0
VERTEX
8
0
10
371.769231
20
367.846154
0
VERTEX
8
0
10
375.000000
20
364.000000
0
VERTEX
8
0
10
376.000000
20
364.000000
0
SEQEND
0
POLYLINE
8
0
6
CONTINUOUS
66
1
62
7
10
0.0
20
0.0
30
0.000000
0
VERTEX
8
0
10
339.000000
20
352.000000
0
VERTEX
8
0
10
354.000000
20
373.000000
0
VERTEX
8
0
10
354.000000
20
378.000000
0
VERTEX
8
0
10
344.100000
20
384.200000
0
VERTEX
8
0
10
342.900000
20
384.800000
0
VERTEX
8
0
10
340.000000
20
386.000000
0
VERTEX
8
0
10
339.250000
20
385.750000
0
VERTEX
8
0
10
337.594595
20
378.067568
0
VERTEX
8
0
10
337.000000
20
353.000000
0
VERTEX
8
0
10
338.000000
20
352.000000
0
VERTEX
8
0
10
339.000000
20
352.000000
0
SEQEND
0
POLYLINE
8
0
6
CONTINUOUS
66
1
62
7
10
0.0
20
0.0
30
0.000000
0
VERTEX
8
0
10
351.000000
20
351.000000
0
VERTEX
8
0
10
350.000000
20
352.000000
0
SEQEND
0
POLYLINE
8
0
6
CONTINUOUS
66
1
62
7
10
0.0
20
0.0
30
0.000000
0
VERTEX
8
0
10
351.000000
20
351.000000
0
VERTEX
8
0
10
355.153846
20
353.769231
0
VERTEX
8
0
10
363.000000
20
358.000000
0
VERTEX
8
0
10
366.000000
20
361.000000
0
VERTEX
8
0
10
365.300000
20
364.100000
0
VERTEX
8
0
10
365.000000
20
366.000000
0
VERTEX
8
0
10
362.000000
20
369.000000
0
VERTEX
8
0
10
361.000000
20
369.000000
0
VERTEX
8
0
10
351.769231
20
355.153846
0
VERTEX
8
0
10
350.000000
20
352.000000
0
SEQEND
0
POLYLINE
8
0
6
CONTINUOUS
66
1
62
7
10
0.0
20
0.0
30
0.000000
0
VERTEX
8
0
10
350.000000
20
352.000000
0
VERTEX
8
0
10
349.000000
20
351.000000
0
VERTEX
8
0
10
350.000000
20
350.000000
0
VERTEX
8
0
10
351.000000
20
351.000000
0
SEQEND
0
POLYLINE
8
0
6
CONTINUOUS
66
1
62
7
10
0.0
20
0.0
30
0.000000
0
VERTEX
8
0
10
326.000000
20
348.000000
0
VERTEX
8
0
10
327.549180
20
351.040984
0
VERTEX
8
0
10
328.450820
20
360.959016
0
VERTEX
8
0
10
329.000000
20
377.000000
0
VERTEX
8
0
10
328.445545
20
378.044554
0
VERTEX
8
0
10
328.000000
20
387.000000
0
VERTEX
8
0
10
326.000000
20
389.000000
0
VERTEX
8
0
10
319.911765
20
387.352941
0
VERTEX
8
0
10
304.000000
20
383.000000
0
VERTEX
8
0
10
305.200000
20
379.100000
0
VERTEX
8
0
10
308.800000
20
372.900000
0
VERTEX
8
0
10
319.240000
20
357.180000
0
VERTEX
8
0
10
326.000000
20
348.000000
0
SEQEND
0
POLYLINE
8
0
6
CONTINUOUS
66
1
62
7
10
0.0
20
0.0
30
0.000000
0
VERTEX
8
0
10
315.000000
20
343.000000
0
VERTEX
8
0
10
315.500000
20
344.000000
0
VERTEX
8
0
10
313.800000
20
347.900000
0
VERTEX
8
0
10
313.200000
20
349.100000
0
VERTEX
8
0
10
302.760000
20
367.820000
0
VERTEX
8
0
10
296.000000
20
376.000000
0
VERTEX
8
0
10
293.900000
20
375.200000
0
VERTEX
8
0
10
291.900000
20
374.200000
0
VERTEX
8
0
10
281.000000
20
367.000000
0
VERTEX
8
0
10
276.000000
20
361.000000
0
VERTEX
8
0
10
277.820000
20
359.760000
0
VERTEX
8
0
10
285.180000
20
354.240000
0
VERTEX
8
0
10
304.100000
20
346.300000
0
VERTEX
8
0
10
315.000000
20
343.000000
0
SEQEND
0
POLYLINE
8
0
6
CONTINUOUS
66
1
62
7
10
0.0
20
0.0
30
0.000000
0
VERTEX
8
0
10
386.000000
20
339.000000
0
VERTEX
8
0
10
387.044554
20
339.554455
0
VERTEX
8
0
10
418.000000
20
342.000000
0
VERTEX
8
0
10
420.000000
20
344.000000
0
VERTEX
8
0
10
414.300000
20
363.100000
0
VERTEX
8
0
10
411.000000
20
370.000000
0
VERTEX
8
0
10
397.900000
20
367.200000
0
VERTEX
8
0
10
387.900000
20
362.200000
0
VERTEX
8
0
10
383.000000
20
360.000000
0
VERTEX
8
0
10
375.000000
20
351.000000
0
VERTEX
8
0
10
376.800000
20
343.900000
0
VERTEX
8
0
10
377.000000
20
343.000000
0
VERTEX
8
0
10
381.000000
20
339.000000
0
VERTEX
8
0
10
386.000000
20
339.000000
0
SEQEND
0
POLYLINE
8
0
6
CONTINUOUS
66
1
62
7
10
0.0
20
0.0
30
0.000000
0
VERTEX
8
0
10
471.000000
20
339.000000
0
VERTEX
8
0
10
476.000000
20
342.000000
0
VERTEX
8
0
10
475.352941
20
345.088235
0
VERTEX
8
0
10
474.384615
20
349.076923
0
VERTEX
8
0
10
467.000000
20
393.000000
0
VERTEX
8
0
10
465.000000
20
395.000000
0
VERTEX
8
0
10
456.100000
20
392.800000
0
VERTEX
8
0
10
454.900000
20
392.300000
0
VERTEX
8
0
10
425.000000
20
379.000000
0
VERTEX
8
0
10
423.000000
20
377.000000
0
VERTEX
8
0
10
423.000000
20
372.000000
0
VERTEX
8
0
10
428.300000
20
353.100000
0
VERTEX
8
0
10
428.700000
20
351.900000
0
VERTEX
8
0
10
430.000000
20
348.000000
0
VERTEX
8
0
10
433.000000
20
345.000000
0
VERTEX
8
0
10
436.100000
20
344.200000
0
VERTEX
8
0
10
455.048780
20
340.439024
0
VERTEX
8
0
10
471.000000
20
339.000000
0
SEQEND
0
POLYLINE
8
0
6
CONTINUOUS
66
1
62
7
10
0.0
20
0.0
30
0.000000
0
VERTEX
8
0
10
282.000000
20
336.000000
0
VERTEX
8
0
10
283.060000
20
336.580000
0
VERTEX
8
0
10
289.000000
20
337.000000
0
VERTEX
8
0
10
291.000000
20
339.000000
0
VERTEX
8
0
10
291.000000
20
340.000000
0
VERTEX
8
0
10
288.180000
20
342.240000
0
VERTEX
8
0
10
282.100000
20
346.200000
0
VERTEX
8
0
10
273.000000
20
350.000000
0
VERTEX
8
0
10
270.000000
20
345.000000
0
VERTEX
8
0
10
270.000000
20
341.000000
0
VERTEX
8
0
10
272.000000
20
337.000000
0
VERTEX
8
0
10
282.000000
20
336.000000
0
SEQEND
0
POLYLINE
8
0
6
CONTINUOUS
66
1
62
7
10
0.0
20
0.0
30
0.000000
0
VERTEX
8
0
10
353.000000
20
336.000000
0
VERTEX
8
0
10
366.000000
20
339.000000
0
VERTEX
8
0
10
368.000000
20
341.000000
0
VERTEX
8
0
10
369.000000
20
344.000000
0
VERTEX
8
0
10
368.300000
20
348.100000
0
VERTEX
8
0
10
367.000000
20
351.000000
0
VERTEX
8
0
10
356.900000
20
346.200000
0
VERTEX
8
0
10
349.000000
20
341.000000
0
VERTEX
8
0
10
347.800000
20
339.100000
0
VERTEX
8
0
10
347.000000
20
338.000000
0
VERTEX
8
0
10
350.088235
20
336.352941
0
VERTEX
8
0
10
353.000000
20
336.000000
0
SEQEND
0
POLYLINE
8
0
6
CONTINUOUS
66
1
62
7
10
0.0
20
0.0
30
0.000000
0
VERTEX
8
0
10
531.000000
20
336.000000
0
VERTEX
8
0
10
534.000000
20
338.000000
0
VERTEX
8
0
10
530.300000
20
349.100000
0
VERTEX
8
0
10
528.700000
20
353.900000
0
VERTEX
8
0
10
522.445545
20
377.044554
0
VERTEX
8
0
10
521.554455
20
385.955446
0
VERTEX
8
0
10
521.000000
20
418.000000
0
VERTEX
8
0
10
520.000000
20
419.000000
0
VERTEX
8
0
10
509.100000
20
414.800000
0
VERTEX
8
0
10
503.100000
20
412.700000
0
VERTEX
8
0
10
478.000000
20
400.000000
0
VERTEX
8
0
10
474.000000
20
394.000000
0
VERTEX
8
0
10
474.000000
20
389.000000
0
VERTEX
8
0
10
477.384615
20
370.076923
0
VERTEX
8
0
10
479.700000
20
361.900000
0
VERTEX
8
0
10
484.800000
20
349.900000
0
VERTEX
8
0
10
488.230769
20
343.153846
0
VERTEX
8
0
10
491.000000
20
339.000000
0
VERTEX
8
0
10
531.000000
20
336.000000
0
SEQEND
0
POLYLINE
8
0
6
CONTINUOUS
66
1
62
7
10
0.0
20
0.0
30
0.000000
0
VERTEX
8
0
10
576.000000
20
336.000000
0
VERTEX
8
0
10
573.569231
20
355.946154
0
VERTEX
8
0
10
569.615385
20
379.923077
0
VERTEX
8
0
10
566.615385
20
393.923077
0
VERTEX
8
0
10
562.700000
20
406.900000
0
VERTEX
8
0
10
562.300000
20
408.100000
0
VERTEX
8
0
10
554.000000
20
430.000000
0
VERTEX
8
0
10
552.000000
20
432.000000
0
VERTEX
8
0
10
543.100000
20
427.800000
0
VERTEX
8
0
10
541.900000
20
427.200000
0
VERTEX
8
0
10
533.000000
20
421.000000
0
VERTEX
8
0
10
532.800000
20
420.100000
0
VERTEX
8
0
10
530.000000
20
415.000000
0
VERTEX
8
0
10
530.000000
20
396.000000
0
VERTEX
8
0
10
533.420000
20
371.060000
0
VERTEX
8
0
10
533.594595
20
369.932432
0
VERTEX
8
0
10
536.200000
20
358.100000
0
VERTEX
8
0
10
539.700000
20
348.900000
0
VERTEX
8
0
10
543.000000
20
341.000000
0
VERTEX
8
0
10
545.846154
20
338.769231
0
VERTEX
8
0
10
560.029183
20
336.466926
0
VERTEX
8
0
10
576.000000
20
336.000000
0
SEQEND
0
POLYLINE
8
0
6
CONTINUOUS
66
1
62
7
10
0.0
20
0.0
30
0.000000
0
VERTEX
8
0
10
212.000000
20
333.000000
0
VERTEX
8
0
10
220.000000
20
336.000000
0
VERTEX
8
0
10
224.647059
20
345.088235
0
VERTEX
8
0
10
227.000000
20
353.000000
0
VERTEX
8
0
10
225.384615
20
364.076923
0
VERTEX
8
0
10
224.615385
20
367.923077
0
VERTEX
8
0
10
221.000000
20
378.000000
0
VERTEX
8
0
10
217.180000
20
381.240000
0
VERTEX
8
0
10
202.820000
20
391.760000
0
VERTEX
8
0
10
193.900000
20
396.800000
0
VERTEX
8
0
10
193.100000
20
397.200000
0
VERTEX
8
0
10
179.000000
20
405.000000
0
VERTEX
8
0
10
178.000000
20
404.000000
0
VERTEX
8
0
10
175.300000
20
352.900000
0
VERTEX
8
0
10
173.300000
20
345.900000
0
VERTEX
8
0
10
170.000000
20
336.000000
0
VERTEX
8
0
10
172.000000
20
334.000000
0
VERTEX
8
0
10
183.016093
20
333.482797
0
VERTEX
8
0
10
212.000000
20
333.000000
0
SEQEND
0
POLYLINE
8
0
6
CONTINUOUS
66
1
62
7
10
0.0
20
0.0
30
0.000000
0
VERTEX
8
0
10
241.000000
20
333.000000
0
VERTEX
8
0
10
247.940000
20
334.420000
0
VERTEX
8
0
10
254.800000
20
336.400000
0
VERTEX
8
0
10
258.000000
20
338.000000
0
VERTEX
8
0
10
262.000000
20
344.000000
0
VERTEX
8
0
10
262.000000
20
351.000000
0
VERTEX
8
0
10
259.000000
20
356.000000
0
VERTEX
8
0
10
254.820000
20
358.760000
0
VERTEX
8
0
10
240.100000
20
368.200000
0
VERTEX
8
0
10
238.900000
20
368.700000
0
VERTEX
8
0
10
234.250000
20
369.750000
0
VERTEX
8
0
10
229.000000
20
335.000000
0
VERTEX
8
0
10
229.250000
20
334.250000
0
VERTEX
8
0
10
241.000000
20
333.000000
0
SEQEND
0
POLYLINE
8
0
6
CONTINUOUS
66
1
62
7
10
0.0
20
0.0
30
0.000000
0
VERTEX
8
0
10
77.000000
20
330.000000
0
VERTEX
8
0
10
93.000000
20
331.000000
0
VERTEX
8
0
10
96.200000
20
335.900000
0
VERTEX
8
0
10
97.200000
20
337.900000
0
VERTEX
8
0
10
100.647059
20
346.088235
0
VERTEX
8
0
10
104.700000
20
360.100000
0
VERTEX
8
0
10
108.594595
20
381.067568
0
VERTEX
8
0
10
109.405405
20
385.932432
0
VERTEX
8
0
10
112.000000
20
410.000000
0
VERTEX
8
0
10
112.000000
20
421.000000
0
VERTEX
8
0
10
108.300000
20
442.100000
0
VERTEX
8
0
10
107.300000
20
445.100000
0
VERTEX
8
0
10
105.756098
20
448.804878
0
VERTEX
8
0
10
98.000000
20
458.000000
0
VERTEX
8
0
10
85.800000
20
435.100000
0
VERTEX
8
0
10
84.800000
20
433.100000
0
VERTEX
8
0
10
75.700000
20
410.100000
0
VERTEX
8
0
10
74.700000
20
407.100000
0
VERTEX
8
0
10
69.615385
20
389.076923
0
VERTEX
8
0
10
65.647059
20
371.088235
0
VERTEX
8
0
10
63.450820
20
356.959016
0
VERTEX
8
0
10
62.549180
20
347.040984
0
VERTEX
8
0
10
61.250000
20
330.250000
0
VERTEX
8
0
10
77.000000
20
330.000000
0
SEQEND
0
POLYLINE
8
0
6
CONTINUOUS
66
1
62
7
10
0.0
20
0.0
30
0.000000
0
VERTEX
8
0
10
149.000000
20
330.000000
0
VERTEX
8
0
10
150.088235
20
330.647059
0
VERTEX
8
0
10
156.000000
20
332.000000
0
VERTEX
8
0
10
161.000000
20
337.000000
0
VERTEX
8
0
10
165.647059
20
349.088235
0
VERTEX
8
0
10
168.352941
20
359.911765
0
VERTEX
8
0
10
172.000000
20
373.000000
0
VERTEX
8
0
10
172.000000
20
391.000000
0
VERTEX
8
0
10
169.800000
20
400.900000
0
VERTEX
8
0
10
169.300000
20
402.100000
0
VERTEX
8
0
10
165.000000
20
411.000000
0
VERTEX
8
0
10
147.804878
20
424.756098
0
VERTEX
8
0
10
135.846154
20
432.769231
0
VERTEX
8
0
10
127.846154
20
437.769231
0
VERTEX
8
0
10
122.000000
20
441.000000
0
VERTEX
8
0
10
121.000000
20
440.000000
0
VERTEX
8
0
10
120.511892
20
398.011351
0
VERTEX
8
0
10
118.580000
20
381.060000
0
VERTEX
8
0
10
118.384615
20
379.923077
0
VERTEX
8
0
10
112.352941
20
353.911765
0
VERTEX
8
0
10
108.700000
20
341.100000
0
VERTEX
8
0
10
107.000000
20
337.000000
0
VERTEX
8
0
10
107.000000
20
333.000000
0
VERTEX
8
0
10
108.000000
20
332.000000
0
VERTEX
8
0
10
115.013866
20
330.485318
0
VERTEX
8
0
10
149.000000
20
330.000000
0
SEQEND
0
POLYLINE
8
0
6
CONTINUOUS
66
1
62
7
10
0.0
20
0.0
30
0.000000
0
VERTEX
8
0
10
363.000000
20
310.000000
0
VERTEX
8
0
10
363.800000
20
311.100000
0
VERTEX
8
0
10
372.000000
20
327.000000
0
VERTEX
8
0
10
370.000000
20
329.000000
0
VERTEX
8
0
10
352.000000
20
330.000000
0
VERTEX
8
0
10
344.000000
20
328.000000
0
VERTEX
8
0
10
344.800000
20
325.900000
0
VERTEX
8
0
10
348.000000
20
321.000000
0
VERTEX
8
0
10
351.846154
20
317.769231
0
VERTEX
8
0
10
363.000000
20
310.000000
0
SEQEND
0
POLYLINE
8
0
6
CONTINUOUS
66
1
62
7
10
0.0
20
0.0
30
0.000000
0
VERTEX
8
0
10
288.000000
20
307.000000
0
VERTEX
8
0
10
300.180000
20
315.760000
0
VERTEX
8
0
10
312.000000
20
327.000000
0
VERTEX
8
0
10
311.000000
20
329.000000
0
VERTEX
8
0
10
296.955446
20
328.445545
0
VERTEX
8
0
10
286.946154
20
327.430769
0
VERTEX
8
0
10
278.000000
20
326.000000
0
VERTEX
8
0
10
276.000000
20
324.000000
0
VERTEX
8
0
10
276.800000
20
322.900000
0
VERTEX
8
0
10
284.000000
20
310.000000
0
VERTEX
8
0
10
288.000000
20
307.000000
0
SEQEND
0
POLYLINE
8
0
6
CONTINUOUS
66
1
62
7
10
0.0
20
0.0
30
0.000000
0
VERTEX
8
0
10
309.000000
20
296.000000
0
VERTEX
8
0
10
310.769231
20
298.153846
0
VERTEX
8
0
10
320.000000
20
316.000000
0
VERTEX
8
0
10
320.000000
20
318.000000
0
VERTEX
8
0
10
318.000000
20
319.000000
0
VERTEX
8
0
10
311.900000
20
315.200000
0
VERTEX
8
0
10
298.000000
20
305.000000
0
VERTEX
8
0
10
298.000000
20
302.000000
0
VERTEX
8
0
10
302.000000
20
298.000000
0
VERTEX
8
0
10
305.200000
20
296.600000
0
VERTEX
8
0
10
309.000000
20
296.000000
0
SEQEND
0
POLYLINE
8
0
6
CONTINUOUS
66
1
62
7
10
0.0
20
0.0
30
0.000000
0
VERTEX
8
0
10
356.000000
20
293.000000
0
VERTEX
8
0
10
359.000000
20
295.000000
0
VERTEX
8
0
10
361.200000
20
297.900000
0
VERTEX
8
0
10
361.200000
20
300.100000
0
VERTEX
8
0
10
353.000000
20
309.000000
0
VERTEX
8
0
10
352.180000
20
309.240000
0
VERTEX
8
0
10
347.000000
20
313.000000
0
VERTEX
8
0
10
345.000000
20
313.000000
0
VERTEX
8
0
10
344.000000
20
312.000000
0
VERTEX
8
0
10
345.200000
20
310.100000
0
VERTEX
8
0
10
346.800000
20
306.900000
0
VERTEX
8
0
10
351.240000
20
299.180000
0
VERTEX
8
0
10
356.000000
20
293.000000
0
SEQEND
0
POLYLINE
8
0
6
CONTINUOUS
66
1
62
7
10
0.0
20
0.0
30
0.000000
0
VERTEX
8
0
10
326.000000
20
287.000000
0
VERTEX
8
0
10
329.000000
20
296.000000
0
VERTEX
8
0
10
329.000000
20
307.000000
0
VERTEX
8
0
10
327.000000
20
311.000000
0
VERTEX
8
0
10
326.000000
20
310.000000
0
VERTEX
8
0
10
319.300000
20
294.900000
0
VERTEX
8
0
10
318.300000
20
291.900000
0
VERTEX
8
0
10
317.000000
20
288.000000
0
VERTEX
8
0
10
318.000000
20
287.000000
0
VERTEX
8
0
10
326.000000
20
287.000000
0
SEQEND
0
POLYLINE
8
0
6
CONTINUOUS
66
1
62
7
10
0.0
20
0.0
30
0.000000
0
VERTEX
8
0
10
344.000000
20
287.000000
0
VERTEX
8
0
10
346.000000
20
289.000000
0
VERTEX
8
0
10
343.200000
20
295.100000
0
VERTEX
8
0
10
342.800000
20
295.900000
0
VERTEX
8
0
10
339.000000
20
302.000000
0
VERTEX
8
0
10
338.000000
20
301.000000
0
VERTEX
8
0
10
338.000000
20
293.000000
0
VERTEX
8
0
10
340.000000
20
288.000000
0
VERTEX
8
0
10
344.000000
20
287.000000
0
SEQEND
0
POLYLINE
8
0
6
CONTINUOUS
66
1
62
7
10
0.0
20
0.0
30
0.000000
0
VERTEX
8
0
10
397.000000
20
283.000000
0
VERTEX
8
0
10
398.769231
20
285.153846
0
VERTEX
8
0
10
402.800000
20
295.100000
0
VERTEX
8
0
10
411.230769
20
313.846154
0
VERTEX
8
0
10
418.769231
20
326.153846
0
VERTEX
8
0
10
423.000000
20
334.000000
0
VERTEX
8
0
10
422.750000
20
334.750000
0
VERTEX
8
0
10
410.946154
20
334.430769
0
VERTEX
8
0
10
404.053846
20
333.569231
0
VERTEX
8
0
10
391.900000
20
331.300000
0
VERTEX
8
0
10
386.820000
20
328.240000
0
VERTEX
8
0
10
381.000000
20
323.000000
0
VERTEX
8
0
10
378.240000
20
318.820000
0
VERTEX
8
0
10
376.352941
20
314.911765
0
VERTEX
8
0
10
375.000000
20
311.000000
0
VERTEX
8
0
10
375.647059
20
306.911765
0
VERTEX
8
0
10
376.700000
20
302.900000
0
VERTEX
8
0
10
378.000000
20
299.000000
0
VERTEX
8
0
10
388.000000
20
289.000000
0
VERTEX
8
0
10
397.000000
20
283.000000
0
SEQEND
0
POLYLINE
8
0
6
CONTINUOUS
66
1
62
7
10
0.0
20
0.0
30
0.000000
0
VERTEX
8
0
10
256.000000
20
281.000000
0
VERTEX
8
0
10
257.100000
20
281.800000
0
VERTEX
8
0
10
275.000000
20
294.000000
0
VERTEX
8
0
10
279.000000
20
298.000000
0
VERTEX
8
0
10
278.300000
20
301.100000
0
VERTEX
8
0
10
276.760000
20
304.820000
0
VERTEX
8
0
10
264.000000
20
321.000000
0
VERTEX
8
0
10
259.100000
20
324.200000
0
VERTEX
8
0
10
249.000000
20
327.000000
0
VERTEX
8
0
10
241.000000
20
327.000000
0
VERTEX
8
0
10
238.000000
20
326.000000
0
VERTEX
8
0
10
237.000000
20
325.000000
0
VERTEX
8
0
10
238.245902
20
323.204918
0
VERTEX
8
0
10
246.200000
20
313.100000
0
VERTEX
8
0
10
250.647059
20
302.911765
0
VERTEX
8
0
10
255.200000
20
282.100000
0
VERTEX
8
0
10
256.000000
20
281.000000
0
SEQEND
0
POLYLINE
8
0
6
CONTINUOUS
66
1
62
7
10
0.0
20
0.0
30
0.000000
0
VERTEX
8
0
10
376.000000
20
264.000000
0
VERTEX
8
0
10
380.153846
20
266.769231
0
VERTEX
8
0
10
387.000000
20
273.000000
0
VERTEX
8
0
10
388.000000
20
276.000000
0
VERTEX
8
0
10
377.180000
20
286.240000
0
VERTEX
8
0
10
373.153846
20
289.230769
0
VERTEX
8
0
10
369.000000
20
292.000000
0
VERTEX
8
0
10
364.000000
20
291.000000
0
VERTEX
8
0
10
361.800000
20
288.100000
0
VERTEX
8
0
10
361.200000
20
286.900000
0
VERTEX
8
0
10
360.000000
20
284.000000
0
VERTEX
8
0
10
361.352941
20
280.088235
0
VERTEX
8
0
10
364.230769
20
274.153846
0
VERTEX
8
0
10
365.769231
20
271.846154
0
VERTEX
8
0
10
367.000000
20
269.000000
0
VERTEX
8
0
10
372.000000
20
264.000000
0
VERTEX
8
0
10
376.000000
20
264.000000
0
SEQEND
0
POLYLINE
8
0
6
CONTINUOUS
66
1
62
7
10
0.0
20
0.0
30
0.000000
0
VERTEX
8
0
10
291.000000
20
258.000000
0
VERTEX
8
0
10
295.769231
20
266.153846
0
VERTEX
8
0
10
302.615385
20
281.076923
0
VERTEX
8
0
10
304.000000
20
289.000000
0
VERTEX
8
0
10
301.100000
20
291.200000
0
VERTEX
8
0
10
300.000000
20
292.000000
0
VERTEX
8
0
10
292.000000
20
292.000000
0
VERTEX
8
0
10
280.153846
20
286.769231
0
VERTEX
8
0
10
265.000000
20
276.000000
0
VERTEX
8
0
10
265.000000
20
275.000000
0
VERTEX
8
0
10
272.900000
20
270.800000
0
VERTEX
8
0
10
276.100000
20
269.200000
0
VERTEX
8
0
10
279.000000
20
268.000000
0
VERTEX
8
0
10
288.000000
20
258.000000
0
VERTEX
8
0
10
291.000000
20
258.000000
0
SEQEND
0
POLYLINE
8
0
6
CONTINUOUS
66
1
62
7
10
0.0
20
0.0
30
0.000000
0
VERTEX
8
0
10
332.000000
20
247.000000
0
VERTEX
8
0
10
332.000000
20
248.000000
0
VERTEX
8
0
10
329.000000
20
275.000000
0
VERTEX
8
0
10
327.000000
20
277.000000
0
VERTEX
8
0
10
318.000000
20
278.000000
0
VERTEX
8
0
10
311.000000
20
276.000000
0
VERTEX
8
0
10
308.760000
20
273.180000
0
VERTEX
8
0
10
303.240000
20
265.820000
0
VERTEX
8
0
10
300.000000
20
258.000000
0
VERTEX
8
0
10
302.900000
20
255.800000
0
VERTEX
8
0
10
329.100000
20
247.300000
0
VERTEX
8
0
10
332.000000
20
247.000000
0
SEQEND
0
POLYLINE
8
0
6
CONTINUOUS
66
1
62
7
10
0.0
20
0.0
30
0.000000
0
VERTEX
8
0
10
348.000000
20
247.000000
0
VERTEX
8
0
10
366.000000
20
257.000000
0
VERTEX
8
0
10
354.000000
20
278.000000
0
VERTEX
8
0
10
351.900000
20
278.700000
0
VERTEX
8
0
10
347.000000
20
280.000000
0
VERTEX
8
0
10
345.000000
20
279.000000
0
VERTEX
8
0
10
343.420000
20
275.940000
0
VERTEX
8
0
10
342.580000
20
270.060000
0
VERTEX
8
0
10
342.000000
20
269.000000
0
VERTEX
8
0
10
342.000000
20
250.000000
0
VERTEX
8
0
10
344.900000
20
247.800000
0
VERTEX
8
0
10
348.000000
20
247.000000
0
SEQEND
0
POLYLINE
8
0
6
CONTINUOUS
66
1
62
7
10
0.0
20
0.0
30
0.000000
0
VERTEX
8
0
10
453.000000
20
241.000000
0
VERTEX
8
0
10
454.520767
20
251.019169
0
VERTEX
8
0
10
455.479233
20
274.980831
0
VERTEX
8
0
10
457.352941
20
282.911765
0
VERTEX
8
0
10
459.200000
20
286.900000
0
VERTEX
8
0
10
476.647059
20
324.088235
0
VERTEX
8
0
10
478.000000
20
329.000000
0
VERTEX
8
0
10
475.000000
20
332.000000
0
VERTEX
8
0
10
468.955446
20
333.554455
0
VERTEX
8
0
10
460.044554
20
334.445545
0
VERTEX
8
0
10
440.000000
20
335.000000
0
VERTEX
8
0
10
438.911765
20
334.352941
0
VERTEX
8
0
10
431.000000
20
331.000000
0
VERTEX
8
0
10
427.000000
20
327.000000
0
VERTEX
8
0
10
419.200000
20
314.900000
0
VERTEX
8
0
10
418.769231
20
314.153846
0
VERTEX
8
0
10
414.300000
20
305.900000
0
VERTEX
8
0
10
409.000000
20
287.000000
0
VERTEX
8
0
10
410.000000
20
270.000000
0
VERTEX
8
0
10
419.000000
20
261.000000
0
VERTEX
8
0
10
452.100000
20
241.200000
0
VERTEX
8
0
10
453.000000
20
241.000000
0
SEQEND
0
POLYLINE
8
0
6
CONTINUOUS
66
1
62
7
10
0.0
20
0.0
30
0.000000
0
VERTEX
8
0
10
195.000000
20
235.000000
0
VERTEX
8
0
10
227.820000
20
257.240000
0
VERTEX
8
0
10
247.000000
20
271.000000
0
VERTEX
8
0
10
247.200000
20
271.900000
0
VERTEX
8
0
10
248.000000
20
273.000000
0
VERTEX
8
0
10
248.000000
20
284.000000
0
VERTEX
8
0
10
246.594595
20
289.932432
0
VERTEX
8
0
10
245.300000
20
295.100000
0
VERTEX
8
0
10
241.769231
20
304.846154
0
VERTEX
8
0
10
240.230769
20
307.153846
0
VERTEX
8
0
10
237.000000
20
313.000000
0
VERTEX
8
0
10
231.180000
20
318.240000
0
VERTEX
8
0
10
223.932432
20
321.594595
0
VERTEX
8
0
10
218.000000
20
323.000000
0
VERTEX
8
0
10
172.932432
20
320.405405
0
VERTEX
8
0
10
168.000000
20
320.000000
0
VERTEX
8
0
10
167.000000
20
319.000000
0
VERTEX
8
0
10
171.230769
20
313.153846
0
VERTEX
8
0
10
176.800000
20
302.900000
0
VERTEX
8
0
10
181.647059
20
285.911765
0
VERTEX
8
0
10
182.647059
20
281.911765
0
VERTEX
8
0
10
192.000000
20
237.000000
0
VERTEX
8
0
10
194.000000
20
235.000000
0
VERTEX
8
0
10
195.000000
20
235.000000
0
SEQEND
0
POLYLINE
8
0
6
CONTINUOUS
66
1
62
7
10
0.0
20
0.0
30
0.000000
0
VERTEX
8
0
10
506.000000
20
202.000000
0
VERTEX
8
0
10
506.580000
20
203.060000
0
VERTEX
8
0
10
510.549180
20
243.040984
0
VERTEX
8
0
10
511.450820
20
252.959016
0
VERTEX
8
0
10
513.352941
20
264.911765
0
VERTEX
8
0
10
518.352941
20
284.911765
0
VERTEX
8
0
10
530.200000
20
312.900000
0
VERTEX
8
0
10
535.200000
20
323.900000
0
VERTEX
8
0
10
537.000000
20
327.000000
0
VERTEX
8
0
10
536.000000
20
328.000000
0
VERTEX
8
0
10
509.000000
20
332.000000
0
VERTEX
8
0
10
501.000000
20
332.000000
0
VERTEX
8
0
10
497.088235
20
330.647059
0
VERTEX
8
0
10
495.900000
20
330.200000
0
VERTEX
8
0
10
488.000000
20
323.000000
0
VERTEX
8
0
10
474.200000
20
297.900000
0
VERTEX
8
0
10
473.200000
20
295.900000
0
VERTEX
8
0
10
465.647059
20
274.088235
0
VERTEX
8
0
10
463.647059
20
266.088235
0
VERTEX
8
0
10
462.000000
20
256.000000
0
VERTEX
8
0
10
462.000000
20
238.000000
0
VERTEX
8
0
10
464.000000
20
234.000000
0
VERTEX
8
0
10
472.804878
20
226.756098
0
VERTEX
8
0
10
503.421348
20
202.674157
0
VERTEX
8
0
10
506.000000
20
202.000000
0
SEQEND
0
POLYLINE
8
0
6
CONTINUOUS
66
1
62
7
10
0.0
20
0.0
30
0.000000
0
VERTEX
8
0
10
407.000000
20
196.000000
0
VERTEX
8
0
10
407.800000
20
197.100000
0
VERTEX
8
0
10
413.000000
20
204.000000
0
VERTEX
8
0
10
420.000000
20
211.000000
0
VERTEX
8
0
10
443.900000
20
228.200000
0
VERTEX
8
0
10
446.000000
20
229.000000
0
VERTEX
8
0
10
448.200000
20
231.900000
0
VERTEX
8
0
10
449.000000
20
233.000000
0
VERTEX
8
0
10
443.000000
20
239.000000
0
VERTEX
8
0
10
434.900000
20
242.800000
0
VERTEX
8
0
10
434.153846
20
243.230769
0
VERTEX
8
0
10
399.000000
20
268.000000
0
VERTEX
8
0
10
396.000000
20
268.000000
0
VERTEX
8
0
10
384.000000
20
263.000000
0
VERTEX
8
0
10
381.000000
20
259.000000
0
VERTEX
8
0
10
381.594595
20
250.932432
0
VERTEX
8
0
10
383.352941
20
242.088235
0
VERTEX
8
0
10
402.200000
20
203.100000
0
VERTEX
8
0
10
406.000000
20
196.000000
0
VERTEX
8
0
10
407.000000
20
196.000000
0
SEQEND
0
POLYLINE
8
0
6
CONTINUOUS
66
1
62
7
10
0.0
20
0.0
30
0.000000
0
VERTEX
8
0
10
143.000000
20
192.000000
0
VERTEX
8
0
10
159.153846
20
202.769231
0
VERTEX
8
0
10
174.000000
20
214.000000
0
VERTEX
8
0
10
182.000000
20
222.000000
0
VERTEX
8
0
10
184.000000
20
228.000000
0
VERTEX
8
0
10
183.439024
20
235.048780
0
VERTEX
8
0
10
180.580000
20
256.940000
0
VERTEX
8
0
10
172.700000
20
288.900000
0
VERTEX
8
0
10
169.200000
20
300.100000
0
VERTEX
8
0
10
161.000000
20
316.000000
0
VERTEX
8
0
10
157.100000
20
319.200000
0
VERTEX
8
0
10
142.987516
20
320.513141
0
VERTEX
8
0
10
105.000000
20
321.000000
0
VERTEX
8
0
10
104.000000
20
320.000000
0
VERTEX
8
0
10
107.800000
20
310.900000
0
VERTEX
8
0
10
124.200000
20
278.100000
0
VERTEX
8
0
10
128.647059
20
268.911765
0
VERTEX
8
0
10
132.384615
20
253.076923
0
VERTEX
8
0
10
142.000000
20
209.000000
0
VERTEX
8
0
10
140.647059
20
202.088235
0
VERTEX
8
0
10
140.000000
20
201.000000
0
VERTEX
8
0
10
140.000000
20
193.000000
0
VERTEX
8
0
10
141.000000
20
192.000000
0
VERTEX
8
0
10
143.000000
20
192.000000
0
SEQEND
0
POLYLINE
8
0
6
CONTINUOUS
66
1
62
7
10
0.0
20
0.0
30
0.000000
0
VERTEX
8
0
10
250.000000
20
182.000000
0
VERTEX
8
0
10
253.000000
20
184.000000
0
VERTEX
8
0
10
255.200000
20
187.900000
0
VERTEX
8
0
10
256.200000
20
189.900000
0
VERTEX
8
0
10
287.000000
20
247.000000
0
VERTEX
8
0
10
286.300000
20
250.100000
0
VERTEX
8
0
10
284.000000
20
255.000000
0
VERTEX
8
0
10
276.820000
20
260.760000
0
VERTEX
8
0
10
265.911765
20
266.647059
0
VERTEX
8
0
10
262.000000
20
268.000000
0
VERTEX
8
0
10
256.000000
20
268.000000
0
VERTEX
8
0
10
250.900000
20
266.200000
0
VERTEX
8
0
10
204.820000
20
231.240000
0
VERTEX
8
0
10
193.000000
20
222.000000
0
VERTEX
8
0
10
193.000000
20
221.000000
0
VERTEX
8
0
10
195.000000
20
219.000000
0
VERTEX
8
0
10
205.100000
20
215.200000
0
VERTEX
8
0
10
220.783186
20
206.752212
0
VERTEX
8
0
10
228.216814
20
200.247788
0
VERTEX
8
0
10
240.000000
20
189.000000
0
VERTEX
8
0
10
240.000000
20
188.000000
0
VERTEX
8
0
10
244.900000
20
183.800000
0
VERTEX
8
0
10
250.000000
20
182.000000
0
SEQEND
0
POLYLINE
8
0
6
CONTINUOUS
66
1
62
7
10
0.0
20
0.0
30
0.000000
0
VERTEX
8
0
10
530.000000
20
178.000000
0
VERTEX
8
0
10
547.769231
20
208.153846
0
VERTEX
8
0
10
560.700000
20
238.100000
0
VERTEX
8
0
10
563.800000
20
246.100000
0
VERTEX
8
0
10
570.615385
20
273.076923
0
VERTEX
8
0
10
573.352941
20
284.911765
0
VERTEX
8
0
10
576.000000
20
326.000000
0
VERTEX
8
0
10
575.750000
20
326.750000
0
VERTEX
8
0
10
556.023691
20
326.526185
0
VERTEX
8
0
10
550.100000
20
324.700000
0
VERTEX
8
0
10
548.900000
20
324.200000
0
VERTEX
8
0
10
541.000000
20
317.000000
0
VERTEX
8
0
10
535.200000
20
303.900000
0
VERTEX
8
0
10
530.700000
20
293.100000
0
VERTEX
8
0
10
524.352941
20
271.911765
0
VERTEX
8
0
10
518.580000
20
238.060000
0
VERTEX
8
0
10
514.000000
20
204.000000
0
VERTEX
8
0
10
514.000000
20
195.000000
0
VERTEX
8
0
10
517.000000
20
188.000000
0
VERTEX
8
0
10
520.820000
20
184.760000
0
VERTEX
8
0
10
530.000000
20
178.000000
0
SEQEND
0
POLYLINE
8
0
6
CONTINUOUS
66
1
62
7
10
0.0
20
0.0
30
0.000000
0
VERTEX
8
0
10
259.000000
20
177.000000
0
VERTEX
8
0
10
258.000000
20
178.000000
0
SEQEND
0
POLYLINE
8
0
6
CONTINUOUS
66
1
62
7
10
0.0
20
0.0
30
0.000000
0
VERTEX
8
0
10
258.000000
20
178.000000
0
VERTEX
8
0
10
257.000000
20
177.000000
0
VERTEX
8
0
10
258.000000
20
176.000000
0
VERTEX
8
0
10
259.000000
20
177.000000
0
SEQEND
0
POLYLINE
8
0
6
CONTINUOUS
66
1
62
7
10
0.0
20
0.0
30
0.000000
0
VERTEX
8
0
10
348.000000
20
176.000000
0
VERTEX
8
0
10
351.180000
20
178.760000
0
VERTEX
8
0
10
359.100000
20
183.800000
0
VERTEX
8
0
10
359.900000
20
184.200000
0
VERTEX
8
0
10
378.088235
20
191.647059
0
VERTEX
8
0
10
393.000000
20
195.000000
0
VERTEX
8
0
10
395.000000
20
197.000000
0
VERTEX
8
0
10
374.000000
20
244.000000
0
VERTEX
8
0
10
372.000000
20
246.000000
0
VERTEX
8
0
10
365.000000
20
246.000000
0
VERTEX
8
0
10
348.900000
20
241.200000
0
VERTEX
8
0
10
345.000000
20
239.000000
0
VERTEX
8
0
10
343.000000
20
237.000000
0
VERTEX
8
0
10
342.594595
20
232.067568
0
VERTEX
8
0
10
341.000000
20
221.000000
0
VERTEX
8
0
10
341.000000
20
209.000000
0
VERTEX
8
0
10
344.352941
20
180.088235
0
VERTEX
8
0
10
346.000000
20
176.000000
0
VERTEX
8
0
10
348.000000
20
176.000000
0
SEQEND
0
POLYLINE
8
0
6
CONTINUOUS
66
1
62
7
10
0.0
20
0.0
30
0.000000
0
VERTEX
8
0
10
259.000000
20
177.000000
0
VERTEX
8
0
10
261.911765
20
177.352941
0
VERTEX
8
0
10
285.000000
20
182.000000
0
VERTEX
8
0
10
292.000000
20
182.000000
0
VERTEX
8
0
10
311.923077
20
177.615385
0
VERTEX
8
0
10
320.911765
20
175.647059
0
VERTEX
8
0
10
326.000000
20
174.000000
0
VERTEX
8
0
10
332.000000
20
174.000000
0
VERTEX
8
0
10
334.200000
20
176.900000
0
VERTEX
8
0
10
335.000000
20
178.000000
0
VERTEX
8
0
10
334.458824
20
184.035294
0
VERTEX
8
0
10
333.466926
20
197.029183
0
VERTEX
8
0
10
331.000000
20
235.000000
0
VERTEX
8
0
10
323.820000
20
240.760000
0
VERTEX
8
0
10
309.900000
20
245.700000
0
VERTEX
8
0
10
302.000000
20
248.000000
0
VERTEX
8
0
10
299.000000
20
248.000000
0
VERTEX
8
0
10
294.000000
20
245.000000
0
VERTEX
8
0
10
291.800000
20
242.100000
0
VERTEX
8
0
10
287.230769
20
233.846154
0
VERTEX
8
0
10
261.200000
20
184.900000
0
VERTEX
8
0
10
258.000000
20
178.000000
0
SEQEND
0
POLYLINE
8
0
6
CONTINUOUS
66
1
62
7
10
0.0
20
0.0
30
0.000000
0
VERTEX
8
0
10
113.000000
20
169.000000
0
VERTEX
8
0
10
125.000000
20
179.000000
0
VERTEX
8
0
10
127.558824
20
183.264706
0
VERTEX
8
0
10
128.300000
20
184.900000
0
VERTEX
8
0
10
130.000000
20
190.000000
0
VERTEX
8
0
10
130.000000
20
210.000000
0
VERTEX
8
0
10
125.615385
20
242.923077
0
VERTEX
8
0
10
124.615385
20
247.923077
0
VERTEX
8
0
10
121.300000
20
262.100000
0
VERTEX
8
0
10
119.700000
20
266.900000
0
VERTEX
8
0
10
109.800000
20
291.900000
0
VERTEX
8
0
10
104.200000
20
303.100000
0
VERTEX
8
0
10
99.000000
20
313.000000
0
VERTEX
8
0
10
92.100000
20
318.200000
0
VERTEX
8
0
10
83.067568
20
320.405405
0
VERTEX
8
0
10
61.250000
20
320.750000
0
VERTEX
8
0
10
63.450820
20
286.040984
0
VERTEX
8
0
10
68.647059
20
261.911765
0
VERTEX
8
0
10
74.700000
20
242.900000
0
VERTEX
8
0
10
80.300000
20
227.100000
0
VERTEX
8
0
10
88.200000
20
210.100000
0
VERTEX
8
0
10
93.800000
20
198.900000
0
VERTEX
8
0
10
103.769231
20
182.846154
0
VERTEX
8
0
10
113.000000
20
169.000000
0
SEQEND
0
POLYLINE
8
0
6
CONTINUOUS
66
1
62
7
10
0.0
20
0.0
30
0.000000
0
VERTEX
8
0
10
438.000000
20
127.000000
0
VERTEX
8
0
10
442.000000
20
129.000000
0
VERTEX
8
0
10
445.247059
20
132.788235
0
VERTEX
8
0
10
456.752941
20
146.211765
0
VERTEX
8
0
10
470.768493
20
160.249315
0
VERTEX
8
0
10
484.783186
20
173.247788
0
VERTEX
8
0
10
504.000000
20
190.000000
0
VERTEX
8
0
10
502.000000
20
193.000000
0
VERTEX
8
0
10
468.846154
20
219.769231
0
VERTEX
8
0
10
468.100000
20
220.200000
0
VERTEX
8
0
10
463.000000
20
223.000000
0
VERTEX
8
0
10
459.000000
20
223.000000
0
VERTEX
8
0
10
448.153846
20
218.769231
0
VERTEX
8
0
10
437.846154
20
212.230769
0
VERTEX
8
0
10
424.000000
20
202.000000
0
VERTEX
8
0
10
413.000000
20
191.000000
0
VERTEX
8
0
10
411.000000
20
185.000000
0
VERTEX
8
0
10
412.700000
20
178.900000
0
VERTEX
8
0
10
414.700000
20
172.900000
0
VERTEX
8
0
10
431.800000
20
138.900000
0
VERTEX
8
0
10
438.000000
20
127.000000
0
SEQEND
0
POLYLINE
8
0
6
CONTINUOUS
66
1
62
7
10
0.0
20
0.0
30
0.000000
0
VERTEX
8
0
10
216.000000
20
122.000000
0
VERTEX
8
0
10
219.760000
20
127.180000
0
VERTEX
8
0
10
233.800000
20
153.100000
0
VERTEX
8
0
10
235.200000
20
155.900000
0
VERTEX
8
0
10
238.615385
20
164.076923
0
VERTEX
8
0
10
240.000000
20
172.000000
0
VERTEX
8
0
10
237.700000
20
176.900000
0
VERTEX
8
0
10
237.200000
20
178.100000
0
VERTEX
8
0
10
225.000000
20
191.000000
0
VERTEX
8
0
10
204.153846
20
206.230769
0
VERTEX
8
0
10
201.846154
20
207.769231
0
VERTEX
8
0
10
192.000000
20
212.000000
0
VERTEX
8
0
10
184.000000
20
212.000000
0
VERTEX
8
0
10
173.153846
20
204.769231
0
VERTEX
8
0
10
154.180000
20
190.760000
0
VERTEX
8
0
10
147.000000
20
185.000000
0
VERTEX
8
0
10
146.000000
20
182.000000
0
VERTEX
8
0
10
148.000000
20
180.000000
0
VERTEX
8
0
10
154.100000
20
178.300000
0
VERTEX
8
0
10
157.900000
20
176.800000
0
VERTEX
8
0
10
180.795082
20
163.754098
0
VERTEX
8
0
10
192.000000
20
154.000000
0
VERTEX
8
0
10
210.769231
20
125.846154
0
VERTEX
8
0
10
211.000000
20
125.000000
0
VERTEX
8
0
10
214.000000
20
122.000000
0
VERTEX
8
0
10
216.000000
20
122.000000
0
SEQEND
0
POLYLINE
8
0
6
CONTINUOUS
66
1
62
7
10
0.0
20
0.0
30
0.000000
0
VERTEX
8
0
10
453.000000
20
105.000000
0
VERTEX
8
0
10
483.779310
20
128.248276
0
VERTEX
8
0
10
508.000000
20
150.000000
0
VERTEX
8
0
10
524.240000
20
169.820000
0
VERTEX
8
0
10
527.000000
20
173.000000
0
VERTEX
8
0
10
525.000000
20
175.000000
0
VERTEX
8
0
10
513.800000
20
182.400000
0
VERTEX
8
0
10
512.900000
20
182.200000
0
VERTEX
8
0
10
490.820000
20
167.240000
0
VERTEX
8
0
10
490.180000
20
166.760000
0
VERTEX
8
0
10
463.000000
20
145.000000
0
VERTEX
8
0
10
459.243902
20
139.804878
0
VERTEX
8
0
10
449.800000
20
126.100000
0
VERTEX
8
0
10
447.000000
20
120.000000
0
VERTEX
8
0
10
448.700000
20
111.900000
0
VERTEX
8
0
10
449.300000
20
110.100000
0
VERTEX
8
0
10
451.000000
20
105.000000
0
VERTEX
8
0
10
453.000000
20
105.000000
0
SEQEND
0
POLYLINE
8
0
6
CONTINUOUS
66
1
62
7
10
0.0
20
0.0
30
0.000000
0
VERTEX
8
0
10
201.000000
20
96.000000
0
VERTEX
8
0
10
205.800000
20
105.100000
0
VERTEX
8
0
10
208.000000
20
112.000000
0
VERTEX
8
0
10
203.200000
20
126.100000
0
VERTEX
8
0
10
190.000000
20
144.000000
0
VERTEX
8
0
10
183.000000
20
151.000000
0
VERTEX
8
0
10
176.795082
20
155.754098
0
VERTEX
8
0
10
156.100000
20
168.200000
0
VERTEX
8
0
10
152.100000
20
170.200000
0
VERTEX
8
0
10
141.000000
20
174.000000
0
VERTEX
8
0
10
138.000000
20
174.000000
0
VERTEX
8
0
10
131.100000
20
170.800000
0
VERTEX
8
0
10
119.000000
20
163.000000
0
VERTEX
8
0
10
145.000000
20
134.000000
0
VERTEX
8
0
10
168.195122
20
116.243902
0
VERTEX
8
0
10
168.820000
20
115.760000
0
VERTEX
8
0
10
199.200000
20
96.400000
0
VERTEX
8
0
10
201.000000
20
96.000000
0
SEQEND
0
POLYLINE
8
0
6
CONTINUOUS
66
1
62
7
10
0.0
20
0.0
30
0.000000
0
VERTEX
8
0
10
338.000000
20
91.000000
0
VERTEX
8
0
10
339.000000
20
92.000000
0
VERTEX
8
0
10
334.750000
20
160.750000
0
VERTEX
8
0
10
322.100000
20
164.300000
0
VERTEX
8
0
10
320.911765
20
164.647059
0
VERTEX
8
0
10
300.946154
20
168.569231
0
VERTEX
8
0
10
294.053846
20
169.430769
0
VERTEX
8
0
10
286.000000
20
171.000000
0
VERTEX
8
0
10
275.000000
20
171.000000
0
VERTEX
8
0
10
266.048780
20
169.560976
0
VERTEX
8
0
10
258.100000
20
166.700000
0
VERTEX
8
0
10
256.100000
20
165.800000
0
VERTEX
8
0
10
246.000000
20
159.000000
0
VERTEX
8
0
10
237.769231
20
145.153846
0
VERTEX
8
0
10
224.300000
20
122.900000
0
VERTEX
8
0
10
224.250000
20
120.250000
0
VERTEX
8
0
10
229.932432
20
119.594595
0
VERTEX
8
0
10
245.970817
20
118.533074
0
VERTEX
8
0
10
271.076923
20
115.384615
0
VERTEX
8
0
10
285.900000
20
111.700000
0
VERTEX
8
0
10
315.100000
20
101.200000
0
VERTEX
8
0
10
338.000000
20
91.000000
0
SEQEND
0
POLYLINE
8
0
6
CONTINUOUS
66
1
62
7
10
0.0
20
0.0
30
0.000000
0
VERTEX
8
0
10
351.000000
20
91.000000
0
VERTEX
8
0
10
376.100000
20
103.800000
0
VERTEX
8
0
10
390.900000
20
110.300000
0
VERTEX
8
0
10
392.088235
20
110.647059
0
VERTEX
8
0
10
431.000000
20
122.000000
0
VERTEX
8
0
10
433.000000
20
124.000000
0
VERTEX
8
0
10
415.800000
20
154.900000
0
VERTEX
8
0
10
410.800000
20
163.900000
0
VERTEX
8
0
10
402.000000
20
178.000000
0
VERTEX
8
0
10
399.100000
20
179.200000
0
VERTEX
8
0
10
396.000000
20
181.000000
0
VERTEX
8
0
10
382.000000
20
181.000000
0
VERTEX
8
0
10
374.053846
20
179.569231
0
VERTEX
8
0
10
365.900000
20
177.200000
0
VERTEX
8
0
10
352.153846
20
170.769231
0
VERTEX
8
0
10
347.000000
20
167.000000
0
VERTEX
8
0
10
346.800000
20
166.100000
0
VERTEX
8
0
10
345.000000
20
163.000000
0
VERTEX
8
0
10
345.000000
20
125.000000
0
VERTEX
8
0
10
347.420000
20
94.060000
0
VERTEX
8
0
10
349.000000
20
91.000000
0
VERTEX
8
0
10
351.000000
20
91.000000
0
SEQEND
0
POLYLINE
8
0
6
CONTINUOUS
66
1
62
7
10
0.0
20
0.0
30
0.000000
0
VERTEX
8
0
10
349.000000
20
69.000000
0
VERTEX
8
0
10
377.932432
20
74.405405
0
VERTEX
8
0
10
390.900000
20
78.300000
0
VERTEX
8
0
10
405.900000
20
83.300000
0
VERTEX
8
0
10
420.900000
20
89.200000
0
VERTEX
8
0
10
429.100000
20
92.800000
0
VERTEX
8
0
10
443.000000
20
99.000000
0
VERTEX
8
0
10
445.000000
20
101.000000
0
VERTEX
8
0
10
441.800000
20
106.900000
0
VERTEX
8
0
10
438.000000
20
113.000000
0
VERTEX
8
0
10
426.000000
20
113.000000
0
VERTEX
8
0
10
414.088235
20
110.647059
0
VERTEX
8
0
10
403.900000
20
107.200000
0
VERTEX
8
0
10
396.900000
20
104.200000
0
VERTEX
8
0
10
362.153846
20
88.769231
0
VERTEX
8
0
10
352.000000
20
82.000000
0
VERTEX
8
0
10
348.352941
20
74.911765
0
VERTEX
8
0
10
347.647059
20
72.088235
0
VERTEX
8
0
10
347.250000
20
69.250000
0
VERTEX
8
0
10
349.000000
20
69.000000
0
SEQEND
0
POLYLINE
8
0
6
CONTINUOUS
66
1
62
7
10
0.0
20
0.0
30
0.000000
0
VERTEX
8
0
10
327.000000
20
67.000000
0
VERTEX
8
0
10
336.750000
20
68.250000
0
VERTEX
8
0
10
336.647059
20
71.911765
0
VERTEX
8
0
10
335.615385
20
76.923077
0
VERTEX
8
0
10
333.000000
20
82.000000
0
VERTEX
8
0
10
326.100000
20
86.200000
0
VERTEX
8
0
10
294.900000
20
100.700000
0
VERTEX
8
0
10
287.900000
20
102.700000
0
VERTEX
8
0
10
266.932432
20
107.594595
0
VERTEX
8
0
10
251.040984
20
109.450820
0
VERTEX
8
0
10
226.000000
20
110.000000
0
VERTEX
8
0
10
219.000000
20
108.000000
0
VERTEX
8
0
10
211.769231
20
100.153846
0
VERTEX
8
0
10
208.000000
20
95.000000
0
VERTEX
8
0
10
208.000000
20
93.000000
0
VERTEX
8
0
10
209.900000
20
91.800000
0
VERTEX
8
0
10
222.900000
20
86.700000
0
VERTEX
8
0
10
245.088235
20
78.352941
0
VERTEX
8
0
10
260.923077
20
74.615385
0
VERTEX
8
0
10
278.048780
20
70.439024
0
VERTEX
8
0
10
285.951220
20
69.560976
0
VERTEX
8
0
10
327.000000
20
67.000000
0
SEQEND
0
POLYLINE
8
0
6
CONTINUOUS
66
1
62
7
10
0.0
20
0.0
30
0.000000
0
VERTEX
8
0
10
328.000000
20
35.000000
0
VERTEX
8
0
10
358.962069
20
37.455172
0
VERTEX
8
0
10
382.923077
20
42.384615
0
VERTEX
8
0
10
392.923077
20
44.384615
0
VERTEX
8
0
10
401.900000
20
47.200000
0
VERTEX
8
0
10
427.900000
20
56.300000
0
VERTEX
8
0
10
448.900000
20
66.200000
0
VERTEX
8
0
10
467.100000
20
75.800000
0
VERTEX
8
0
10
474.820000
20
80.240000
0
VERTEX
8
0
10
478.180000
20
82.760000
0
VERTEX
8
0
10
507.000000
20
104.000000
0
VERTEX
8
0
10
540.000000
20
137.000000
0
VERTEX
8
0
10
549.769231
20
151.153846
0
VERTEX
8
0
10
562.760000
20
169.180000
0
VERTEX
8
0
10
577.769231
20
196.153846
0
VERTEX
8
0
10
582.200000
20
204.900000
0
VERTEX
8
0
10
591.300000
20
228.900000
0
VERTEX
8
0
10
597.300000
20
245.900000
0
VERTEX
8
0
10
605.560976
20
285.048780
0
VERTEX
8
0
10
609.000000
20
319.000000
0
VERTEX
8
0
10
608.458824
20
332.035294
0
VERTEX
8
0
10
605.560976
20
366.951220
0
VERTEX
8
0
10
601.647059
20
383.911765
0
VERTEX
8
0
10
598.352941
20
399.088235
0
VERTEX
8
0
10
587.200000
20
433.100000
0
VERTEX
8
0
10
584.300000
20
441.100000
0
VERTEX
8
0
10
565.769231
20
475.846154
0
VERTEX
8
0
10
563.200000
20
480.100000
0
VERTEX
8
0
10
553.240000
20
494.180000
0
VERTEX
8
0
10
549.243902
20
499.195122
0
VERTEX
8
0
10
536.000000
20
517.000000
0
VERTEX
8
0
10
509.766112
20
541.750520
0
VERTEX
8
0
10
492.180000
20
556.240000
0
VERTEX
8
0
10
484.820000
20
561.760000
0
VERTEX
8
0
10
466.100000
20
575.200000
0
VERTEX
8
0
10
428.900000
20
593.700000
0
VERTEX
8
0
10
386.076923
20
607.384615
0
VERTEX
8
0
10
380.067568
20
608.405405
0
VERTEX
8
0
10
350.250000
20
613.250000
0
VERTEX
8
0
10
349.569231
20
620.946154
0
VERTEX
8
0
10
345.800000
20
629.900000
0
VERTEX
8
0
10
345.200000
20
631.100000
0
VERTEX
8
0
10
343.000000
20
635.000000
0
VERTEX
8
0
10
337.000000
20
641.000000
0
VERTEX
8
0
10
328.911765
20
644.647059
0
VERTEX
8
0
10
321.000000
20
647.000000
0
VERTEX
8
0
10
315.923077
20
646.384615
0
VERTEX
8
0
10
306.900000
20
644.200000
0
VERTEX
8
0
10
300.000000
20
641.000000
0
VERTEX
8
0
10
294.000000
20
635.000000
0
VERTEX
8
0
10
291.240000
20
630.820000
0
VERTEX
8
0
10
290.800000
20
630.100000
0
VERTEX
8
0
10
287.352941
20
616.911765
0
VERTEX
8
0
10
286.750000
20
613.250000
0
VERTEX
8
0
10
252.067568
20
607.594595
0
VERTEX
8
0
10
250.923077
20
607.384615
0
VERTEX
8
0
10
208.100000
20
593.700000
0
VERTEX
8
0
10
170.900000
20
575.200000
0
VERTEX
8
0
10
148.820000
20
559.240000
0
VERTEX
8
0
10
144.820000
20
556.240000
0
VERTEX
8
0
10
127.233888
20
541.750520
0
VERTEX
8
0
10
101.000000
20
517.000000
0
VERTEX
8
0
10
78.240000
20
486.820000
0
VERTEX
8
0
10
69.800000
20
473.100000
0
VERTEX
8
0
10
53.300000
20
442.900000
0
VERTEX
8
0
10
49.300000
20
431.900000
0
VERTEX
8
0
10
38.647059
20
399.088235
0
VERTEX
8
0
10
34.615385
20
381.076923
0
VERTEX
8
0
10
31.439024
20
366.951220
0
VERTEX
8
0
10
28.000000
20
331.000000
0
VERTEX
8
0
10
28.541176
20
317.964706
0
VERTEX
8
0
10
31.439024
20
285.048780
0
VERTEX
8
0
10
40.300000
20
244.100000
0
VERTEX
8
0
10
46.700000
20
225.900000
0
VERTEX
8
0
10
54.800000
20
204.900000
0
VERTEX
8
0
10
60.769231
20
193.846154
0
VERTEX
8
0
10
74.240000
20
169.180000
0
VERTEX
8
0
10
88.769231
20
148.846154
0
VERTEX
8
0
10
97.000000
20
137.000000
0
VERTEX
8
0
10
130.000000
20
104.000000
0
VERTEX
8
0
10
162.180000
20
80.240000
0
VERTEX
8
0
10
171.100000
20
75.200000
0
VERTEX
8
0
10
188.900000
20
65.800000
0
VERTEX
8
0
10
209.100000
20
56.300000
0
VERTEX
8
0
10
235.900000
20
46.800000
0
VERTEX
8
0
10
247.923077
20
43.615385
0
VERTEX
8
0
10
257.923077
20
41.615385
0
VERTEX
8
0
10
278.037931
20
37.455172
0
VERTEX
8
0
10
288.962069
20
36.544828
0
VERTEX
8
0
10
328.000000
20
35.000000
0
SEQEND
0
ENDSEC
0
EOF
