0
SECTION
2
HEADER
9
$ACADVER
1
AC1003
9
$INSBASE
10
0.0
20
0.0
30
0.0
9
$EXTMIN
10
0.000
20
0.000
30
0.0
9
$EXTMAX
10
756.000
20
746.000
30
0.0
9
$LIMMIN
10
0.000
20
0.000
9
$LIMMAX
10
756.000
20
746.000
9
$LTSCALE
40
1.0
9
$LUNITS
70
2
9
$LUPREC
70
3
9
$LIMCHECK
70
0
9
$UCSNAME
2

9
$UCSORG
10
0.0
20
0.0
30
0.0
9
$UCSXDIR
10
1.0
20
0.0
30
0.0
9
$UCSYDIR
10
0.0
20
1.0
30
0.0
9
$WORLDVIEW
70
1
9
$UNITMODE
70
0
0
ENDSEC
0
SECTION
2
TABLES
0
TABLE
2
VPORT
70
1
0
VPORT
2
*ACTIVE
70
0
10
0.0
20
0.0
11
1.0
21
1.0
12
378.000
22
373.000
13
0.0
23
0.0
14
1.0
24
1.0
15
0.0
25
0.0
16
0.0
26
0.0
36
1.0
17
0.0
27
0.0
37
0.0
40
500.0
41
0.987
42
50.0
43
0.0
44
0.0
50
0.0
51
0.0
71
0
72
100
73
1
74
1
75
0
76
0
77
0
78
0
0
ENDTAB
0
TABLE
2
LTYPE
70
1
0
LTYPE
2
CONTINUOUS
70
64
3
Solid line
72
65
73
0
40
0.000
0
ENDTAB
0
TABLE
2
LAYER
70
1
0
LAYER
2
0
70
64
62
7
6
CONTINUOUS
0
ENDTAB
0
ENDSEC
0
SECTION
2
BLOCKS
0
ENDSEC
0
SECTION
2
ENTITIES
0
POLYLINE
8
0
6
CONTINUOUS
66
1
62
7
10
0.0
20
0.0
30
0.000000
0
VERTEX
8
0
10
380.000000
20
651.000000
0
VERTEX
8
0
10
382.000000
20
652.000000
0
VERTEX
8
0
10
387.000000
20
657.000000
0
VERTEX
8
0
10
387.500000
20
661.000000
0
VERTEX
8
0
10
385.000000
20
668.000000
0
VERTEX
8
0
10
381.000000
20
671.000000
0
VERTEX
8
0
10
374.000000
20
671.000000
0
VERTEX
8
0
10
369.000000
20
667.000000
0
VERTEX
8
0
10
367.647059
20
659.911765
0
VERTEX
8
0
10
370.000000
20
654.000000
0
VERTEX
8
0
10
375.067568
20
651.405405
0
VERTEX
8
0
10
380.000000
20
651.000000
0
SEQEND
0
POLYLINE
8
0
6
CONTINUOUS
66
1
62
7
10
0.0
20
0.0
30
0.000000
0
VERTEX
8
0
10
455.000000
20
617.000000
0
VERTEX
8
0
10
454.000000
20
618.000000
0
SEQEND
0
POLYLINE
8
0
6
CONTINUOUS
66
1
62
7
10
0.0
20
0.0
30
0.000000
0
VERTEX
8
0
10
455.000000
20
616.000000
0
VERTEX
8
0
10
455.000000
20
617.000000
0
SEQEND
0
POLYLINE
8
0
6
CONTINUOUS
66
1
62
7
10
0.0
20
0.0
30
0.000000
0
VERTEX
8
0
10
396.000000
20
482.000000
0
VERTEX
8
0
10
397.524887
20
494.022624
0
VERTEX
8
0
10
398.475113
20
513.977376
0
VERTEX
8
0
10
400.300000
20
527.900000
0
VERTEX
8
0
10
401.800000
20
531.100000
0
VERTEX
8
0
10
407.000000
20
540.000000
0
VERTEX
8
0
10
427.153846
20
554.769231
0
VERTEX
8
0
10
428.000000
20
555.000000
0
VERTEX
8
0
10
436.200000
20
565.900000
0
VERTEX
8
0
10
441.200000
20
577.900000
0
VERTEX
8
0
10
446.000000
20
593.000000
0
VERTEX
8
0
10
446.000000
20
604.000000
0
VERTEX
8
0
10
442.000000
20
620.000000
0
VERTEX
8
0
10
441.750000
20
620.750000
0
VERTEX
8
0
10
429.067568
20
623.405405
0
VERTEX
8
0
10
424.076923
20
624.384615
0
VERTEX
8
0
10
411.975138
20
626.527624
0
VERTEX
8
0
10
394.024862
20
627.472376
0
VERTEX
8
0
10
368.000000
20
628.000000
0
VERTEX
8
0
10
334.076923
20
624.615385
0
VERTEX
8
0
10
307.076923
20
619.615385
0
VERTEX
8
0
10
288.100000
20
613.700000
0
VERTEX
8
0
10
278.900000
20
610.300000
0
VERTEX
8
0
10
265.100000
20
604.800000
0
VERTEX
8
0
10
257.100000
20
600.800000
0
VERTEX
8
0
10
236.000000
20
590.000000
0
VERTEX
8
0
10
237.000000
20
589.000000
0
VERTEX
8
0
10
266.000000
20
574.000000
0
VERTEX
8
0
10
277.000000
20
563.000000
0
VERTEX
8
0
10
283.769231
20
552.846154
0
VERTEX
8
0
10
285.800000
20
548.900000
0
VERTEX
8
0
10
295.230769
20
524.153846
0
VERTEX
8
0
10
296.769231
20
521.846154
0
VERTEX
8
0
10
308.000000
20
509.000000
0
VERTEX
8
0
10
324.100000
20
498.200000
0
VERTEX
8
0
10
327.153846
20
496.230769
0
VERTEX
8
0
10
344.000000
20
484.000000
0
VERTEX
8
0
10
347.000000
20
487.000000
0
VERTEX
8
0
10
350.800000
20
493.100000
0
VERTEX
8
0
10
360.200000
20
508.900000
0
VERTEX
8
0
10
362.384615
20
515.923077
0
VERTEX
8
0
10
364.554455
20
530.044554
0
VERTEX
8
0
10
365.000000
20
539.000000
0
VERTEX
8
0
10
367.000000
20
541.000000
0
VERTEX
8
0
10
373.000000
20
541.000000
0
VERTEX
8
0
10
376.200000
20
537.100000
0
VERTEX
8
0
10
377.464602
20
522.030973
0
VERTEX
8
0
10
380.300000
20
505.100000
0
VERTEX
8
0
10
382.300000
20
499.100000
0
VERTEX
8
0
10
386.247788
20
493.216814
0
VERTEX
8
0
10
396.000000
20
482.000000
0
SEQEND
0
POLYLINE
8
0
6
CONTINUOUS
66
1
62
7
10
0.0
20
0.0
30
0.000000
0
VERTEX
8
0
10
455.000000
20
616.000000
0
VERTEX
8
0
10
456.769231
20
613.846154
0
VERTEX
8
0
10
460.800000
20
602.900000
0
VERTEX
8
0
10
461.200000
20
602.100000
0
VERTEX
8
0
10
464.569231
20
589.946154
0
VERTEX
8
0
10
467.000000
20
575.000000
0
VERTEX
8
0
10
466.405405
20
567.932432
0
VERTEX
8
0
10
464.384615
20
554.923077
0
VERTEX
8
0
10
457.800000
20
536.100000
0
VERTEX
8
0
10
452.800000
20
525.100000
0
VERTEX
8
0
10
449.000000
20
513.000000
0
VERTEX
8
0
10
449.000000
20
500.000000
0
VERTEX
8
0
10
453.352941
20
482.088235
0
VERTEX
8
0
10
453.594595
20
480.932432
0
VERTEX
8
0
10
455.000000
20
471.000000
0
VERTEX
8
0
10
457.000000
20
469.000000
0
VERTEX
8
0
10
473.000000
20
470.000000
0
VERTEX
8
0
10
476.000000
20
473.000000
0
VERTEX
8
0
10
477.800000
20
477.100000
0
VERTEX
8
0
10
479.800000
20
481.100000
0
VERTEX
8
0
10
481.000000
20
484.000000
0
VERTEX
8
0
10
497.000000
20
500.000000
0
VERTEX
8
0
10
500.000000
20
498.000000
0
VERTEX
8
0
10
501.000000
20
497.000000
0
VERTEX
8
0
10
498.430769
20
459.946154
0
VERTEX
8
0
10
496.800000
20
451.100000
0
VERTEX
8
0
10
480.000000
20
429.000000
0
VERTEX
8
0
10
480.000000
20
425.000000
0
VERTEX
8
0
10
481.000000
20
424.000000
0
VERTEX
8
0
10
489.000000
20
424.000000
0
VERTEX
8
0
10
496.900000
20
426.300000
0
VERTEX
8
0
10
499.000000
20
427.000000
0
VERTEX
8
0
10
516.240000
20
449.820000
0
VERTEX
8
0
10
519.000000
20
454.000000
0
VERTEX
8
0
10
524.900000
20
458.200000
0
VERTEX
8
0
10
526.900000
20
459.200000
0
VERTEX
8
0
10
537.000000
20
462.000000
0
VERTEX
8
0
10
541.000000
20
462.000000
0
VERTEX
8
0
10
565.923077
20
455.615385
0
VERTEX
8
0
10
580.000000
20
454.000000
0
VERTEX
8
0
10
585.100000
20
455.800000
0
VERTEX
8
0
10
600.000000
20
467.000000
0
VERTEX
8
0
10
611.000000
20
478.000000
0
VERTEX
8
0
10
619.451220
20
488.439024
0
VERTEX
8
0
10
618.800000
20
489.900000
0
VERTEX
8
0
10
613.200000
20
500.100000
0
VERTEX
8
0
10
601.751724
20
516.779310
0
VERTEX
8
0
10
593.751381
20
525.776243
0
VERTEX
8
0
10
568.000000
20
554.000000
0
VERTEX
8
0
10
558.779310
20
561.751724
0
VERTEX
8
0
10
529.100000
20
584.200000
0
VERTEX
8
0
10
510.100000
20
595.200000
0
VERTEX
8
0
10
477.900000
20
609.700000
0
VERTEX
8
0
10
456.000000
20
617.000000
0
VERTEX
8
0
10
455.000000
20
617.000000
0
SEQEND
0
POLYLINE
8
0
6
CONTINUOUS
66
1
62
7
10
0.0
20
0.0
30
0.000000
0
VERTEX
8
0
10
109.000000
20
421.000000
0
VERTEX
8
0
10
108.000000
20
422.000000
0
SEQEND
0
POLYLINE
8
0
6
CONTINUOUS
66
1
62
7
10
0.0
20
0.0
30
0.000000
0
VERTEX
8
0
10
108.000000
20
422.000000
0
VERTEX
8
0
10
107.000000
20
421.000000
0
VERTEX
8
0
10
108.000000
20
420.000000
0
VERTEX
8
0
10
109.000000
20
421.000000
0
SEQEND
0
POLYLINE
8
0
6
CONTINUOUS
66
1
62
7
10
0.0
20
0.0
30
0.000000
0
VERTEX
8
0
10
361.000000
20
420.000000
0
VERTEX
8
0
10
360.000000
20
420.000000
0
SEQEND
0
POLYLINE
8
0
6
CONTINUOUS
66
1
62
7
10
0.0
20
0.0
30
0.000000
0
VERTEX
8
0
10
109.000000
20
421.000000
0
VERTEX
8
0
10
119.100000
20
423.700000
0
VERTEX
8
0
10
138.000000
20
428.000000
0
VERTEX
8
0
10
147.000000
20
428.000000
0
VERTEX
8
0
10
156.923077
20
425.615385
0
VERTEX
8
0
10
190.000000
20
413.000000
0
VERTEX
8
0
10
193.911765
20
414.352941
0
VERTEX
8
0
10
227.016093
20
421.517203
0
VERTEX
8
0
10
256.750000
20
422.250000
0
VERTEX
8
0
10
256.200000
20
425.100000
0
VERTEX
8
0
10
249.800000
20
434.900000
0
VERTEX
8
0
10
240.700000
20
452.900000
0
VERTEX
8
0
10
237.000000
20
463.000000
0
VERTEX
8
0
10
239.000000
20
468.000000
0
VERTEX
8
0
10
244.000000
20
472.000000
0
VERTEX
8
0
10
247.000000
20
472.000000
0
VERTEX
8
0
10
250.240000
20
467.180000
0
VERTEX
8
0
10
252.760000
20
463.820000
0
VERTEX
8
0
10
263.000000
20
453.000000
0
VERTEX
8
0
10
292.750000
20
456.250000
0
VERTEX
8
0
10
292.300000
20
459.100000
0
VERTEX
8
0
10
289.750459
20
464.765138
0
VERTEX
8
0
10
267.247788
20
489.216814
0
VERTEX
8
0
10
260.200000
20
501.100000
0
VERTEX
8
0
10
258.647059
20
505.911765
0
VERTEX
8
0
10
258.000000
20
507.000000
0
VERTEX
8
0
10
259.000000
20
537.000000
0
VERTEX
8
0
10
252.800000
20
550.900000
0
VERTEX
8
0
10
248.754098
20
557.795082
0
VERTEX
8
0
10
226.000000
20
584.000000
0
VERTEX
8
0
10
210.820000
20
573.240000
0
VERTEX
8
0
10
187.000000
20
554.000000
0
VERTEX
8
0
10
177.000000
20
544.000000
0
VERTEX
8
0
10
151.230769
20
513.846154
0
VERTEX
8
0
10
137.800000
20
493.100000
0
VERTEX
8
0
10
128.800000
20
476.100000
0
VERTEX
8
0
10
116.300000
20
449.900000
0
VERTEX
8
0
10
115.700000
20
448.100000
0
VERTEX
8
0
10
108.352941
20
424.911765
0
VERTEX
8
0
10
108.000000
20
422.000000
0
SEQEND
0
POLYLINE
8
0
6
CONTINUOUS
66
1
62
7
10
0.0
20
0.0
30
0.000000
0
VERTEX
8
0
10
476.000000
20
354.000000
0
VERTEX
8
0
10
474.000000
20
354.000000
0
SEQEND
0
POLYLINE
8
0
6
CONTINUOUS
66
1
62
7
10
0.0
20
0.0
30
0.000000
0
VERTEX
8
0
10
474.000000
20
354.000000
0
VERTEX
8
0
10
473.000000
20
356.000000
0
VERTEX
8
0
10
462.100000
20
361.300000
0
VERTEX
8
0
10
456.911765
20
362.647059
0
VERTEX
8
0
10
445.153846
20
366.230769
0
VERTEX
8
0
10
442.000000
20
368.000000
0
VERTEX
8
0
10
440.800000
20
369.900000
0
VERTEX
8
0
10
440.000000
20
371.000000
0
VERTEX
8
0
10
442.000000
20
395.000000
0
VERTEX
8
0
10
441.000000
20
399.000000
0
VERTEX
8
0
10
440.000000
20
400.000000
0
VERTEX
8
0
10
438.100000
20
399.700000
0
VERTEX
8
0
10
417.100000
20
385.800000
0
VERTEX
8
0
10
414.000000
20
384.000000
0
VERTEX
8
0
10
411.000000
20
384.000000
0
VERTEX
8
0
10
383.000000
20
398.000000
0
VERTEX
8
0
10
382.250000
20
397.750000
0
VERTEX
8
0
10
382.405405
20
392.067568
0
VERTEX
8
0
10
382.615385
20
390.923077
0
VERTEX
8
0
10
389.000000
20
368.000000
0
VERTEX
8
0
10
383.752941
20
360.211765
0
VERTEX
8
0
10
363.000000
20
336.000000
0
VERTEX
8
0
10
364.000000
20
335.000000
0
VERTEX
8
0
10
373.067568
20
336.594595
0
VERTEX
8
0
10
377.932432
20
337.405405
0
VERTEX
8
0
10
391.000000
20
340.000000
0
VERTEX
8
0
10
398.000000
20
340.000000
0
VERTEX
8
0
10
402.000000
20
338.000000
0
VERTEX
8
0
10
415.240000
20
320.180000
0
VERTEX
8
0
10
420.000000
20
314.000000
0
VERTEX
8
0
10
421.000000
20
314.000000
0
VERTEX
8
0
10
422.200000
20
315.900000
0
VERTEX
8
0
10
432.000000
20
340.000000
0
VERTEX
8
0
10
436.900000
20
344.200000
0
VERTEX
8
0
10
474.000000
20
354.000000
0
SEQEND
0
POLYLINE
8
0
6
CONTINUOUS
66
1
62
7
10
0.0
20
0.0
30
0.000000
0
VERTEX
8
0
10
649.000000
20
281.000000
0
VERTEX
8
0
10
652.384615
20
299.923077
0
VERTEX
8
0
10
655.531034
20
324.027586
0
VERTEX
8
0
10
656.468966
20
339.972414
0
VERTEX
8
0
10
657.000000
20
355.000000
0
VERTEX
8
0
10
654.538071
20
382.967005
0
VERTEX
8
0
10
653.554455
20
392.955446
0
VERTEX
8
0
10
646.647059
20
421.911765
0
VERTEX
8
0
10
644.647059
20
429.911765
0
VERTEX
8
0
10
636.800000
20
450.900000
0
VERTEX
8
0
10
634.800000
20
455.900000
0
VERTEX
8
0
10
628.000000
20
472.000000
0
VERTEX
8
0
10
577.795082
20
425.245902
0
VERTEX
8
0
10
569.846154
20
420.230769
0
VERTEX
8
0
10
562.900000
20
416.200000
0
VERTEX
8
0
10
532.900000
20
403.300000
0
VERTEX
8
0
10
531.000000
20
403.000000
0
VERTEX
8
0
10
528.769231
20
400.153846
0
VERTEX
8
0
10
527.230769
20
397.846154
0
VERTEX
8
0
10
519.000000
20
385.000000
0
VERTEX
8
0
10
508.000000
20
376.000000
0
VERTEX
8
0
10
511.900000
20
373.800000
0
VERTEX
8
0
10
513.900000
20
372.800000
0
VERTEX
8
0
10
560.846154
20
358.769231
0
VERTEX
8
0
10
564.000000
20
357.000000
0
VERTEX
8
0
10
566.200000
20
354.100000
0
VERTEX
8
0
10
566.800000
20
352.900000
0
VERTEX
8
0
10
568.000000
20
349.000000
0
VERTEX
8
0
10
567.000000
20
345.000000
0
VERTEX
8
0
10
565.000000
20
343.000000
0
VERTEX
8
0
10
555.000000
20
343.000000
0
VERTEX
8
0
10
541.000000
20
346.000000
0
VERTEX
8
0
10
536.000000
20
346.000000
0
VERTEX
8
0
10
528.100000
20
343.700000
0
VERTEX
8
0
10
524.900000
20
342.200000
0
VERTEX
8
0
10
518.204918
20
338.754098
0
VERTEX
8
0
10
508.000000
20
330.000000
0
VERTEX
8
0
10
514.900000
20
325.800000
0
VERTEX
8
0
10
521.911765
20
323.647059
0
VERTEX
8
0
10
527.000000
20
322.000000
0
VERTEX
8
0
10
562.000000
20
324.000000
0
VERTEX
8
0
10
568.940000
20
322.580000
0
VERTEX
8
0
10
583.000000
20
317.000000
0
VERTEX
8
0
10
595.769231
20
297.846154
0
VERTEX
8
0
10
596.000000
20
297.000000
0
VERTEX
8
0
10
605.900000
20
289.800000
0
VERTEX
8
0
10
622.911765
20
283.647059
0
VERTEX
8
0
10
627.923077
20
282.615385
0
VERTEX
8
0
10
634.030973
20
281.464602
0
VERTEX
8
0
10
649.000000
20
281.000000
0
SEQEND
0
POLYLINE
8
0
6
CONTINUOUS
66
1
62
7
10
0.0
20
0.0
30
0.000000
0
VERTEX
8
0
10
360.000000
20
420.000000
0
VERTEX
8
0
10
359.000000
20
421.000000
0
VERTEX
8
0
10
345.000000
20
421.000000
0
VERTEX
8
0
10
337.088235
20
418.647059
0
VERTEX
8
0
10
335.900000
20
418.300000
0
VERTEX
8
0
10
320.153846
20
412.769231
0
VERTEX
8
0
10
317.846154
20
411.230769
0
VERTEX
8
0
10
312.000000
20
408.000000
0
VERTEX
8
0
10
300.000000
20
396.000000
0
VERTEX
8
0
10
297.200000
20
390.900000
0
VERTEX
8
0
10
295.230769
20
387.846154
0
VERTEX
8
0
10
292.300000
20
380.900000
0
VERTEX
8
0
10
291.700000
20
379.100000
0
VERTEX
8
0
10
288.405405
20
369.932432
0
VERTEX
8
0
10
286.000000
20
354.000000
0
VERTEX
8
0
10
286.560976
20
341.951220
0
VERTEX
8
0
10
288.352941
20
330.088235
0
VERTEX
8
0
10
295.800000
20
307.900000
0
VERTEX
8
0
10
302.000000
20
297.000000
0
VERTEX
8
0
10
314.804878
20
284.756098
0
VERTEX
8
0
10
319.195122
20
281.243902
0
VERTEX
8
0
10
326.100000
20
277.200000
0
VERTEX
8
0
10
326.900000
20
276.800000
0
VERTEX
8
0
10
343.076923
20
269.384615
0
VERTEX
8
0
10
346.923077
20
268.615385
0
VERTEX
8
0
10
364.000000
20
266.000000
0
VERTEX
8
0
10
373.000000
20
266.000000
0
VERTEX
8
0
10
389.911765
20
269.352941
0
VERTEX
8
0
10
402.100000
20
272.700000
0
VERTEX
8
0
10
410.846154
20
276.230769
0
VERTEX
8
0
10
413.804878
20
278.243902
0
VERTEX
8
0
10
423.000000
20
286.000000
0
VERTEX
8
0
10
423.240000
20
286.820000
0
VERTEX
8
0
10
426.000000
20
290.000000
0
VERTEX
8
0
10
425.000000
20
291.000000
0
VERTEX
8
0
10
406.900000
20
286.300000
0
VERTEX
8
0
10
405.100000
20
285.700000
0
VERTEX
8
0
10
388.000000
20
283.000000
0
VERTEX
8
0
10
378.000000
20
283.000000
0
VERTEX
8
0
10
372.100000
20
285.300000
0
VERTEX
8
0
10
362.100000
20
288.300000
0
VERTEX
8
0
10
344.180000
20
299.240000
0
VERTEX
8
0
10
331.000000
20
310.000000
0
VERTEX
8
0
10
318.800000
20
329.900000
0
VERTEX
8
0
10
313.445545
20
341.044554
0
VERTEX
8
0
10
312.554455
20
349.955446
0
VERTEX
8
0
10
312.000000
20
364.000000
0
VERTEX
8
0
10
314.405405
20
377.932432
0
VERTEX
8
0
10
316.200000
20
381.900000
0
VERTEX
8
0
10
317.800000
20
385.100000
0
VERTEX
8
0
10
320.247059
20
389.788235
0
VERTEX
8
0
10
333.000000
20
404.000000
0
VERTEX
8
0
10
337.180000
20
406.760000
0
VERTEX
8
0
10
341.180000
20
409.760000
0
VERTEX
8
0
10
354.100000
20
416.800000
0
VERTEX
8
0
10
360.000000
20
420.000000
0
SEQEND
0
POLYLINE
8
0
6
CONTINUOUS
66
1
62
7
10
0.0
20
0.0
30
0.000000
0
VERTEX
8
0
10
644.000000
20
265.000000
0
VERTEX
8
0
10
643.000000
20
266.000000
0
SEQEND
0
POLYLINE
8
0
6
CONTINUOUS
66
1
62
7
10
0.0
20
0.0
30
0.000000
0
VERTEX
8
0
10
644.000000
20
265.000000
0
VERTEX
8
0
10
645.000000
20
266.000000
0
VERTEX
8
0
10
644.000000
20
267.000000
0
VERTEX
8
0
10
643.000000
20
266.000000
0
SEQEND
0
POLYLINE
8
0
6
CONTINUOUS
66
1
62
7
10
0.0
20
0.0
30
0.000000
0
VERTEX
8
0
10
137.000000
20
209.000000
0
VERTEX
8
0
10
137.000000
20
210.000000
0
VERTEX
8
0
10
143.769231
20
222.153846
0
VERTEX
8
0
10
149.247788
20
229.783186
0
VERTEX
8
0
10
161.000000
20
243.000000
0
VERTEX
8
0
10
171.153846
20
249.769231
0
VERTEX
8
0
10
174.153846
20
251.769231
0
VERTEX
8
0
10
183.100000
20
255.800000
0
VERTEX
8
0
10
187.100000
20
257.700000
0
VERTEX
8
0
10
211.000000
20
266.000000
0
VERTEX
8
0
10
217.769231
20
275.153846
0
VERTEX
8
0
10
226.200000
20
303.900000
0
VERTEX
8
0
10
227.200000
20
305.900000
0
VERTEX
8
0
10
231.000000
20
313.000000
0
VERTEX
8
0
10
226.153846
20
317.230769
0
VERTEX
8
0
10
216.976309
20
322.526185
0
VERTEX
8
0
10
198.023691
20
323.473815
0
VERTEX
8
0
10
190.000000
20
325.000000
0
VERTEX
8
0
10
187.800000
20
327.900000
0
VERTEX
8
0
10
187.000000
20
329.000000
0
VERTEX
8
0
10
188.200000
20
332.900000
0
VERTEX
8
0
10
188.800000
20
334.100000
0
VERTEX
8
0
10
192.000000
20
338.000000
0
VERTEX
8
0
10
210.100000
20
341.800000
0
VERTEX
8
0
10
224.846154
20
348.230769
0
VERTEX
8
0
10
227.153846
20
349.769231
0
VERTEX
8
0
10
233.000000
20
353.000000
0
VERTEX
8
0
10
241.000000
20
361.000000
0
VERTEX
8
0
10
239.000000
20
363.000000
0
VERTEX
8
0
10
231.088235
20
366.352941
0
VERTEX
8
0
10
226.000000
20
368.000000
0
VERTEX
8
0
10
202.955446
20
366.445545
0
VERTEX
8
0
10
188.000000
20
365.000000
0
VERTEX
8
0
10
177.195122
20
369.243902
0
VERTEX
8
0
10
149.100000
20
392.200000
0
VERTEX
8
0
10
136.911765
20
398.647059
0
VERTEX
8
0
10
131.100000
20
400.300000
0
VERTEX
8
0
10
116.959016
20
402.549180
0
VERTEX
8
0
10
103.250000
20
403.750000
0
VERTEX
8
0
10
101.580000
20
394.060000
0
VERTEX
8
0
10
99.580000
20
380.060000
0
VERTEX
8
0
10
98.000000
20
362.000000
0
VERTEX
8
0
10
98.000000
20
340.000000
0
VERTEX
8
0
10
100.455172
20
310.037931
0
VERTEX
8
0
10
103.384615
20
296.076923
0
VERTEX
8
0
10
106.647059
20
280.911765
0
VERTEX
8
0
10
113.800000
20
257.900000
0
VERTEX
8
0
10
116.700000
20
249.900000
0
VERTEX
8
0
10
122.200000
20
236.100000
0
VERTEX
8
0
10
136.000000
20
209.000000
0
VERTEX
8
0
10
137.000000
20
209.000000
0
SEQEND
0
POLYLINE
8
0
6
CONTINUOUS
66
1
62
7
10
0.0
20
0.0
30
0.000000
0
VERTEX
8
0
10
137.000000
20
207.000000
0
VERTEX
8
0
10
137.000000
20
209.000000
0
SEQEND
0
POLYLINE
8
0
6
CONTINUOUS
66
1
62
7
10
0.0
20
0.0
30
0.000000
0
VERTEX
8
0
10
643.000000
20
266.000000
0
VERTEX
8
0
10
621.088235
20
260.647059
0
VERTEX
8
0
10
610.000000
20
259.000000
0
VERTEX
8
0
10
599.000000
20
259.000000
0
VERTEX
8
0
10
591.053846
20
260.430769
0
VERTEX
8
0
10
583.100000
20
263.200000
0
VERTEX
8
0
10
581.100000
20
264.200000
0
VERTEX
8
0
10
558.000000
20
277.000000
0
VERTEX
8
0
10
547.000000
20
277.000000
0
VERTEX
8
0
10
536.100000
20
273.700000
0
VERTEX
8
0
10
516.000000
20
268.000000
0
VERTEX
8
0
10
509.000000
20
268.000000
0
VERTEX
8
0
10
497.250000
20
269.750000
0
VERTEX
8
0
10
497.000000
20
269.000000
0
VERTEX
8
0
10
501.800000
20
256.900000
0
VERTEX
8
0
10
519.230769
20
224.153846
0
VERTEX
8
0
10
525.000000
20
215.000000
0
VERTEX
8
0
10
525.000000
20
209.000000
0
VERTEX
8
0
10
523.000000
20
205.000000
0
VERTEX
8
0
10
522.000000
20
204.000000
0
VERTEX
8
0
10
517.000000
20
204.000000
0
VERTEX
8
0
10
510.000000
20
209.000000
0
VERTEX
8
0
10
485.000000
20
238.000000
0
VERTEX
8
0
10
479.000000
20
242.000000
0
VERTEX
8
0
10
467.911765
20
240.352941
0
VERTEX
8
0
10
459.000000
20
238.000000
0
VERTEX
8
0
10
470.000000
20
226.000000
0
VERTEX
8
0
10
486.000000
20
212.000000
0
VERTEX
8
0
10
489.615385
20
203.923077
0
VERTEX
8
0
10
490.384615
20
200.076923
0
VERTEX
8
0
10
492.000000
20
192.000000
0
VERTEX
8
0
10
492.000000
20
185.000000
0
VERTEX
8
0
10
489.580000
20
169.060000
0
VERTEX
8
0
10
488.647059
20
165.088235
0
VERTEX
8
0
10
488.000000
20
164.000000
0
VERTEX
8
0
10
488.000000
20
139.000000
0
VERTEX
8
0
10
489.445545
20
129.044554
0
VERTEX
8
0
10
491.300000
20
121.100000
0
VERTEX
8
0
10
491.800000
20
119.900000
0
VERTEX
8
0
10
499.000000
20
111.000000
0
VERTEX
8
0
10
508.153846
20
104.230769
0
VERTEX
8
0
10
510.000000
20
103.500000
0
VERTEX
8
0
10
520.900000
20
109.200000
0
VERTEX
8
0
10
522.100000
20
109.800000
0
VERTEX
8
0
10
536.180000
20
118.760000
0
VERTEX
8
0
10
558.776243
20
136.248619
0
VERTEX
8
0
10
568.223757
20
144.751381
0
VERTEX
8
0
10
581.248869
20
157.773756
0
VERTEX
8
0
10
597.752212
20
176.216814
0
VERTEX
8
0
10
610.769231
20
194.153846
0
VERTEX
8
0
10
612.769231
20
197.153846
0
VERTEX
8
0
10
636.800000
20
243.100000
0
VERTEX
8
0
10
637.200000
20
243.900000
0
VERTEX
8
0
10
643.647059
20
262.088235
0
VERTEX
8
0
10
644.000000
20
265.000000
0
SEQEND
0
POLYLINE
8
0
6
CONTINUOUS
66
1
62
7
10
0.0
20
0.0
30
0.000000
0
VERTEX
8
0
10
494.000000
20
95.000000
0
VERTEX
8
0
10
493.000000
20
95.000000
0
SEQEND
0
POLYLINE
8
0
6
CONTINUOUS
66
1
62
7
10
0.0
20
0.0
30
0.000000
0
VERTEX
8
0
10
301.000000
20
80.000000
0
VERTEX
8
0
10
302.000000
20
81.000000
0
VERTEX
8
0
10
299.352941
20
92.088235
0
VERTEX
8
0
10
298.647059
20
94.911765
0
VERTEX
8
0
10
296.000000
20
104.000000
0
VERTEX
8
0
10
296.000000
20
113.000000
0
VERTEX
8
0
10
300.200000
20
145.900000
0
VERTEX
8
0
10
309.300000
20
170.900000
0
VERTEX
8
0
10
310.352941
20
174.911765
0
VERTEX
8
0
10
311.000000
20
176.000000
0
VERTEX
8
0
10
311.000000
20
183.000000
0
VERTEX
8
0
10
309.700000
20
185.900000
0
VERTEX
8
0
10
299.752941
20
200.788235
0
VERTEX
8
0
10
294.000000
20
208.000000
0
VERTEX
8
0
10
288.100000
20
213.200000
0
VERTEX
8
0
10
287.000000
20
214.000000
0
VERTEX
8
0
10
283.000000
20
214.000000
0
VERTEX
8
0
10
276.100000
20
211.800000
0
VERTEX
8
0
10
272.900000
20
210.200000
0
VERTEX
8
0
10
264.088235
20
206.647059
0
VERTEX
8
0
10
256.088235
20
204.647059
0
VERTEX
8
0
10
255.000000
20
204.000000
0
VERTEX
8
0
10
248.000000
20
204.000000
0
VERTEX
8
0
10
244.000000
20
206.000000
0
VERTEX
8
0
10
241.800000
20
209.900000
0
VERTEX
8
0
10
241.000000
20
211.000000
0
VERTEX
8
0
10
241.000000
20
214.000000
0
VERTEX
8
0
10
245.783186
20
218.247788
0
VERTEX
8
0
10
253.216814
20
224.752212
0
VERTEX
8
0
10
258.240000
20
229.820000
0
VERTEX
8
0
10
262.769231
20
236.153846
0
VERTEX
8
0
10
267.000000
20
250.000000
0
VERTEX
8
0
10
266.000000
20
259.000000
0
VERTEX
8
0
10
265.000000
20
260.000000
0
VERTEX
8
0
10
258.000000
20
256.000000
0
VERTEX
8
0
10
248.754098
20
245.204918
0
VERTEX
8
0
10
236.000000
20
230.000000
0
VERTEX
8
0
10
230.900000
20
227.200000
0
VERTEX
8
0
10
227.846154
20
225.230769
0
VERTEX
8
0
10
219.911765
20
222.352941
0
VERTEX
8
0
10
217.088235
20
221.647059
0
VERTEX
8
0
10
178.053846
20
218.569231
0
VERTEX
8
0
10
166.100000
20
214.800000
0
VERTEX
8
0
10
143.000000
20
197.000000
0
VERTEX
8
0
10
148.240000
20
188.180000
0
VERTEX
8
0
10
150.760000
20
184.820000
0
VERTEX
8
0
10
164.248619
20
168.223757
0
VERTEX
8
0
10
172.751381
20
158.776243
0
VERTEX
8
0
10
186.000000
20
145.000000
0
VERTEX
8
0
10
201.195122
20
132.243902
0
VERTEX
8
0
10
206.195122
20
128.243902
0
VERTEX
8
0
10
227.100000
20
113.200000
0
VERTEX
8
0
10
251.900000
20
98.800000
0
VERTEX
8
0
10
270.900000
20
90.700000
0
VERTEX
8
0
10
301.000000
20
80.000000
0
SEQEND
0
POLYLINE
8
0
6
CONTINUOUS
66
1
62
7
10
0.0
20
0.0
30
0.000000
0
VERTEX
8
0
10
493.000000
20
95.000000
0
VERTEX
8
0
10
484.820000
20
101.760000
0
VERTEX
8
0
10
484.000000
20
102.000000
0
VERTEX
8
0
10
461.760000
20
129.820000
0
VERTEX
8
0
10
456.240000
20
137.180000
0
VERTEX
8
0
10
445.200000
20
171.100000
0
VERTEX
8
0
10
441.200000
20
179.100000
0
VERTEX
8
0
10
440.000000
20
182.000000
0
VERTEX
8
0
10
434.000000
20
188.000000
0
VERTEX
8
0
10
407.900000
20
210.800000
0
VERTEX
8
0
10
407.100000
20
211.200000
0
VERTEX
8
0
10
406.000000
20
212.000000
0
VERTEX
8
0
10
403.000000
20
212.000000
0
VERTEX
8
0
10
402.000000
20
211.000000
0
VERTEX
8
0
10
392.300000
20
191.900000
0
VERTEX
8
0
10
391.200000
20
188.900000
0
VERTEX
8
0
10
381.000000
20
166.000000
0
VERTEX
8
0
10
376.000000
20
163.000000
0
VERTEX
8
0
10
373.000000
20
163.000000
0
VERTEX
8
0
10
369.000000
20
165.000000
0
VERTEX
8
0
10
367.000000
20
168.000000
0
VERTEX
8
0
10
368.405405
20
177.932432
0
VERTEX
8
0
10
369.000000
20
179.000000
0
VERTEX
8
0
10
369.000000
20
203.000000
0
VERTEX
8
0
10
367.000000
20
207.000000
0
VERTEX
8
0
10
365.100000
20
208.200000
0
VERTEX
8
0
10
363.000000
20
209.000000
0
VERTEX
8
0
10
359.800000
20
203.100000
0
VERTEX
8
0
10
358.647059
20
199.088235
0
VERTEX
8
0
10
356.455172
20
186.962069
0
VERTEX
8
0
10
354.554455
20
166.044554
0
VERTEX
8
0
10
351.615385
20
149.076923
0
VERTEX
8
0
10
350.700000
20
146.100000
0
VERTEX
8
0
10
339.751381
20
133.223757
0
VERTEX
8
0
10
331.248619
20
123.776243
0
VERTEX
8
0
10
322.200000
20
111.900000
0
VERTEX
8
0
10
316.647059
20
96.088235
0
VERTEX
8
0
10
315.000000
20
91.000000
0
VERTEX
8
0
10
315.580000
20
82.940000
0
VERTEX
8
0
10
316.250000
20
76.250000
0
VERTEX
8
0
10
344.040984
20
71.450820
0
VERTEX
8
0
10
370.000000
20
69.000000
0
VERTEX
8
0
10
384.035294
20
69.541176
0
VERTEX
8
0
10
409.967005
20
71.461929
0
VERTEX
8
0
10
427.923077
20
74.384615
0
VERTEX
8
0
10
446.076923
20
78.615385
0
VERTEX
8
0
10
459.900000
20
82.200000
0
VERTEX
8
0
10
493.000000
20
95.000000
0
SEQEND
0
POLYLINE
8
0
6
CONTINUOUS
66
1
62
7
10
0.0
20
0.0
30
0.000000
0
VERTEX
8
0
10
383.000000
20
36.000000
0
VERTEX
8
0
10
420.955446
20
39.445545
0
VERTEX
8
0
10
438.911765
20
43.352941
0
VERTEX
8
0
10
452.911765
20
46.352941
0
VERTEX
8
0
10
466.100000
20
49.800000
0
VERTEX
8
0
10
494.100000
20
59.800000
0
VERTEX
8
0
10
514.900000
20
69.200000
0
VERTEX
8
0
10
534.100000
20
78.800000
0
VERTEX
8
0
10
542.820000
20
83.240000
0
VERTEX
8
0
10
546.180000
20
85.760000
0
VERTEX
8
0
10
579.000000
20
110.000000
0
VERTEX
8
0
10
615.000000
20
146.000000
0
VERTEX
8
0
10
617.760000
20
150.180000
0
VERTEX
8
0
10
640.760000
20
181.180000
0
VERTEX
8
0
10
650.800000
20
199.100000
0
VERTEX
8
0
10
660.800000
20
217.100000
0
VERTEX
8
0
10
669.300000
20
237.900000
0
VERTEX
8
0
10
677.700000
20
262.100000
0
VERTEX
8
0
10
684.594595
20
295.067568
0
VERTEX
8
0
10
685.405405
20
299.932432
0
VERTEX
8
0
10
687.538071
20
315.032995
0
VERTEX
8
0
10
688.461929
20
327.967005
0
VERTEX
8
0
10
690.000000
20
356.000000
0
VERTEX
8
0
10
686.554455
20
393.955446
0
VERTEX
8
0
10
677.647059
20
436.911765
0
VERTEX
8
0
10
660.200000
20
480.100000
0
VERTEX
8
0
10
638.760000
20
519.820000
0
VERTEX
8
0
10
611.240000
20
556.180000
0
VERTEX
8
0
10
601.000000
20
567.000000
0
VERTEX
8
0
10
572.776243
20
592.751381
0
VERTEX
8
0
10
559.846154
20
601.769231
0
VERTEX
8
0
10
552.820000
20
606.760000
0
VERTEX
8
0
10
532.900000
20
619.800000
0
VERTEX
8
0
10
490.900000
20
639.700000
0
VERTEX
8
0
10
443.076923
20
653.384615
0
VERTEX
8
0
10
437.067568
20
654.405405
0
VERTEX
8
0
10
408.250000
20
660.250000
0
VERTEX
8
0
10
407.594595
20
665.932432
0
VERTEX
8
0
10
404.800000
20
672.900000
0
VERTEX
8
0
10
401.000000
20
681.000000
0
VERTEX
8
0
10
398.204918
20
683.245902
0
VERTEX
8
0
10
392.795082
20
687.754098
0
VERTEX
8
0
10
382.911765
20
690.647059
0
VERTEX
8
0
10
376.000000
20
692.000000
0
VERTEX
8
0
10
364.100000
20
688.700000
0
VERTEX
8
0
10
356.000000
20
683.000000
0
VERTEX
8
0
10
353.000000
20
680.000000
0
VERTEX
8
0
10
351.200000
20
675.900000
0
VERTEX
8
0
10
350.800000
20
675.100000
0
VERTEX
8
0
10
347.420000
20
666.940000
0
VERTEX
8
0
10
346.750000
20
660.250000
0
VERTEX
8
0
10
313.067568
20
653.594595
0
VERTEX
8
0
10
311.923077
20
653.384615
0
VERTEX
8
0
10
264.100000
20
639.700000
0
VERTEX
8
0
10
220.900000
20
619.200000
0
VERTEX
8
0
10
198.820000
20
604.240000
0
VERTEX
8
0
10
192.846154
20
600.230769
0
VERTEX
8
0
10
182.223757
20
592.751381
0
VERTEX
8
0
10
144.000000
20
557.000000
0
VERTEX
8
0
10
141.240000
20
552.820000
0
VERTEX
8
0
10
116.240000
20
519.820000
0
VERTEX
8
0
10
93.200000
20
476.900000
0
VERTEX
8
0
10
76.647059
20
434.088235
0
VERTEX
8
0
10
68.445545
20
393.955446
0
VERTEX
8
0
10
65.000000
20
356.000000
0
VERTEX
8
0
10
67.560976
20
313.951220
0
VERTEX
8
0
10
70.405405
20
295.067568
0
VERTEX
8
0
10
77.300000
20
262.100000
0
VERTEX
8
0
10
85.700000
20
237.900000
0
VERTEX
8
0
10
94.200000
20
217.100000
0
VERTEX
8
0
10
104.800000
20
197.900000
0
VERTEX
8
0
10
114.240000
20
181.180000
0
VERTEX
8
0
10
139.760000
20
146.820000
0
VERTEX
8
0
10
176.000000
20
110.000000
0
VERTEX
8
0
10
212.180000
20
83.240000
0
VERTEX
8
0
10
224.100000
20
77.200000
0
VERTEX
8
0
10
240.900000
20
68.800000
0
VERTEX
8
0
10
262.100000
20
59.300000
0
VERTEX
8
0
10
288.900000
20
49.800000
0
VERTEX
8
0
10
309.923077
20
44.615385
0
VERTEX
8
0
10
318.911765
20
42.647059
0
VERTEX
8
0
10
343.032995
20
38.461929
0
VERTEX
8
0
10
383.000000
20
36.000000
0
SEQEND
0
ENDSEC
0
EOF
