0
SECTION
2
HEADER
9
$ACADVER
1
AC1003
9
$INSBASE
10
0.0
20
0.0
30
0.0
9
$EXTMIN
10
0.000
20
0.000
30
0.0
9
$EXTMAX
10
790.000
20
778.000
30
0.0
9
$LIMMIN
10
0.000
20
0.000
9
$LIMMAX
10
790.000
20
778.000
9
$LTSCALE
40
1.0
9
$LUNITS
70
2
9
$LUPREC
70
3
9
$LIMCHECK
70
0
9
$UCSNAME
2

9
$UCSORG
10
0.0
20
0.0
30
0.0
9
$UCSXDIR
10
1.0
20
0.0
30
0.0
9
$UCSYDIR
10
0.0
20
1.0
30
0.0
9
$WORLDVIEW
70
1
9
$UNITMODE
70
0
0
ENDSEC
0
SECTION
2
TABLES
0
TABLE
2
VPORT
70
1
0
VPORT
2
*ACTIVE
70
0
10
0.0
20
0.0
11
1.0
21
1.0
12
395.000
22
389.000
13
0.0
23
0.0
14
1.0
24
1.0
15
0.0
25
0.0
16
0.0
26
0.0
36
1.0
17
0.0
27
0.0
37
0.0
40
500.0
41
0.985
42
50.0
43
0.0
44
0.0
50
0.0
51
0.0
71
0
72
100
73
1
74
1
75
0
76
0
77
0
78
0
0
ENDTAB
0
TABLE
2
LTYPE
70
1
0
LTYPE
2
CONTINUOUS
70
64
3
Solid line
72
65
73
0
40
0.000
0
ENDTAB
0
TABLE
2
LAYER
70
1
0
LAYER
2
0
70
64
62
7
6
CONTINUOUS
0
ENDTAB
0
ENDSEC
0
SECTION
2
BLOCKS
0
ENDSEC
0
SECTION
2
ENTITIES
0
POLYLINE
8
0
6
CONTINUOUS
66
1
62
7
10
0.0
20
0.0
30
0.000000
0
VERTEX
8
0
10
397.000000
20
725.000000
0
VERTEX
8
0
10
403.000000
20
730.000000
0
VERTEX
8
0
10
403.000000
20
738.000000
0
VERTEX
8
0
10
397.000000
20
743.000000
0
VERTEX
8
0
10
391.000000
20
743.000000
0
VERTEX
8
0
10
385.800000
20
737.100000
0
VERTEX
8
0
10
385.000000
20
736.000000
0
VERTEX
8
0
10
385.000000
20
732.000000
0
VERTEX
8
0
10
390.000000
20
726.000000
0
VERTEX
8
0
10
397.000000
20
725.000000
0
SEQEND
0
POLYLINE
8
0
6
CONTINUOUS
66
1
62
7
10
0.0
20
0.0
30
0.000000
0
VERTEX
8
0
10
385.000000
20
510.000000
0
VERTEX
8
0
10
363.200000
20
465.900000
0
VERTEX
8
0
10
342.000000
20
423.000000
0
VERTEX
8
0
10
340.000000
20
421.000000
0
VERTEX
8
0
10
329.940000
20
419.420000
0
VERTEX
8
0
10
219.000000
20
403.000000
0
VERTEX
8
0
10
218.000000
20
402.000000
0
VERTEX
8
0
10
285.000000
20
337.000000
0
VERTEX
8
0
10
307.000000
20
315.000000
0
VERTEX
8
0
10
305.405405
20
305.932432
0
VERTEX
8
0
10
304.594595
20
301.067568
0
VERTEX
8
0
10
286.000000
20
193.000000
0
VERTEX
8
0
10
287.000000
20
192.000000
0
VERTEX
8
0
10
340.846154
20
220.230769
0
VERTEX
8
0
10
383.100000
20
242.800000
0
VERTEX
8
0
10
384.000000
20
243.000000
0
SEQEND
0
POLYLINE
8
0
6
CONTINUOUS
66
1
62
7
10
0.0
20
0.0
30
0.000000
0
VERTEX
8
0
10
408.000000
20
244.000000
0
VERTEX
8
0
10
447.100000
20
223.200000
0
VERTEX
8
0
10
506.000000
20
192.000000
0
VERTEX
8
0
10
507.000000
20
193.000000
0
VERTEX
8
0
10
488.594595
20
299.932432
0
VERTEX
8
0
10
488.405405
20
301.067568
0
VERTEX
8
0
10
486.000000
20
315.000000
0
VERTEX
8
0
10
575.000000
20
402.000000
0
VERTEX
8
0
10
574.000000
20
403.000000
0
VERTEX
8
0
10
468.940000
20
418.580000
0
VERTEX
8
0
10
453.000000
20
421.000000
0
VERTEX
8
0
10
451.000000
20
423.000000
0
VERTEX
8
0
10
430.300000
20
465.100000
0
VERTEX
8
0
10
408.800000
20
508.900000
0
VERTEX
8
0
10
408.000000
20
510.000000
0
SEQEND
0
POLYLINE
8
0
6
CONTINUOUS
66
1
62
7
10
0.0
20
0.0
30
0.000000
0
VERTEX
8
0
10
385.000000
20
552.000000
0
VERTEX
8
0
10
358.200000
20
496.900000
0
VERTEX
8
0
10
330.000000
20
439.000000
0
VERTEX
8
0
10
328.000000
20
437.000000
0
VERTEX
8
0
10
310.940000
20
434.420000
0
VERTEX
8
0
10
180.000000
20
415.000000
0
VERTEX
8
0
10
179.000000
20
414.000000
0
VERTEX
8
0
10
269.000000
20
327.000000
0
VERTEX
8
0
10
287.000000
20
309.000000
0
VERTEX
8
0
10
284.405405
20
293.932432
0
VERTEX
8
0
10
283.594595
20
289.067568
0
VERTEX
8
0
10
261.000000
20
160.000000
0
VERTEX
8
0
10
262.000000
20
159.000000
0
VERTEX
8
0
10
335.100000
20
196.800000
0
VERTEX
8
0
10
384.000000
20
222.000000
0
SEQEND
0
POLYLINE
8
0
6
CONTINUOUS
66
1
62
7
10
0.0
20
0.0
30
0.000000
0
VERTEX
8
0
10
408.000000
20
223.000000
0
VERTEX
8
0
10
455.100000
20
198.200000
0
VERTEX
8
0
10
531.000000
20
159.000000
0
VERTEX
8
0
10
532.000000
20
160.000000
0
VERTEX
8
0
10
509.594595
20
287.932432
0
VERTEX
8
0
10
509.405405
20
289.067568
0
VERTEX
8
0
10
506.000000
20
309.000000
0
VERTEX
8
0
10
614.000000
20
414.000000
0
VERTEX
8
0
10
613.000000
20
415.000000
0
VERTEX
8
0
10
487.940000
20
433.580000
0
VERTEX
8
0
10
465.000000
20
437.000000
0
VERTEX
8
0
10
463.000000
20
439.000000
0
VERTEX
8
0
10
435.200000
20
496.100000
0
VERTEX
8
0
10
408.000000
20
551.000000
0
SEQEND
0
POLYLINE
8
0
6
CONTINUOUS
66
1
62
7
10
0.0
20
0.0
30
0.000000
0
VERTEX
8
0
10
385.000000
20
593.000000
0
VERTEX
8
0
10
354.200000
20
529.900000
0
VERTEX
8
0
10
318.000000
20
456.000000
0
VERTEX
8
0
10
316.000000
20
454.000000
0
VERTEX
8
0
10
298.940000
20
451.420000
0
VERTEX
8
0
10
140.000000
20
428.000000
0
VERTEX
8
0
10
139.000000
20
427.000000
0
VERTEX
8
0
10
246.000000
20
323.000000
0
VERTEX
8
0
10
267.000000
20
302.000000
0
VERTEX
8
0
10
265.405405
20
292.932432
0
VERTEX
8
0
10
264.594595
20
288.067568
0
VERTEX
8
0
10
237.000000
20
127.000000
0
VERTEX
8
0
10
238.000000
20
126.000000
0
VERTEX
8
0
10
324.100000
20
170.800000
0
VERTEX
8
0
10
384.000000
20
202.000000
0
SEQEND
0
POLYLINE
8
0
6
CONTINUOUS
66
1
62
7
10
0.0
20
0.0
30
0.000000
0
VERTEX
8
0
10
408.000000
20
203.000000
0
VERTEX
8
0
10
466.100000
20
172.200000
0
VERTEX
8
0
10
555.000000
20
126.000000
0
VERTEX
8
0
10
556.000000
20
127.000000
0
VERTEX
8
0
10
528.594595
20
286.932432
0
VERTEX
8
0
10
528.405405
20
288.067568
0
VERTEX
8
0
10
526.000000
20
302.000000
0
VERTEX
8
0
10
654.000000
20
427.000000
0
VERTEX
8
0
10
653.000000
20
428.000000
0
VERTEX
8
0
10
499.940000
20
450.580000
0
VERTEX
8
0
10
477.000000
20
454.000000
0
VERTEX
8
0
10
475.000000
20
456.000000
0
VERTEX
8
0
10
439.200000
20
529.100000
0
VERTEX
8
0
10
408.000000
20
592.000000
0
SEQEND
0
POLYLINE
8
0
6
CONTINUOUS
66
1
62
7
10
0.0
20
0.0
30
0.000000
0
VERTEX
8
0
10
385.000000
20
635.000000
0
VERTEX
8
0
10
349.200000
20
561.900000
0
VERTEX
8
0
10
306.000000
20
473.000000
0
VERTEX
8
0
10
304.000000
20
471.000000
0
VERTEX
8
0
10
279.932432
20
467.405405
0
VERTEX
8
0
10
101.000000
20
441.000000
0
VERTEX
8
0
10
100.000000
20
440.000000
0
VERTEX
8
0
10
230.000000
20
314.000000
0
VERTEX
8
0
10
248.000000
20
296.000000
0
VERTEX
8
0
10
247.405405
20
292.932432
0
VERTEX
8
0
10
246.594595
20
288.067568
0
VERTEX
8
0
10
213.000000
20
93.000000
0
VERTEX
8
0
10
214.000000
20
92.000000
0
VERTEX
8
0
10
311.100000
20
142.800000
0
VERTEX
8
0
10
384.000000
20
181.000000
0
SEQEND
0
POLYLINE
8
0
6
CONTINUOUS
66
1
62
7
10
0.0
20
0.0
30
0.000000
0
VERTEX
8
0
10
408.000000
20
182.000000
0
VERTEX
8
0
10
479.100000
20
144.200000
0
VERTEX
8
0
10
579.000000
20
92.000000
0
VERTEX
8
0
10
580.000000
20
93.000000
0
VERTEX
8
0
10
546.594595
20
286.932432
0
VERTEX
8
0
10
546.405405
20
288.067568
0
VERTEX
8
0
10
545.000000
20
296.000000
0
VERTEX
8
0
10
693.000000
20
440.000000
0
VERTEX
8
0
10
692.000000
20
441.000000
0
VERTEX
8
0
10
517.932432
20
466.594595
0
VERTEX
8
0
10
489.000000
20
471.000000
0
VERTEX
8
0
10
487.000000
20
473.000000
0
VERTEX
8
0
10
444.200000
20
561.100000
0
VERTEX
8
0
10
408.000000
20
634.000000
0
SEQEND
0
POLYLINE
8
0
6
CONTINUOUS
66
1
62
7
10
0.0
20
0.0
30
0.000000
0
VERTEX
8
0
10
385.000000
20
676.000000
0
VERTEX
8
0
10
346.200000
20
597.900000
0
VERTEX
8
0
10
293.000000
20
490.000000
0
VERTEX
8
0
10
291.000000
20
488.000000
0
VERTEX
8
0
10
273.932432
20
485.405405
0
VERTEX
8
0
10
62.000000
20
454.000000
0
VERTEX
8
0
10
61.000000
20
453.000000
0
VERTEX
8
0
10
200.000000
20
317.000000
0
VERTEX
8
0
10
228.000000
20
289.000000
0
VERTEX
8
0
10
225.405405
20
273.932432
0
VERTEX
8
0
10
224.594595
20
269.067568
0
VERTEX
8
0
10
188.000000
20
60.000000
0
VERTEX
8
0
10
189.000000
20
59.000000
0
VERTEX
8
0
10
306.100000
20
119.800000
0
VERTEX
8
0
10
384.000000
20
160.000000
0
SEQEND
0
POLYLINE
8
0
6
CONTINUOUS
66
1
62
7
10
0.0
20
0.0
30
0.000000
0
VERTEX
8
0
10
408.000000
20
161.000000
0
VERTEX
8
0
10
484.100000
20
121.200000
0
VERTEX
8
0
10
604.000000
20
59.000000
0
VERTEX
8
0
10
605.000000
20
60.000000
0
VERTEX
8
0
10
568.615385
20
267.923077
0
VERTEX
8
0
10
568.405405
20
269.067568
0
VERTEX
8
0
10
565.000000
20
289.000000
0
VERTEX
8
0
10
732.000000
20
453.000000
0
VERTEX
8
0
10
731.000000
20
454.000000
0
VERTEX
8
0
10
523.932432
20
484.594595
0
VERTEX
8
0
10
502.000000
20
488.000000
0
VERTEX
8
0
10
500.000000
20
490.000000
0
VERTEX
8
0
10
447.200000
20
597.100000
0
VERTEX
8
0
10
408.000000
20
675.000000
0
SEQEND
0
POLYLINE
8
0
6
CONTINUOUS
66
1
62
7
10
0.0
20
0.0
30
0.000000
0
VERTEX
8
0
10
628.000000
20
25.000000
0
VERTEX
8
0
10
628.500000
20
26.000000
0
VERTEX
8
0
10
623.594595
20
55.932432
0
VERTEX
8
0
10
623.405405
20
57.067568
0
VERTEX
8
0
10
585.000000
20
283.000000
0
VERTEX
8
0
10
772.000000
20
465.000000
0
VERTEX
8
0
10
771.000000
20
466.000000
0
VERTEX
8
0
10
624.932432
20
487.594595
0
VERTEX
8
0
10
514.000000
20
504.000000
0
VERTEX
8
0
10
512.000000
20
506.000000
0
VERTEX
8
0
10
496.200000
20
538.100000
0
VERTEX
8
0
10
479.200000
20
573.100000
0
VERTEX
8
0
10
414.000000
20
705.000000
0
VERTEX
8
0
10
421.230769
20
712.846154
0
VERTEX
8
0
10
428.000000
20
726.000000
0
VERTEX
8
0
10
428.000000
20
737.000000
0
VERTEX
8
0
10
426.615385
20
741.923077
0
VERTEX
8
0
10
423.769231
20
747.846154
0
VERTEX
8
0
10
421.000000
20
753.000000
0
VERTEX
8
0
10
409.900000
20
760.800000
0
VERTEX
8
0
10
404.100000
20
763.300000
0
VERTEX
8
0
10
403.000000
20
764.000000
0
VERTEX
8
0
10
390.000000
20
764.000000
0
VERTEX
8
0
10
387.100000
20
762.700000
0
VERTEX
8
0
10
378.180000
20
757.760000
0
VERTEX
8
0
10
371.000000
20
752.000000
0
VERTEX
8
0
10
366.352941
20
741.911765
0
VERTEX
8
0
10
365.647059
20
739.088235
0
VERTEX
8
0
10
365.000000
20
738.000000
0
VERTEX
8
0
10
365.000000
20
726.000000
0
VERTEX
8
0
10
369.230769
20
716.153846
0
VERTEX
8
0
10
379.000000
20
705.000000
0
VERTEX
8
0
10
329.200000
20
603.900000
0
VERTEX
8
0
10
293.200000
20
530.900000
0
VERTEX
8
0
10
281.000000
20
506.000000
0
VERTEX
8
0
10
279.000000
20
504.000000
0
VERTEX
8
0
10
248.940000
20
499.420000
0
VERTEX
8
0
10
22.000000
20
466.000000
0
VERTEX
8
0
10
21.000000
20
465.000000
0
VERTEX
8
0
10
190.000000
20
301.000000
0
VERTEX
8
0
10
208.000000
20
283.000000
0
VERTEX
8
0
10
188.405405
20
167.932432
0
VERTEX
8
0
10
167.594595
20
45.067568
0
VERTEX
8
0
10
164.000000
20
26.000000
0
VERTEX
8
0
10
165.000000
20
25.000000
0
VERTEX
8
0
10
204.846154
20
45.230769
0
VERTEX
8
0
10
207.900000
20
47.200000
0
VERTEX
8
0
10
397.000000
20
145.500000
0
VERTEX
8
0
10
628.000000
20
25.000000
0
SEQEND
0
ENDSEC
0
EOF
