0
SECTION
2
HEADER
9
$ACADVER
1
AC1003
9
$INSBASE
10
0.0
20
0.0
30
0.0
9
$EXTMIN
10
0.000
20
0.000
30
0.0
9
$EXTMAX
10
785.000
20
782.000
30
0.0
9
$LIMMIN
10
0.000
20
0.000
9
$LIMMAX
10
785.000
20
782.000
9
$LTSCALE
40
1.0
9
$LUNITS
70
2
9
$LUPREC
70
3
9
$LIMCHECK
70
0
9
$UCSNAME
2

9
$UCSORG
10
0.0
20
0.0
30
0.0
9
$UCSXDIR
10
1.0
20
0.0
30
0.0
9
$UCSYDIR
10
0.0
20
1.0
30
0.0
9
$WORLDVIEW
70
1
9
$UNITMODE
70
0
0
ENDSEC
0
SECTION
2
TABLES
0
TABLE
2
VPORT
70
1
0
VPORT
2
*ACTIVE
70
0
10
0.0
20
0.0
11
1.0
21
1.0
12
392.500
22
391.000
13
0.0
23
0.0
14
1.0
24
1.0
15
0.0
25
0.0
16
0.0
26
0.0
36
1.0
17
0.0
27
0.0
37
0.0
40
500.0
41
0.996
42
50.0
43
0.0
44
0.0
50
0.0
51
0.0
71
0
72
100
73
1
74
1
75
0
76
0
77
0
78
0
0
ENDTAB
0
TABLE
2
LTYPE
70
1
0
LTYPE
2
CONTINUOUS
70
64
3
Solid line
72
65
73
0
40
0.000
0
ENDTAB
0
TABLE
2
LAYER
70
1
0
LAYER
2
0
70
64
62
7
6
CONTINUOUS
0
ENDTAB
0
ENDSEC
0
SECTION
2
BLOCKS
0
ENDSEC
0
SECTION
2
ENTITIES
0
POLYLINE
8
0
6
CONTINUOUS
66
1
62
7
10
0.0
20
0.0
30
0.000000
0
VERTEX
8
0
10
396.000000
20
710.000000
0
VERTEX
8
0
10
399.000000
20
711.000000
0
VERTEX
8
0
10
404.000000
20
716.000000
0
VERTEX
8
0
10
405.000000
20
723.000000
0
VERTEX
8
0
10
403.600000
20
725.800000
0
VERTEX
8
0
10
402.000000
20
729.000000
0
VERTEX
8
0
10
400.153846
20
730.230769
0
VERTEX
8
0
10
398.000000
20
732.000000
0
VERTEX
8
0
10
390.000000
20
732.000000
0
VERTEX
8
0
10
385.000000
20
728.000000
0
VERTEX
8
0
10
384.800000
20
727.100000
0
VERTEX
8
0
10
383.000000
20
723.000000
0
VERTEX
8
0
10
383.000000
20
719.000000
0
VERTEX
8
0
10
386.000000
20
713.000000
0
VERTEX
8
0
10
386.846154
20
712.769231
0
VERTEX
8
0
10
392.076923
20
710.384615
0
VERTEX
8
0
10
396.000000
20
710.000000
0
SEQEND
0
POLYLINE
8
0
6
CONTINUOUS
66
1
62
7
10
0.0
20
0.0
30
0.000000
0
VERTEX
8
0
10
675.000000
20
506.000000
0
VERTEX
8
0
10
676.000000
20
507.000000
0
VERTEX
8
0
10
676.000000
20
510.000000
0
VERTEX
8
0
10
673.800000
20
514.900000
0
VERTEX
8
0
10
673.200000
20
516.100000
0
VERTEX
8
0
10
663.240000
20
531.180000
0
VERTEX
8
0
10
659.000000
20
538.000000
0
VERTEX
8
0
10
638.000000
20
559.000000
0
VERTEX
8
0
10
620.900000
20
570.800000
0
VERTEX
8
0
10
612.100000
20
574.300000
0
VERTEX
8
0
10
598.911765
20
578.647059
0
VERTEX
8
0
10
583.076923
20
582.384615
0
VERTEX
8
0
10
575.990392
20
583.509992
0
VERTEX
8
0
10
526.009608
20
584.490008
0
VERTEX
8
0
10
505.076923
20
588.384615
0
VERTEX
8
0
10
504.000000
20
589.000000
0
VERTEX
8
0
10
494.000000
20
589.000000
0
VERTEX
8
0
10
473.088235
20
583.647059
0
VERTEX
8
0
10
457.100000
20
575.800000
0
VERTEX
8
0
10
449.900000
20
572.200000
0
VERTEX
8
0
10
443.000000
20
568.000000
0
VERTEX
8
0
10
442.760000
20
567.180000
0
VERTEX
8
0
10
434.000000
20
556.000000
0
VERTEX
8
0
10
435.000000
20
555.000000
0
VERTEX
8
0
10
451.067568
20
552.405405
0
VERTEX
8
0
10
457.076923
20
551.384615
0
VERTEX
8
0
10
490.900000
20
542.700000
0
VERTEX
8
0
10
492.000000
20
542.000000
0
VERTEX
8
0
10
497.000000
20
542.000000
0
VERTEX
8
0
10
526.911765
20
550.352941
0
VERTEX
8
0
10
531.000000
20
551.000000
0
VERTEX
8
0
10
536.900000
20
548.700000
0
VERTEX
8
0
10
539.000000
20
548.000000
0
VERTEX
8
0
10
541.230769
20
544.153846
0
VERTEX
8
0
10
548.000000
20
533.000000
0
VERTEX
8
0
10
549.900000
20
531.800000
0
VERTEX
8
0
10
551.900000
20
530.800000
0
VERTEX
8
0
10
561.000000
20
528.000000
0
VERTEX
8
0
10
599.000000
20
528.000000
0
VERTEX
8
0
10
600.000000
20
529.000000
0
VERTEX
8
0
10
613.060000
20
528.420000
0
VERTEX
8
0
10
634.911765
20
523.647059
0
VERTEX
8
0
10
653.100000
20
516.200000
0
VERTEX
8
0
10
653.900000
20
515.800000
0
VERTEX
8
0
10
673.100000
20
506.300000
0
VERTEX
8
0
10
675.000000
20
506.000000
0
SEQEND
0
POLYLINE
8
0
6
CONTINUOUS
66
1
62
7
10
0.0
20
0.0
30
0.000000
0
VERTEX
8
0
10
390.000000
20
475.000000
0
VERTEX
8
0
10
388.000000
20
476.000000
0
SEQEND
0
POLYLINE
8
0
6
CONTINUOUS
66
1
62
7
10
0.0
20
0.0
30
0.000000
0
VERTEX
8
0
10
472.000000
20
461.000000
0
VERTEX
8
0
10
474.000000
20
462.000000
0
VERTEX
8
0
10
475.000000
20
463.000000
0
VERTEX
8
0
10
474.513141
20
500.987516
0
VERTEX
8
0
10
472.594595
20
513.932432
0
VERTEX
8
0
10
469.760000
20
520.820000
0
VERTEX
8
0
10
464.000000
20
528.000000
0
VERTEX
8
0
10
459.820000
20
530.760000
0
VERTEX
8
0
10
448.000000
20
538.000000
0
VERTEX
8
0
10
434.000000
20
538.000000
0
VERTEX
8
0
10
428.000000
20
535.000000
0
VERTEX
8
0
10
427.000000
20
534.000000
0
VERTEX
8
0
10
427.000000
20
493.000000
0
VERTEX
8
0
10
428.000000
20
492.000000
0
VERTEX
8
0
10
469.100000
20
462.200000
0
VERTEX
8
0
10
472.000000
20
461.000000
0
SEQEND
0
POLYLINE
8
0
6
CONTINUOUS
66
1
62
7
10
0.0
20
0.0
30
0.000000
0
VERTEX
8
0
10
529.000000
20
417.000000
0
VERTEX
8
0
10
530.000000
20
418.000000
0
VERTEX
8
0
10
529.468966
20
432.027586
0
VERTEX
8
0
10
528.531034
20
447.972414
0
VERTEX
8
0
10
526.800000
20
454.900000
0
VERTEX
8
0
10
525.200000
20
459.100000
0
VERTEX
8
0
10
519.000000
20
469.000000
0
VERTEX
8
0
10
514.000000
20
474.000000
0
VERTEX
8
0
10
509.735294
20
476.558824
0
VERTEX
8
0
10
499.000000
20
480.000000
0
VERTEX
8
0
10
498.000000
20
480.000000
0
VERTEX
8
0
10
496.000000
20
478.000000
0
VERTEX
8
0
10
495.300000
20
475.900000
0
VERTEX
8
0
10
494.700000
20
474.100000
0
VERTEX
8
0
10
493.000000
20
471.000000
0
VERTEX
8
0
10
493.000000
20
457.000000
0
VERTEX
8
0
10
494.420000
20
450.060000
0
VERTEX
8
0
10
496.800000
20
444.900000
0
VERTEX
8
0
10
501.000000
20
439.000000
0
VERTEX
8
0
10
507.000000
20
433.000000
0
VERTEX
8
0
10
529.000000
20
417.000000
0
SEQEND
0
POLYLINE
8
0
6
CONTINUOUS
66
1
62
7
10
0.0
20
0.0
30
0.000000
0
VERTEX
8
0
10
708.000000
20
417.000000
0
VERTEX
8
0
10
706.580000
20
433.940000
0
VERTEX
8
0
10
701.800000
20
443.900000
0
VERTEX
8
0
10
700.200000
20
447.100000
0
VERTEX
8
0
10
695.760000
20
455.820000
0
VERTEX
8
0
10
688.760000
20
465.820000
0
VERTEX
8
0
10
681.000000
20
476.000000
0
VERTEX
8
0
10
668.100000
20
485.200000
0
VERTEX
8
0
10
634.100000
20
501.200000
0
VERTEX
8
0
10
626.088235
20
503.352941
0
VERTEX
8
0
10
608.000000
20
507.000000
0
VERTEX
8
0
10
590.000000
20
505.000000
0
VERTEX
8
0
10
564.088235
20
511.352941
0
VERTEX
8
0
10
550.000000
20
515.000000
0
VERTEX
8
0
10
541.000000
20
515.000000
0
VERTEX
8
0
10
528.911765
20
511.352941
0
VERTEX
8
0
10
518.900000
20
507.200000
0
VERTEX
8
0
10
514.820000
20
504.240000
0
VERTEX
8
0
10
508.000000
20
498.000000
0
VERTEX
8
0
10
508.000000
20
497.000000
0
VERTEX
8
0
10
519.900000
20
489.800000
0
VERTEX
8
0
10
526.100000
20
486.200000
0
VERTEX
8
0
10
544.900000
20
475.800000
0
VERTEX
8
0
10
552.911765
20
473.647059
0
VERTEX
8
0
10
554.000000
20
473.000000
0
VERTEX
8
0
10
563.000000
20
473.000000
0
VERTEX
8
0
10
579.932432
20
475.405405
0
VERTEX
8
0
10
586.000000
20
476.000000
0
VERTEX
8
0
10
589.100000
20
474.200000
0
VERTEX
8
0
10
592.000000
20
473.000000
0
VERTEX
8
0
10
603.000000
20
462.000000
0
VERTEX
8
0
10
605.760000
20
457.820000
0
VERTEX
8
0
10
611.000000
20
452.000000
0
VERTEX
8
0
10
617.100000
20
449.300000
0
VERTEX
8
0
10
642.076923
20
443.384615
0
VERTEX
8
0
10
655.923077
20
440.615385
0
VERTEX
8
0
10
677.900000
20
434.700000
0
VERTEX
8
0
10
687.100000
20
430.200000
0
VERTEX
8
0
10
698.195122
20
422.243902
0
VERTEX
8
0
10
698.820000
20
421.760000
0
VERTEX
8
0
10
706.100000
20
417.200000
0
VERTEX
8
0
10
708.000000
20
417.000000
0
SEQEND
0
POLYLINE
8
0
6
CONTINUOUS
66
1
62
7
10
0.0
20
0.0
30
0.000000
0
VERTEX
8
0
10
572.000000
20
375.000000
0
VERTEX
8
0
10
576.000000
20
394.000000
0
VERTEX
8
0
10
576.000000
20
398.000000
0
VERTEX
8
0
10
572.800000
20
404.900000
0
VERTEX
8
0
10
572.200000
20
406.100000
0
VERTEX
8
0
10
565.000000
20
414.000000
0
VERTEX
8
0
10
561.846154
20
415.769231
0
VERTEX
8
0
10
558.100000
20
418.200000
0
VERTEX
8
0
10
546.000000
20
423.000000
0
VERTEX
8
0
10
544.000000
20
421.000000
0
VERTEX
8
0
10
543.000000
20
416.000000
0
VERTEX
8
0
10
543.647059
20
409.911765
0
VERTEX
8
0
10
544.700000
20
405.900000
0
VERTEX
8
0
10
548.245902
20
398.204918
0
VERTEX
8
0
10
553.000000
20
392.000000
0
VERTEX
8
0
10
570.900000
20
375.800000
0
VERTEX
8
0
10
572.000000
20
375.000000
0
SEQEND
0
POLYLINE
8
0
6
CONTINUOUS
66
1
62
7
10
0.0
20
0.0
30
0.000000
0
VERTEX
8
0
10
711.000000
20
362.000000
0
VERTEX
8
0
10
714.411765
20
366.352941
0
VERTEX
8
0
10
707.700000
20
386.900000
0
VERTEX
8
0
10
707.200000
20
388.100000
0
VERTEX
8
0
10
700.000000
20
398.000000
0
VERTEX
8
0
10
695.000000
20
403.000000
0
VERTEX
8
0
10
676.900000
20
411.800000
0
VERTEX
8
0
10
657.100000
20
419.300000
0
VERTEX
8
0
10
631.088235
20
426.352941
0
VERTEX
8
0
10
620.153846
20
431.230769
0
VERTEX
8
0
10
605.100000
20
439.200000
0
VERTEX
8
0
10
591.088235
20
443.352941
0
VERTEX
8
0
10
587.088235
20
444.352941
0
VERTEX
8
0
10
586.000000
20
445.000000
0
VERTEX
8
0
10
577.000000
20
445.000000
0
VERTEX
8
0
10
568.048780
20
443.560976
0
VERTEX
8
0
10
564.180000
20
441.760000
0
VERTEX
8
0
10
560.000000
20
439.000000
0
VERTEX
8
0
10
557.000000
20
436.000000
0
VERTEX
8
0
10
557.000000
20
435.000000
0
VERTEX
8
0
10
559.000000
20
433.000000
0
VERTEX
8
0
10
577.100000
20
426.200000
0
VERTEX
8
0
10
603.180000
20
407.240000
0
VERTEX
8
0
10
611.900000
20
401.700000
0
VERTEX
8
0
10
620.923077
20
399.615385
0
VERTEX
8
0
10
626.037931
20
398.455172
0
VERTEX
8
0
10
637.000000
20
398.000000
0
VERTEX
8
0
10
647.773756
20
387.751131
0
VERTEX
8
0
10
658.226244
20
378.248869
0
VERTEX
8
0
10
700.100000
20
367.300000
0
VERTEX
8
0
10
711.000000
20
362.000000
0
SEQEND
0
POLYLINE
8
0
6
CONTINUOUS
66
1
62
7
10
0.0
20
0.0
30
0.000000
0
VERTEX
8
0
10
390.000000
20
475.000000
0
VERTEX
8
0
10
419.153846
20
454.230769
0
VERTEX
8
0
10
487.820000
20
403.760000
0
VERTEX
8
0
10
529.795082
20
370.754098
0
VERTEX
8
0
10
581.000000
20
328.000000
0
VERTEX
8
0
10
582.000000
20
329.000000
0
VERTEX
8
0
10
584.000000
20
348.000000
0
VERTEX
8
0
10
577.000000
20
355.000000
0
VERTEX
8
0
10
506.788235
20
416.752941
0
VERTEX
8
0
10
483.788235
20
436.752941
0
VERTEX
8
0
10
449.846154
20
462.769231
0
VERTEX
8
0
10
432.180000
20
475.240000
0
VERTEX
8
0
10
424.000000
20
481.000000
0
VERTEX
8
0
10
420.900000
20
480.300000
0
VERTEX
8
0
10
407.973846
20
476.470769
0
VERTEX
8
0
10
390.000000
20
475.000000
0
SEQEND
0
POLYLINE
8
0
6
CONTINUOUS
66
1
62
7
10
0.0
20
0.0
30
0.000000
0
VERTEX
8
0
10
253.000000
20
282.000000
0
VERTEX
8
0
10
256.000000
20
291.000000
0
VERTEX
8
0
10
256.000000
20
296.000000
0
VERTEX
8
0
10
251.405405
20
318.067568
0
VERTEX
8
0
10
247.594595
20
340.932432
0
VERTEX
8
0
10
235.300000
20
390.100000
0
VERTEX
8
0
10
223.647059
20
429.911765
0
VERTEX
8
0
10
217.800000
20
446.900000
0
VERTEX
8
0
10
207.700000
20
472.900000
0
VERTEX
8
0
10
192.800000
20
503.900000
0
VERTEX
8
0
10
183.000000
20
523.000000
0
VERTEX
8
0
10
171.615385
20
466.076923
0
VERTEX
8
0
10
170.000000
20
456.000000
0
VERTEX
8
0
10
208.200000
20
388.100000
0
VERTEX
8
0
10
210.200000
20
384.100000
0
VERTEX
8
0
10
218.700000
20
367.900000
0
VERTEX
8
0
10
226.700000
20
348.900000
0
VERTEX
8
0
10
244.300000
20
305.100000
0
VERTEX
8
0
10
244.700000
20
303.900000
0
VERTEX
8
0
10
252.200000
20
283.100000
0
VERTEX
8
0
10
253.000000
20
282.000000
0
SEQEND
0
POLYLINE
8
0
6
CONTINUOUS
66
1
62
7
10
0.0
20
0.0
30
0.000000
0
VERTEX
8
0
10
93.000000
20
268.000000
0
VERTEX
8
0
10
94.900000
20
269.200000
0
VERTEX
8
0
10
111.000000
20
279.000000
0
VERTEX
8
0
10
112.000000
20
281.000000
0
VERTEX
8
0
10
110.405405
20
291.067568
0
VERTEX
8
0
10
109.594595
20
295.932432
0
VERTEX
8
0
10
102.470769
20
339.026154
0
VERTEX
8
0
10
101.529231
20
355.973846
0
VERTEX
8
0
10
101.000000
20
382.000000
0
VERTEX
8
0
10
108.594595
20
433.067568
0
VERTEX
8
0
10
109.405405
20
437.932432
0
VERTEX
8
0
10
112.300000
20
447.900000
0
VERTEX
8
0
10
119.700000
20
470.100000
0
VERTEX
8
0
10
125.800000
20
484.100000
0
VERTEX
8
0
10
126.800000
20
486.100000
0
VERTEX
8
0
10
140.230769
20
511.846154
0
VERTEX
8
0
10
143.769231
20
517.153846
0
VERTEX
8
0
10
157.245902
20
537.795082
0
VERTEX
8
0
10
166.754098
20
549.204918
0
VERTEX
8
0
10
177.000000
20
562.000000
0
VERTEX
8
0
10
208.233888
20
591.750520
0
VERTEX
8
0
10
228.180000
20
606.760000
0
VERTEX
8
0
10
243.153846
20
616.769231
0
VERTEX
8
0
10
277.100000
20
635.800000
0
VERTEX
8
0
10
279.100000
20
636.700000
0
VERTEX
8
0
10
326.088235
20
650.647059
0
VERTEX
8
0
10
328.911765
20
651.352941
0
VERTEX
8
0
10
384.000000
20
658.000000
0
VERTEX
8
0
10
399.000000
20
658.000000
0
VERTEX
8
0
10
433.940000
20
653.580000
0
VERTEX
8
0
10
464.911765
20
646.647059
0
VERTEX
8
0
10
479.911765
20
642.647059
0
VERTEX
8
0
10
501.900000
20
634.800000
0
VERTEX
8
0
10
522.900000
20
624.800000
0
VERTEX
8
0
10
562.088235
20
602.352941
0
VERTEX
8
0
10
568.911765
20
600.647059
0
VERTEX
8
0
10
574.019169
20
599.479233
0
VERTEX
8
0
10
598.000000
20
599.000000
0
VERTEX
8
0
10
599.000000
20
600.000000
0
VERTEX
8
0
10
595.230769
20
606.153846
0
VERTEX
8
0
10
591.000000
20
611.000000
0
VERTEX
8
0
10
583.846154
20
615.769231
0
VERTEX
8
0
10
579.820000
20
618.760000
0
VERTEX
8
0
10
554.100000
20
636.200000
0
VERTEX
8
0
10
526.100000
20
651.200000
0
VERTEX
8
0
10
490.911765
20
665.647059
0
VERTEX
8
0
10
477.100000
20
669.300000
0
VERTEX
8
0
10
448.932432
20
675.594595
0
VERTEX
8
0
10
426.067568
20
679.405405
0
VERTEX
8
0
10
393.000000
20
682.000000
0
VERTEX
8
0
10
357.000000
20
682.000000
0
VERTEX
8
0
10
337.060000
20
678.580000
0
VERTEX
8
0
10
335.932432
20
678.405405
0
VERTEX
8
0
10
311.088235
20
672.647059
0
VERTEX
8
0
10
298.100000
20
668.700000
0
VERTEX
8
0
10
260.100000
20
653.700000
0
VERTEX
8
0
10
233.100000
20
639.800000
0
VERTEX
8
0
10
202.195122
20
619.756098
0
VERTEX
8
0
10
197.804878
20
616.243902
0
VERTEX
8
0
10
178.000000
20
600.000000
0
VERTEX
8
0
10
169.000000
20
591.000000
0
VERTEX
8
0
10
143.760000
20
561.180000
0
VERTEX
8
0
10
129.240000
20
541.820000
0
VERTEX
8
0
10
116.200000
20
519.900000
0
VERTEX
8
0
10
101.700000
20
491.100000
0
VERTEX
8
0
10
89.352941
20
458.911765
0
VERTEX
8
0
10
84.647059
20
440.088235
0
VERTEX
8
0
10
76.594595
20
395.067568
0
VERTEX
8
0
10
73.000000
20
371.000000
0
VERTEX
8
0
10
73.000000
20
356.000000
0
VERTEX
8
0
10
76.430769
20
332.053846
0
VERTEX
8
0
10
79.384615
20
317.076923
0
VERTEX
8
0
10
89.700000
20
274.900000
0
VERTEX
8
0
10
93.000000
20
268.000000
0
SEQEND
0
POLYLINE
8
0
6
CONTINUOUS
66
1
62
7
10
0.0
20
0.0
30
0.000000
0
VERTEX
8
0
10
691.000000
20
266.000000
0
VERTEX
8
0
10
694.756098
20
270.195122
0
VERTEX
8
0
10
698.647059
20
279.088235
0
VERTEX
8
0
10
699.352941
20
281.911765
0
VERTEX
8
0
10
709.000000
20
328.000000
0
VERTEX
8
0
10
709.000000
20
339.000000
0
VERTEX
8
0
10
708.200000
20
340.100000
0
VERTEX
8
0
10
705.000000
20
346.000000
0
VERTEX
8
0
10
697.000000
20
354.000000
0
VERTEX
8
0
10
694.911765
20
354.647059
0
VERTEX
8
0
10
686.000000
20
356.000000
0
VERTEX
8
0
10
685.250000
20
355.750000
0
VERTEX
8
0
10
680.560976
20
315.048780
0
VERTEX
8
0
10
680.420000
20
313.940000
0
VERTEX
8
0
10
673.800000
20
281.900000
0
VERTEX
8
0
10
680.000000
20
273.000000
0
VERTEX
8
0
10
684.000000
20
269.000000
0
VERTEX
8
0
10
686.100000
20
268.200000
0
VERTEX
8
0
10
691.000000
20
266.000000
0
SEQEND
0
POLYLINE
8
0
6
CONTINUOUS
66
1
62
7
10
0.0
20
0.0
30
0.000000
0
VERTEX
8
0
10
603.000000
20
263.000000
0
VERTEX
8
0
10
612.100000
20
265.800000
0
VERTEX
8
0
10
616.000000
20
267.000000
0
VERTEX
8
0
10
618.000000
20
269.000000
0
VERTEX
8
0
10
578.240912
20
307.249835
0
VERTEX
8
0
10
550.759088
20
333.750165
0
VERTEX
8
0
10
505.788235
20
372.752941
0
VERTEX
8
0
10
468.820000
20
402.760000
0
VERTEX
8
0
10
404.153846
20
449.230769
0
VERTEX
8
0
10
348.846154
20
483.769231
0
VERTEX
8
0
10
304.900000
20
506.800000
0
VERTEX
8
0
10
300.900000
20
508.800000
0
VERTEX
8
0
10
271.100000
20
522.300000
0
VERTEX
8
0
10
264.900000
20
524.700000
0
VERTEX
8
0
10
199.911765
20
547.647059
0
VERTEX
8
0
10
195.900000
20
548.700000
0
VERTEX
8
0
10
188.000000
20
551.000000
0
VERTEX
8
0
10
185.000000
20
547.000000
0
VERTEX
8
0
10
199.769231
20
523.846154
0
VERTEX
8
0
10
206.200000
20
513.100000
0
VERTEX
8
0
10
226.700000
20
469.900000
0
VERTEX
8
0
10
230.200000
20
460.100000
0
VERTEX
8
0
10
247.647059
20
407.911765
0
VERTEX
8
0
10
251.352941
20
393.088235
0
VERTEX
8
0
10
264.594595
20
327.932432
0
VERTEX
8
0
10
266.594595
20
315.932432
0
VERTEX
8
0
10
271.000000
20
289.000000
0
VERTEX
8
0
10
281.900000
20
279.800000
0
VERTEX
8
0
10
298.088235
20
272.352941
0
VERTEX
8
0
10
313.923077
20
268.615385
0
VERTEX
8
0
10
321.000000
20
267.000000
0
VERTEX
8
0
10
330.000000
20
267.000000
0
VERTEX
8
0
10
351.923077
20
270.384615
0
VERTEX
8
0
10
353.100000
20
270.800000
0
VERTEX
8
0
10
381.100000
20
283.800000
0
VERTEX
8
0
10
393.000000
20
290.500000
0
VERTEX
8
0
10
397.846154
20
287.769231
0
VERTEX
8
0
10
410.153846
20
280.230769
0
VERTEX
8
0
10
424.100000
20
274.300000
0
VERTEX
8
0
10
430.900000
20
271.700000
0
VERTEX
8
0
10
446.000000
20
266.000000
0
VERTEX
8
0
10
464.000000
20
266.000000
0
VERTEX
8
0
10
471.911765
20
268.352941
0
VERTEX
8
0
10
473.088235
20
268.647059
0
VERTEX
8
0
10
492.100000
20
274.700000
0
VERTEX
8
0
10
495.900000
20
276.200000
0
VERTEX
8
0
10
518.000000
20
292.000000
0
VERTEX
8
0
10
521.000000
20
292.000000
0
VERTEX
8
0
10
523.820000
20
289.760000
0
VERTEX
8
0
10
527.180000
20
287.240000
0
VERTEX
8
0
10
551.100000
20
272.200000
0
VERTEX
8
0
10
556.100000
20
270.200000
0
VERTEX
8
0
10
572.040984
20
264.450820
0
VERTEX
8
0
10
581.959016
20
263.549180
0
VERTEX
8
0
10
603.000000
20
263.000000
0
SEQEND
0
POLYLINE
8
0
6
CONTINUOUS
66
1
62
7
10
0.0
20
0.0
30
0.000000
0
VERTEX
8
0
10
337.000000
20
171.000000
0
VERTEX
8
0
10
359.100000
20
176.700000
0
VERTEX
8
0
10
371.900000
20
181.200000
0
VERTEX
8
0
10
383.900000
20
187.200000
0
VERTEX
8
0
10
395.000000
20
193.000000
0
VERTEX
8
0
10
405.100000
20
189.300000
0
VERTEX
8
0
10
430.088235
20
180.352941
0
VERTEX
8
0
10
443.911765
20
176.647059
0
VERTEX
8
0
10
455.000000
20
175.000000
0
VERTEX
8
0
10
478.000000
20
175.000000
0
VERTEX
8
0
10
519.900000
20
189.300000
0
VERTEX
8
0
10
521.000000
20
190.000000
0
VERTEX
8
0
10
542.100000
20
182.300000
0
VERTEX
8
0
10
561.100000
20
176.300000
0
VERTEX
8
0
10
579.000000
20
173.000000
0
VERTEX
8
0
10
601.000000
20
173.000000
0
VERTEX
8
0
10
617.900000
20
178.300000
0
VERTEX
8
0
10
619.100000
20
178.700000
0
VERTEX
8
0
10
648.820000
20
192.240000
0
VERTEX
8
0
10
652.180000
20
194.760000
0
VERTEX
8
0
10
669.000000
20
211.000000
0
VERTEX
8
0
10
671.769231
20
216.153846
0
VERTEX
8
0
10
673.769231
20
219.153846
0
VERTEX
8
0
10
681.700000
20
236.100000
0
VERTEX
8
0
10
686.000000
20
245.000000
0
VERTEX
8
0
10
679.180000
20
249.240000
0
VERTEX
8
0
10
656.100000
20
265.200000
0
VERTEX
8
0
10
648.180000
20
260.760000
0
VERTEX
8
0
10
644.820000
20
258.240000
0
VERTEX
8
0
10
627.900000
20
247.200000
0
VERTEX
8
0
10
627.100000
20
246.800000
0
VERTEX
8
0
10
614.911765
20
241.352941
0
VERTEX
8
0
10
608.088235
20
239.647059
0
VERTEX
8
0
10
598.000000
20
237.000000
0
VERTEX
8
0
10
580.000000
20
237.000000
0
VERTEX
8
0
10
572.053846
20
238.430769
0
VERTEX
8
0
10
562.100000
20
241.200000
0
VERTEX
8
0
10
551.100000
20
246.200000
0
VERTEX
8
0
10
520.600000
20
267.800000
0
VERTEX
8
0
10
498.820000
20
252.240000
0
VERTEX
8
0
10
487.900000
20
247.300000
0
VERTEX
8
0
10
486.100000
20
246.700000
0
VERTEX
8
0
10
477.932432
20
243.405405
0
VERTEX
8
0
10
473.067568
20
242.594595
0
VERTEX
8
0
10
464.000000
20
241.000000
0
VERTEX
8
0
10
444.000000
20
241.000000
0
VERTEX
8
0
10
427.088235
20
246.352941
0
VERTEX
8
0
10
414.100000
20
252.200000
0
VERTEX
8
0
10
404.100000
20
257.200000
0
VERTEX
8
0
10
390.420000
20
265.440000
0
VERTEX
8
0
10
376.795082
20
254.245902
0
VERTEX
8
0
10
365.846154
20
247.230769
0
VERTEX
8
0
10
363.900000
20
246.200000
0
VERTEX
8
0
10
352.900000
20
242.300000
0
VERTEX
8
0
10
339.060000
20
239.580000
0
VERTEX
8
0
10
315.000000
20
238.000000
0
VERTEX
8
0
10
303.076923
20
240.384615
0
VERTEX
8
0
10
294.100000
20
244.200000
0
VERTEX
8
0
10
281.153846
20
252.230769
0
VERTEX
8
0
10
264.000000
20
263.000000
0
VERTEX
8
0
10
251.180000
20
254.760000
0
VERTEX
8
0
10
247.820000
20
252.240000
0
VERTEX
8
0
10
235.900000
20
246.200000
0
VERTEX
8
0
10
233.100000
20
244.800000
0
VERTEX
8
0
10
217.923077
20
240.384615
0
VERTEX
8
0
10
207.000000
20
238.000000
0
VERTEX
8
0
10
196.964706
20
238.541176
0
VERTEX
8
0
10
177.053846
20
240.430769
0
VERTEX
8
0
10
163.900000
20
244.800000
0
VERTEX
8
0
10
161.100000
20
246.200000
0
VERTEX
8
0
10
143.180000
20
259.240000
0
VERTEX
8
0
10
130.000000
20
269.000000
0
VERTEX
8
0
10
128.000000
20
269.000000
0
VERTEX
8
0
10
112.180000
20
257.760000
0
VERTEX
8
0
10
101.000000
20
250.000000
0
VERTEX
8
0
10
101.000000
20
248.000000
0
VERTEX
8
0
10
113.230769
20
223.153846
0
VERTEX
8
0
10
114.769231
20
220.846154
0
VERTEX
8
0
10
128.000000
20
203.000000
0
VERTEX
8
0
10
141.000000
20
190.000000
0
VERTEX
8
0
10
149.180000
20
184.240000
0
VERTEX
8
0
10
160.900000
20
178.800000
0
VERTEX
8
0
10
180.911765
20
172.647059
0
VERTEX
8
0
10
186.000000
20
171.000000
0
VERTEX
8
0
10
201.000000
20
171.000000
0
VERTEX
8
0
10
209.951220
20
172.439024
0
VERTEX
8
0
10
225.932432
20
174.405405
0
VERTEX
8
0
10
247.900000
20
182.200000
0
VERTEX
8
0
10
260.900000
20
187.200000
0
VERTEX
8
0
10
264.000000
20
189.000000
0
VERTEX
8
0
10
273.900000
20
185.700000
0
VERTEX
8
0
10
305.088235
20
174.352941
0
VERTEX
8
0
10
307.911765
20
173.647059
0
VERTEX
8
0
10
318.023691
20
171.473815
0
VERTEX
8
0
10
337.000000
20
171.000000
0
SEQEND
0
POLYLINE
8
0
6
CONTINUOUS
66
1
62
7
10
0.0
20
0.0
30
0.000000
0
VERTEX
8
0
10
199.000000
20
117.000000
0
VERTEX
8
0
10
197.000000
20
118.000000
0
SEQEND
0
POLYLINE
8
0
6
CONTINUOUS
66
1
62
7
10
0.0
20
0.0
30
0.000000
0
VERTEX
8
0
10
199.000000
20
117.000000
0
VERTEX
8
0
10
216.180000
20
104.240000
0
VERTEX
8
0
10
239.153846
20
89.230769
0
VERTEX
8
0
10
247.900000
20
84.800000
0
VERTEX
8
0
10
289.900000
20
66.700000
0
VERTEX
8
0
10
304.911765
20
62.647059
0
VERTEX
8
0
10
337.053846
20
54.430769
0
VERTEX
8
0
10
343.946154
20
53.569231
0
VERTEX
8
0
10
373.000000
20
50.000000
0
VERTEX
8
0
10
411.000000
20
50.000000
0
VERTEX
8
0
10
443.067568
20
53.594595
0
VERTEX
8
0
10
467.076923
20
57.615385
0
VERTEX
8
0
10
504.900000
20
69.300000
0
VERTEX
8
0
10
515.100000
20
73.800000
0
VERTEX
8
0
10
541.846154
20
86.230769
0
VERTEX
8
0
10
546.846154
20
89.230769
0
VERTEX
8
0
10
586.000000
20
113.000000
0
VERTEX
8
0
10
587.000000
20
116.000000
0
VERTEX
8
0
10
587.000000
20
117.000000
0
VERTEX
8
0
10
584.000000
20
120.000000
0
VERTEX
8
0
10
581.088235
20
120.352941
0
VERTEX
8
0
10
550.900000
20
127.800000
0
VERTEX
8
0
10
527.153846
20
140.230769
0
VERTEX
8
0
10
523.000000
20
143.000000
0
VERTEX
8
0
10
520.000000
20
143.000000
0
VERTEX
8
0
10
496.100000
20
129.800000
0
VERTEX
8
0
10
487.923077
20
126.384615
0
VERTEX
8
0
10
463.060000
20
122.580000
0
VERTEX
8
0
10
444.000000
20
121.000000
0
VERTEX
8
0
10
428.911765
20
124.647059
0
VERTEX
8
0
10
412.100000
20
131.200000
0
VERTEX
8
0
10
394.000000
20
140.000000
0
VERTEX
8
0
10
391.000000
20
140.000000
0
VERTEX
8
0
10
384.100000
20
136.800000
0
VERTEX
8
0
10
364.900000
20
127.200000
0
VERTEX
8
0
10
354.923077
20
124.384615
0
VERTEX
8
0
10
351.076923
20
123.615385
0
VERTEX
8
0
10
346.000000
20
122.000000
0
VERTEX
8
0
10
307.000000
20
122.000000
0
VERTEX
8
0
10
293.100000
20
126.300000
0
VERTEX
8
0
10
287.900000
20
128.800000
0
VERTEX
8
0
10
267.100000
20
140.200000
0
VERTEX
8
0
10
266.000000
20
141.000000
0
VERTEX
8
0
10
261.000000
20
141.000000
0
VERTEX
8
0
10
245.100000
20
131.800000
0
VERTEX
8
0
10
243.100000
20
130.800000
0
VERTEX
8
0
10
234.911765
20
127.352941
0
VERTEX
8
0
10
201.200000
20
118.400000
0
VERTEX
8
0
10
199.000000
20
117.000000
0
SEQEND
0
POLYLINE
8
0
6
CONTINUOUS
66
1
62
7
10
0.0
20
0.0
30
0.000000
0
VERTEX
8
0
10
401.000000
20
20.000000
0
VERTEX
8
0
10
441.955446
20
23.445545
0
VERTEX
8
0
10
464.923077
20
28.384615
0
VERTEX
8
0
10
478.923077
20
31.384615
0
VERTEX
8
0
10
495.900000
20
36.300000
0
VERTEX
8
0
10
527.900000
20
47.300000
0
VERTEX
8
0
10
544.900000
20
55.200000
0
VERTEX
8
0
10
568.100000
20
67.800000
0
VERTEX
8
0
10
579.820000
20
74.240000
0
VERTEX
8
0
10
583.180000
20
76.760000
0
VERTEX
8
0
10
619.000000
20
103.000000
0
VERTEX
8
0
10
638.000000
20
122.000000
0
VERTEX
8
0
10
661.240000
20
147.820000
0
VERTEX
8
0
10
687.760000
20
183.180000
0
VERTEX
8
0
10
699.800000
20
206.100000
0
VERTEX
8
0
10
709.200000
20
223.900000
0
VERTEX
8
0
10
715.300000
20
239.900000
0
VERTEX
8
0
10
725.300000
20
268.900000
0
VERTEX
8
0
10
733.384615
20
303.923077
0
VERTEX
8
0
10
736.384615
20
317.923077
0
VERTEX
8
0
10
740.000000
20
359.000000
0
VERTEX
8
0
10
740.000000
20
373.000000
0
VERTEX
8
0
10
736.554455
20
414.955446
0
VERTEX
8
0
10
726.647059
20
461.911765
0
VERTEX
8
0
10
722.300000
20
474.100000
0
VERTEX
8
0
10
708.200000
20
511.100000
0
VERTEX
8
0
10
703.200000
20
520.100000
0
VERTEX
8
0
10
683.760000
20
554.820000
0
VERTEX
8
0
10
655.000000
20
594.000000
0
VERTEX
8
0
10
614.180000
20
632.240000
0
VERTEX
8
0
10
575.820000
20
660.760000
0
VERTEX
8
0
10
564.900000
20
666.800000
0
VERTEX
8
0
10
554.100000
20
672.200000
0
VERTEX
8
0
10
523.900000
20
686.700000
0
VERTEX
8
0
10
508.100000
20
692.300000
0
VERTEX
8
0
10
479.923077
20
701.615385
0
VERTEX
8
0
10
471.076923
20
703.384615
0
VERTEX
8
0
10
437.250000
20
710.250000
0
VERTEX
8
0
10
435.615385
20
724.923077
0
VERTEX
8
0
10
431.769231
20
733.846154
0
VERTEX
8
0
10
429.769231
20
736.846154
0
VERTEX
8
0
10
425.000000
20
743.000000
0
VERTEX
8
0
10
419.180000
20
747.240000
0
VERTEX
8
0
10
411.900000
20
751.700000
0
VERTEX
8
0
10
397.000000
20
756.000000
0
VERTEX
8
0
10
389.932432
20
755.405405
0
VERTEX
8
0
10
378.100000
20
752.800000
0
VERTEX
8
0
10
376.900000
20
752.200000
0
VERTEX
8
0
10
366.000000
20
746.000000
0
VERTEX
8
0
10
361.000000
20
741.000000
0
VERTEX
8
0
10
357.200000
20
734.900000
0
VERTEX
8
0
10
356.800000
20
734.100000
0
VERTEX
8
0
10
352.352941
20
725.911765
0
VERTEX
8
0
10
350.750000
20
710.250000
0
VERTEX
8
0
10
318.076923
20
703.615385
0
VERTEX
8
0
10
308.076923
20
701.615385
0
VERTEX
8
0
10
275.100000
20
690.700000
0
VERTEX
8
0
10
264.100000
20
686.700000
0
VERTEX
8
0
10
229.100000
20
669.800000
0
VERTEX
8
0
10
221.900000
20
666.200000
0
VERTEX
8
0
10
212.180000
20
660.760000
0
VERTEX
8
0
10
173.226244
20
631.751131
0
VERTEX
8
0
10
133.000000
20
594.000000
0
VERTEX
8
0
10
104.240000
20
554.820000
0
VERTEX
8
0
10
84.200000
20
518.900000
0
VERTEX
8
0
10
79.200000
20
509.900000
0
VERTEX
8
0
10
64.300000
20
469.900000
0
VERTEX
8
0
10
60.647059
20
459.088235
0
VERTEX
8
0
10
51.445545
20
414.955446
0
VERTEX
8
0
10
50.554455
20
406.044554
0
VERTEX
8
0
10
48.000000
20
359.000000
0
VERTEX
8
0
10
51.445545
20
319.044554
0
VERTEX
8
0
10
54.384615
20
305.076923
0
VERTEX
8
0
10
62.700000
20
268.900000
0
VERTEX
8
0
10
72.300000
20
241.100000
0
VERTEX
8
0
10
78.800000
20
223.900000
0
VERTEX
8
0
10
87.800000
20
206.900000
0
VERTEX
8
0
10
100.240000
20
183.180000
0
VERTEX
8
0
10
126.760000
20
147.820000
0
VERTEX
8
0
10
150.000000
20
122.000000
0
VERTEX
8
0
10
169.000000
20
103.000000
0
VERTEX
8
0
10
208.180000
20
74.240000
0
VERTEX
8
0
10
221.100000
20
67.200000
0
VERTEX
8
0
10
243.900000
20
54.800000
0
VERTEX
8
0
10
260.100000
20
47.300000
0
VERTEX
8
0
10
293.900000
20
35.700000
0
VERTEX
8
0
10
312.923077
20
30.615385
0
VERTEX
8
0
10
326.923077
20
27.615385
0
VERTEX
8
0
10
346.044554
20
23.445545
0
VERTEX
8
0
10
354.955446
20
22.554455
0
VERTEX
8
0
10
401.000000
20
20.000000
0
SEQEND
0
ENDSEC
0
EOF
