0
SECTION
2
HEADER
9
$ACADVER
1
AC1003
9
$INSBASE
10
0.0
20
0.0
30
0.0
9
$EXTMIN
10
0.000
20
0.000
30
0.0
9
$EXTMAX
10
626.000
20
632.000
30
0.0
9
$LIMMIN
10
0.000
20
0.000
9
$LIMMAX
10
626.000
20
632.000
9
$LTSCALE
40
1.0
9
$LUNITS
70
2
9
$LUPREC
70
3
9
$LIMCHECK
70
0
9
$UCSNAME
2

9
$UCSORG
10
0.0
20
0.0
30
0.0
9
$UCSXDIR
10
1.0
20
0.0
30
0.0
9
$UCSYDIR
10
0.0
20
1.0
30
0.0
9
$WORLDVIEW
70
1
9
$UNITMODE
70
0
0
ENDSEC
0
SECTION
2
TABLES
0
TABLE
2
VPORT
70
1
0
VPORT
2
*ACTIVE
70
0
10
0.0
20
0.0
11
1.0
21
1.0
12
313.000
22
316.000
13
0.0
23
0.0
14
1.0
24
1.0
15
0.0
25
0.0
16
0.0
26
0.0
36
1.0
17
0.0
27
0.0
37
0.0
40
500.0
41
1.010
42
50.0
43
0.0
44
0.0
50
0.0
51
0.0
71
0
72
100
73
1
74
1
75
0
76
0
77
0
78
0
0
ENDTAB
0
TABLE
2
LTYPE
70
1
0
LTYPE
2
CONTINUOUS
70
64
3
Solid line
72
65
73
0
40
0.000
0
ENDTAB
0
TABLE
2
LAYER
70
1
0
LAYER
2
0
70
64
62
7
6
CONTINUOUS
0
ENDTAB
0
ENDSEC
0
SECTION
2
BLOCKS
0
ENDSEC
0
SECTION
2
ENTITIES
0
POLYLINE
8
0
6
CONTINUOUS
66
1
62
7
10
0.0
20
0.0
30
0.000000
0
VERTEX
8
0
10
314.000000
20
544.000000
0
VERTEX
8
0
10
316.000000
20
545.000000
0
VERTEX
8
0
10
321.000000
20
550.000000
0
VERTEX
8
0
10
322.000000
20
553.000000
0
VERTEX
8
0
10
321.300000
20
557.100000
0
VERTEX
8
0
10
321.000000
20
559.000000
0
VERTEX
8
0
10
315.000000
20
564.000000
0
VERTEX
8
0
10
308.000000
20
564.000000
0
VERTEX
8
0
10
305.000000
20
562.000000
0
VERTEX
8
0
10
302.000000
20
559.000000
0
VERTEX
8
0
10
301.000000
20
556.000000
0
VERTEX
8
0
10
301.000000
20
552.000000
0
VERTEX
8
0
10
304.000000
20
547.000000
0
VERTEX
8
0
10
304.846154
20
546.769231
0
VERTEX
8
0
10
309.067568
20
544.405405
0
VERTEX
8
0
10
314.000000
20
544.000000
0
SEQEND
0
POLYLINE
8
0
6
CONTINUOUS
66
1
62
7
10
0.0
20
0.0
30
0.000000
0
VERTEX
8
0
10
309.000000
20
469.000000
0
VERTEX
8
0
10
334.100000
20
483.800000
0
VERTEX
8
0
10
348.000000
20
490.000000
0
VERTEX
8
0
10
350.000000
20
492.000000
0
VERTEX
8
0
10
340.000000
20
502.000000
0
VERTEX
8
0
10
313.846154
20
518.769231
0
VERTEX
8
0
10
313.100000
20
519.200000
0
VERTEX
8
0
10
312.000000
20
520.000000
0
VERTEX
8
0
10
307.000000
20
520.000000
0
VERTEX
8
0
10
305.900000
20
519.200000
0
VERTEX
8
0
10
276.000000
20
500.000000
0
VERTEX
8
0
10
270.000000
20
494.000000
0
VERTEX
8
0
10
270.000000
20
493.000000
0
VERTEX
8
0
10
276.900000
20
488.800000
0
VERTEX
8
0
10
309.000000
20
469.000000
0
SEQEND
0
POLYLINE
8
0
6
CONTINUOUS
66
1
62
7
10
0.0
20
0.0
30
0.000000
0
VERTEX
8
0
10
219.000000
20
446.000000
0
VERTEX
8
0
10
224.800000
20
456.100000
0
VERTEX
8
0
10
242.000000
20
485.000000
0
VERTEX
8
0
10
240.000000
20
487.000000
0
VERTEX
8
0
10
209.000000
20
491.000000
0
VERTEX
8
0
10
199.932432
20
490.405405
0
VERTEX
8
0
10
193.000000
20
489.000000
0
VERTEX
8
0
10
190.800000
20
485.100000
0
VERTEX
8
0
10
188.230769
20
480.846154
0
VERTEX
8
0
10
176.352941
20
457.911765
0
VERTEX
8
0
10
174.000000
20
451.000000
0
VERTEX
8
0
10
174.800000
20
447.900000
0
VERTEX
8
0
10
175.000000
20
447.000000
0
VERTEX
8
0
10
176.000000
20
446.000000
0
VERTEX
8
0
10
219.000000
20
446.000000
0
SEQEND
0
POLYLINE
8
0
6
CONTINUOUS
66
1
62
7
10
0.0
20
0.0
30
0.000000
0
VERTEX
8
0
10
446.000000
20
444.000000
0
VERTEX
8
0
10
444.300000
20
449.100000
0
VERTEX
8
0
10
429.000000
20
485.000000
0
VERTEX
8
0
10
428.000000
20
486.000000
0
VERTEX
8
0
10
417.000000
20
488.000000
0
VERTEX
8
0
10
389.000000
20
488.000000
0
VERTEX
8
0
10
381.911765
20
486.352941
0
VERTEX
8
0
10
379.000000
20
486.000000
0
VERTEX
8
0
10
377.000000
20
484.000000
0
VERTEX
8
0
10
378.769231
20
480.846154
0
VERTEX
8
0
10
399.000000
20
447.000000
0
VERTEX
8
0
10
399.846154
20
446.769231
0
VERTEX
8
0
10
413.014679
20
444.484404
0
VERTEX
8
0
10
446.000000
20
444.000000
0
SEQEND
0
POLYLINE
8
0
6
CONTINUOUS
66
1
62
7
10
0.0
20
0.0
30
0.000000
0
VERTEX
8
0
10
272.000000
20
429.000000
0
VERTEX
8
0
10
274.760000
20
432.180000
0
VERTEX
8
0
10
298.000000
20
460.000000
0
VERTEX
8
0
10
297.000000
20
462.000000
0
VERTEX
8
0
10
272.100000
20
476.200000
0
VERTEX
8
0
10
270.100000
20
477.200000
0
VERTEX
8
0
10
260.000000
20
481.000000
0
VERTEX
8
0
10
258.000000
20
481.000000
0
VERTEX
8
0
10
253.000000
20
476.000000
0
VERTEX
8
0
10
243.200000
20
460.900000
0
VERTEX
8
0
10
242.800000
20
460.100000
0
VERTEX
8
0
10
234.000000
20
444.000000
0
VERTEX
8
0
10
236.000000
20
442.000000
0
VERTEX
8
0
10
248.100000
20
437.300000
0
VERTEX
8
0
10
272.000000
20
429.000000
0
SEQEND
0
POLYLINE
8
0
6
CONTINUOUS
66
1
62
7
10
0.0
20
0.0
30
0.000000
0
VERTEX
8
0
10
349.000000
20
428.000000
0
VERTEX
8
0
10
370.100000
20
436.700000
0
VERTEX
8
0
10
371.900000
20
437.300000
0
VERTEX
8
0
10
384.000000
20
442.000000
0
VERTEX
8
0
10
384.000000
20
444.000000
0
VERTEX
8
0
10
374.769231
20
461.846154
0
VERTEX
8
0
10
363.000000
20
479.000000
0
VERTEX
8
0
10
358.000000
20
480.000000
0
VERTEX
8
0
10
350.100000
20
476.800000
0
VERTEX
8
0
10
346.900000
20
475.200000
0
VERTEX
8
0
10
324.000000
20
463.000000
0
VERTEX
8
0
10
321.000000
20
460.000000
0
VERTEX
8
0
10
348.000000
20
428.000000
0
VERTEX
8
0
10
349.000000
20
428.000000
0
SEQEND
0
POLYLINE
8
0
6
CONTINUOUS
66
1
62
7
10
0.0
20
0.0
30
0.000000
0
VERTEX
8
0
10
310.000000
20
406.000000
0
VERTEX
8
0
10
321.846154
20
413.230769
0
VERTEX
8
0
10
335.000000
20
422.000000
0
VERTEX
8
0
10
317.000000
20
445.000000
0
VERTEX
8
0
10
312.100000
20
449.200000
0
VERTEX
8
0
10
311.000000
20
450.000000
0
VERTEX
8
0
10
307.900000
20
449.200000
0
VERTEX
8
0
10
307.000000
20
449.000000
0
VERTEX
8
0
10
287.760000
20
427.180000
0
VERTEX
8
0
10
285.600000
20
423.700000
0
VERTEX
8
0
10
286.000000
20
422.000000
0
VERTEX
8
0
10
291.820000
20
417.760000
0
VERTEX
8
0
10
309.100000
20
406.200000
0
VERTEX
8
0
10
310.000000
20
406.000000
0
SEQEND
0
POLYLINE
8
0
6
CONTINUOUS
66
1
62
7
10
0.0
20
0.0
30
0.000000
0
VERTEX
8
0
10
250.000000
20
390.000000
0
VERTEX
8
0
10
253.230769
20
395.846154
0
VERTEX
8
0
10
263.000000
20
415.000000
0
VERTEX
8
0
10
263.000000
20
416.000000
0
VERTEX
8
0
10
260.000000
20
420.000000
0
VERTEX
8
0
10
257.900000
20
420.800000
0
VERTEX
8
0
10
238.911765
20
426.647059
0
VERTEX
8
0
10
236.088235
20
427.352941
0
VERTEX
8
0
10
227.250000
20
428.750000
0
VERTEX
8
0
10
226.800000
20
427.100000
0
VERTEX
8
0
10
221.000000
20
401.000000
0
VERTEX
8
0
10
221.000000
20
394.000000
0
VERTEX
8
0
10
222.000000
20
393.000000
0
VERTEX
8
0
10
242.048780
20
390.439024
0
VERTEX
8
0
10
250.000000
20
390.000000
0
SEQEND
0
POLYLINE
8
0
6
CONTINUOUS
66
1
62
7
10
0.0
20
0.0
30
0.000000
0
VERTEX
8
0
10
390.000000
20
390.000000
0
VERTEX
8
0
10
398.000000
20
391.000000
0
VERTEX
8
0
10
399.000000
20
392.000000
0
VERTEX
8
0
10
398.405405
20
394.067568
0
VERTEX
8
0
10
392.000000
20
426.000000
0
VERTEX
8
0
10
390.000000
20
428.000000
0
VERTEX
8
0
10
377.900000
20
425.300000
0
VERTEX
8
0
10
359.000000
20
419.000000
0
VERTEX
8
0
10
356.000000
20
415.000000
0
VERTEX
8
0
10
356.000000
20
414.000000
0
VERTEX
8
0
10
367.000000
20
393.000000
0
VERTEX
8
0
10
369.000000
20
391.000000
0
VERTEX
8
0
10
377.032995
20
390.461929
0
VERTEX
8
0
10
390.000000
20
390.000000
0
SEQEND
0
POLYLINE
8
0
6
CONTINUOUS
66
1
62
7
10
0.0
20
0.0
30
0.000000
0
VERTEX
8
0
10
171.000000
20
385.000000
0
VERTEX
8
0
10
189.067568
20
388.594595
0
VERTEX
8
0
10
205.000000
20
392.000000
0
VERTEX
8
0
10
207.000000
20
394.000000
0
VERTEX
8
0
10
209.594595
20
407.067568
0
VERTEX
8
0
10
214.000000
20
430.000000
0
VERTEX
8
0
10
209.000000
20
433.000000
0
VERTEX
8
0
10
180.000000
20
433.000000
0
VERTEX
8
0
10
174.067568
20
431.594595
0
VERTEX
8
0
10
169.000000
20
430.000000
0
VERTEX
8
0
10
167.430769
20
420.946154
0
VERTEX
8
0
10
165.000000
20
403.000000
0
VERTEX
8
0
10
165.580000
20
391.940000
0
VERTEX
8
0
10
166.000000
20
386.000000
0
VERTEX
8
0
10
167.000000
20
385.000000
0
VERTEX
8
0
10
171.000000
20
385.000000
0
SEQEND
0
POLYLINE
8
0
6
CONTINUOUS
66
1
62
7
10
0.0
20
0.0
30
0.000000
0
VERTEX
8
0
10
451.000000
20
383.000000
0
VERTEX
8
0
10
453.000000
20
385.000000
0
VERTEX
8
0
10
453.000000
20
413.000000
0
VERTEX
8
0
10
451.000000
20
426.000000
0
VERTEX
8
0
10
449.000000
20
428.000000
0
VERTEX
8
0
10
444.959016
20
429.549180
0
VERTEX
8
0
10
433.976309
20
430.526185
0
VERTEX
8
0
10
405.000000
20
432.000000
0
VERTEX
8
0
10
404.000000
20
431.000000
0
VERTEX
8
0
10
404.647059
20
429.911765
0
VERTEX
8
0
10
410.594595
20
396.932432
0
VERTEX
8
0
10
411.000000
20
392.000000
0
VERTEX
8
0
10
413.000000
20
390.000000
0
VERTEX
8
0
10
449.100000
20
383.300000
0
VERTEX
8
0
10
451.000000
20
383.000000
0
SEQEND
0
POLYLINE
8
0
6
CONTINUOUS
66
1
62
7
10
0.0
20
0.0
30
0.000000
0
VERTEX
8
0
10
116.000000
20
357.000000
0
VERTEX
8
0
10
126.846154
20
364.230769
0
VERTEX
8
0
10
146.100000
20
375.800000
0
VERTEX
8
0
10
152.000000
20
381.000000
0
VERTEX
8
0
10
154.000000
20
416.000000
0
VERTEX
8
0
10
154.000000
20
426.000000
0
VERTEX
8
0
10
153.000000
20
427.000000
0
VERTEX
8
0
10
132.100000
20
417.800000
0
VERTEX
8
0
10
121.100000
20
411.800000
0
VERTEX
8
0
10
111.000000
20
406.000000
0
VERTEX
8
0
10
110.000000
20
402.000000
0
VERTEX
8
0
10
113.000000
20
359.000000
0
VERTEX
8
0
10
115.000000
20
357.000000
0
VERTEX
8
0
10
116.000000
20
357.000000
0
SEQEND
0
POLYLINE
8
0
6
CONTINUOUS
66
1
62
7
10
0.0
20
0.0
30
0.000000
0
VERTEX
8
0
10
504.000000
20
354.000000
0
VERTEX
8
0
10
506.400000
20
358.200000
0
VERTEX
8
0
10
507.384615
20
361.923077
0
VERTEX
8
0
10
510.461929
20
391.967005
0
VERTEX
8
0
10
511.000000
20
393.000000
0
VERTEX
8
0
10
511.000000
20
402.000000
0
VERTEX
8
0
10
508.000000
20
405.000000
0
VERTEX
8
0
10
497.900000
20
409.800000
0
VERTEX
8
0
10
485.100000
20
416.200000
0
VERTEX
8
0
10
471.000000
20
423.000000
0
VERTEX
8
0
10
469.000000
20
423.000000
0
VERTEX
8
0
10
467.000000
20
421.000000
0
VERTEX
8
0
10
466.000000
20
410.000000
0
VERTEX
8
0
10
466.000000
20
377.000000
0
VERTEX
8
0
10
495.846154
20
359.769231
0
VERTEX
8
0
10
504.000000
20
354.000000
0
SEQEND
0
POLYLINE
8
0
6
CONTINUOUS
66
1
62
7
10
0.0
20
0.0
30
0.000000
0
VERTEX
8
0
10
181.000000
20
334.000000
0
VERTEX
8
0
10
186.100000
20
336.800000
0
VERTEX
8
0
10
205.000000
20
347.000000
0
VERTEX
8
0
10
206.000000
20
348.000000
0
VERTEX
8
0
10
206.750000
20
377.750000
0
VERTEX
8
0
10
206.000000
20
378.000000
0
VERTEX
8
0
10
172.088235
20
371.647059
0
VERTEX
8
0
10
170.000000
20
371.000000
0
VERTEX
8
0
10
169.000000
20
370.000000
0
VERTEX
8
0
10
169.200000
20
369.100000
0
VERTEX
8
0
10
177.800000
20
339.900000
0
VERTEX
8
0
10
181.000000
20
334.000000
0
SEQEND
0
POLYLINE
8
0
6
CONTINUOUS
66
1
62
7
10
0.0
20
0.0
30
0.000000
0
VERTEX
8
0
10
297.000000
20
333.000000
0
VERTEX
8
0
10
301.000000
20
336.000000
0
VERTEX
8
0
10
303.200000
20
338.900000
0
VERTEX
8
0
10
304.200000
20
340.900000
0
VERTEX
8
0
10
307.000000
20
357.000000
0
VERTEX
8
0
10
307.000000
20
390.000000
0
VERTEX
8
0
10
296.180000
20
398.240000
0
VERTEX
8
0
10
279.000000
20
410.000000
0
VERTEX
8
0
10
276.000000
20
409.000000
0
VERTEX
8
0
10
268.769231
20
395.153846
0
VERTEX
8
0
10
266.800000
20
392.100000
0
VERTEX
8
0
10
261.000000
20
381.000000
0
VERTEX
8
0
10
261.000000
20
379.000000
0
VERTEX
8
0
10
266.230769
20
368.153846
0
VERTEX
8
0
10
283.000000
20
338.000000
0
VERTEX
8
0
10
297.000000
20
333.000000
0
SEQEND
0
POLYLINE
8
0
6
CONTINUOUS
66
1
62
7
10
0.0
20
0.0
30
0.000000
0
VERTEX
8
0
10
323.000000
20
333.000000
0
VERTEX
8
0
10
326.100000
20
334.700000
0
VERTEX
8
0
10
331.820000
20
337.240000
0
VERTEX
8
0
10
338.000000
20
342.000000
0
VERTEX
8
0
10
351.800000
20
367.100000
0
VERTEX
8
0
10
358.000000
20
378.000000
0
VERTEX
8
0
10
350.200000
20
395.100000
0
VERTEX
8
0
10
344.000000
20
408.000000
0
VERTEX
8
0
10
342.000000
20
410.000000
0
VERTEX
8
0
10
326.153846
20
400.769231
0
VERTEX
8
0
10
316.000000
20
393.000000
0
VERTEX
8
0
10
313.455172
20
383.962069
0
VERTEX
8
0
10
312.000000
20
372.000000
0
VERTEX
8
0
10
312.000000
20
343.000000
0
VERTEX
8
0
10
322.000000
20
333.000000
0
VERTEX
8
0
10
323.000000
20
333.000000
0
SEQEND
0
POLYLINE
8
0
6
CONTINUOUS
66
1
62
7
10
0.0
20
0.0
30
0.000000
0
VERTEX
8
0
10
437.000000
20
333.000000
0
VERTEX
8
0
10
438.769231
20
335.153846
0
VERTEX
8
0
10
442.300000
20
341.900000
0
VERTEX
8
0
10
443.300000
20
344.900000
0
VERTEX
8
0
10
450.000000
20
363.000000
0
VERTEX
8
0
10
450.000000
20
367.000000
0
VERTEX
8
0
10
447.000000
20
370.000000
0
VERTEX
8
0
10
440.923077
20
371.615385
0
VERTEX
8
0
10
435.932432
20
372.594595
0
VERTEX
8
0
10
415.000000
20
376.000000
0
VERTEX
8
0
10
413.700000
20
373.100000
0
VERTEX
8
0
10
411.000000
20
356.000000
0
VERTEX
8
0
10
411.000000
20
347.000000
0
VERTEX
8
0
10
414.000000
20
344.000000
0
VERTEX
8
0
10
427.100000
20
337.200000
0
VERTEX
8
0
10
437.000000
20
333.000000
0
SEQEND
0
POLYLINE
8
0
6
CONTINUOUS
66
1
62
7
10
0.0
20
0.0
30
0.000000
0
VERTEX
8
0
10
263.000000
20
319.000000
0
VERTEX
8
0
10
276.000000
20
321.000000
0
VERTEX
8
0
10
278.000000
20
326.000000
0
VERTEX
8
0
10
278.000000
20
335.000000
0
VERTEX
8
0
10
276.700000
20
337.900000
0
VERTEX
8
0
10
263.800000
20
362.900000
0
VERTEX
8
0
10
257.000000
20
375.000000
0
VERTEX
8
0
10
255.100000
20
376.200000
0
VERTEX
8
0
10
253.955446
20
376.554455
0
VERTEX
8
0
10
219.250000
20
378.750000
0
VERTEX
8
0
10
219.430769
20
371.053846
0
VERTEX
8
0
10
222.000000
20
343.000000
0
VERTEX
8
0
10
242.846154
20
329.769231
0
VERTEX
8
0
10
260.088235
20
319.352941
0
VERTEX
8
0
10
263.000000
20
319.000000
0
SEQEND
0
POLYLINE
8
0
6
CONTINUOUS
66
1
62
7
10
0.0
20
0.0
30
0.000000
0
VERTEX
8
0
10
356.000000
20
318.000000
0
VERTEX
8
0
10
366.100000
20
323.800000
0
VERTEX
8
0
10
394.000000
20
339.000000
0
VERTEX
8
0
10
398.000000
20
343.000000
0
VERTEX
8
0
10
398.531034
20
361.027586
0
VERTEX
8
0
10
399.000000
20
377.000000
0
VERTEX
8
0
10
398.000000
20
378.000000
0
VERTEX
8
0
10
372.951220
20
376.439024
0
VERTEX
8
0
10
365.000000
20
376.000000
0
VERTEX
8
0
10
360.000000
20
371.000000
0
VERTEX
8
0
10
355.200000
20
361.900000
0
VERTEX
8
0
10
354.800000
20
361.100000
0
VERTEX
8
0
10
340.000000
20
335.000000
0
VERTEX
8
0
10
342.000000
20
321.000000
0
VERTEX
8
0
10
344.900000
20
319.700000
0
VERTEX
8
0
10
356.000000
20
318.000000
0
SEQEND
0
POLYLINE
8
0
6
CONTINUOUS
66
1
62
7
10
0.0
20
0.0
30
0.000000
0
VERTEX
8
0
10
138.000000
20
300.000000
0
VERTEX
8
0
10
147.223757
20
308.751381
0
VERTEX
8
0
10
168.000000
20
326.000000
0
VERTEX
8
0
10
168.000000
20
327.000000
0
VERTEX
8
0
10
157.800000
20
358.900000
0
VERTEX
8
0
10
157.300000
20
360.100000
0
VERTEX
8
0
10
157.000000
20
362.000000
0
VERTEX
8
0
10
155.000000
20
364.000000
0
VERTEX
8
0
10
152.000000
20
364.000000
0
VERTEX
8
0
10
150.100000
20
362.800000
0
VERTEX
8
0
10
146.100000
20
360.800000
0
VERTEX
8
0
10
124.000000
20
347.000000
0
VERTEX
8
0
10
119.000000
20
341.000000
0
VERTEX
8
0
10
119.647059
20
337.911765
0
VERTEX
8
0
10
121.300000
20
332.100000
0
VERTEX
8
0
10
133.200000
20
307.100000
0
VERTEX
8
0
10
137.000000
20
300.000000
0
VERTEX
8
0
10
138.000000
20
300.000000
0
SEQEND
0
POLYLINE
8
0
6
CONTINUOUS
66
1
62
7
10
0.0
20
0.0
30
0.000000
0
VERTEX
8
0
10
480.000000
20
297.000000
0
VERTEX
8
0
10
488.200000
20
309.900000
0
VERTEX
8
0
10
501.000000
20
335.000000
0
VERTEX
8
0
10
500.000000
20
340.000000
0
VERTEX
8
0
10
489.153846
20
348.230769
0
VERTEX
8
0
10
486.100000
20
350.200000
0
VERTEX
8
0
10
467.900000
20
360.700000
0
VERTEX
8
0
10
466.100000
20
361.300000
0
VERTEX
8
0
10
465.000000
20
362.000000
0
VERTEX
8
0
10
463.000000
20
360.000000
0
VERTEX
8
0
10
460.300000
20
352.900000
0
VERTEX
8
0
10
458.800000
20
349.100000
0
VERTEX
8
0
10
449.000000
20
324.000000
0
VERTEX
8
0
10
451.795082
20
321.754098
0
VERTEX
8
0
10
475.000000
20
302.000000
0
VERTEX
8
0
10
475.000000
20
301.000000
0
VERTEX
8
0
10
479.000000
20
297.000000
0
VERTEX
8
0
10
480.000000
20
297.000000
0
SEQEND
0
POLYLINE
8
0
6
CONTINUOUS
66
1
62
7
10
0.0
20
0.0
30
0.000000
0
VERTEX
8
0
10
253.000000
20
291.000000
0
VERTEX
8
0
10
265.000000
20
300.000000
0
VERTEX
8
0
10
262.300000
20
306.100000
0
VERTEX
8
0
10
260.000000
20
312.000000
0
VERTEX
8
0
10
256.000000
20
316.000000
0
VERTEX
8
0
10
240.900000
20
324.800000
0
VERTEX
8
0
10
219.000000
20
338.000000
0
VERTEX
8
0
10
214.900000
20
336.200000
0
VERTEX
8
0
10
191.100000
20
324.800000
0
VERTEX
8
0
10
188.000000
20
323.000000
0
VERTEX
8
0
10
188.000000
20
320.000000
0
VERTEX
8
0
10
189.200000
20
318.100000
0
VERTEX
8
0
10
189.800000
20
316.900000
0
VERTEX
8
0
10
201.000000
20
298.000000
0
VERTEX
8
0
10
207.000000
20
292.000000
0
VERTEX
8
0
10
209.010859
20
291.488648
0
VERTEX
8
0
10
253.000000
20
291.000000
0
SEQEND
0
POLYLINE
8
0
6
CONTINUOUS
66
1
62
7
10
0.0
20
0.0
30
0.000000
0
VERTEX
8
0
10
412.000000
20
289.000000
0
VERTEX
8
0
10
430.000000
20
316.000000
0
VERTEX
8
0
10
430.000000
20
320.000000
0
VERTEX
8
0
10
428.100000
20
321.200000
0
VERTEX
8
0
10
406.000000
20
334.000000
0
VERTEX
8
0
10
398.000000
20
334.000000
0
VERTEX
8
0
10
387.100000
20
328.800000
0
VERTEX
8
0
10
370.153846
20
319.769231
0
VERTEX
8
0
10
358.000000
20
312.000000
0
VERTEX
8
0
10
354.000000
20
301.000000
0
VERTEX
8
0
10
354.000000
20
299.000000
0
VERTEX
8
0
10
360.846154
20
292.769231
0
VERTEX
8
0
10
366.035294
20
290.458824
0
VERTEX
8
0
10
377.964706
20
289.541176
0
VERTEX
8
0
10
412.000000
20
289.000000
0
SEQEND
0
POLYLINE
8
0
6
CONTINUOUS
66
1
62
7
10
0.0
20
0.0
30
0.000000
0
VERTEX
8
0
10
175.000000
20
264.000000
0
VERTEX
8
0
10
178.240000
20
268.820000
0
VERTEX
8
0
10
191.000000
20
288.000000
0
VERTEX
8
0
10
188.769231
20
293.846154
0
VERTEX
8
0
10
175.000000
20
313.000000
0
VERTEX
8
0
10
171.100000
20
311.700000
0
VERTEX
8
0
10
162.000000
20
305.000000
0
VERTEX
8
0
10
148.000000
20
290.000000
0
VERTEX
8
0
10
149.800000
20
285.900000
0
VERTEX
8
0
10
157.000000
20
278.000000
0
VERTEX
8
0
10
174.153846
20
264.230769
0
VERTEX
8
0
10
175.000000
20
264.000000
0
SEQEND
0
POLYLINE
8
0
6
CONTINUOUS
66
1
62
7
10
0.0
20
0.0
30
0.000000
0
VERTEX
8
0
10
443.000000
20
262.000000
0
VERTEX
8
0
10
444.100000
20
262.800000
0
VERTEX
8
0
10
461.000000
20
275.000000
0
VERTEX
8
0
10
469.000000
20
283.000000
0
VERTEX
8
0
10
470.000000
20
287.000000
0
VERTEX
8
0
10
455.000000
20
303.000000
0
VERTEX
8
0
10
444.000000
20
311.000000
0
VERTEX
8
0
10
440.000000
20
308.000000
0
VERTEX
8
0
10
430.200000
20
291.900000
0
VERTEX
8
0
10
429.800000
20
291.100000
0
VERTEX
8
0
10
428.000000
20
288.000000
0
VERTEX
8
0
10
428.000000
20
286.000000
0
VERTEX
8
0
10
437.200000
20
270.100000
0
VERTEX
8
0
10
443.000000
20
262.000000
0
SEQEND
0
POLYLINE
8
0
6
CONTINUOUS
66
1
62
7
10
0.0
20
0.0
30
0.000000
0
VERTEX
8
0
10
106.000000
20
249.000000
0
VERTEX
8
0
10
120.800000
20
275.100000
0
VERTEX
8
0
10
128.000000
20
290.000000
0
VERTEX
8
0
10
115.800000
20
313.900000
0
VERTEX
8
0
10
108.000000
20
329.000000
0
VERTEX
8
0
10
107.000000
20
329.000000
0
VERTEX
8
0
10
102.756098
20
324.195122
0
VERTEX
8
0
10
99.243902
20
319.804878
0
VERTEX
8
0
10
83.200000
20
292.900000
0
VERTEX
8
0
10
82.000000
20
289.000000
0
VERTEX
8
0
10
84.200000
20
285.100000
0
VERTEX
8
0
10
86.800000
20
279.900000
0
VERTEX
8
0
10
100.240000
20
257.180000
0
VERTEX
8
0
10
106.000000
20
249.000000
0
SEQEND
0
POLYLINE
8
0
6
CONTINUOUS
66
1
62
7
10
0.0
20
0.0
30
0.000000
0
VERTEX
8
0
10
512.000000
20
247.000000
0
VERTEX
8
0
10
516.000000
20
249.000000
0
VERTEX
8
0
10
537.240000
20
278.820000
0
VERTEX
8
0
10
541.000000
20
284.000000
0
VERTEX
8
0
10
539.800000
20
287.900000
0
VERTEX
8
0
10
536.200000
20
294.100000
0
VERTEX
8
0
10
521.760000
20
315.820000
0
VERTEX
8
0
10
513.000000
20
327.000000
0
VERTEX
8
0
10
511.000000
20
325.000000
0
VERTEX
8
0
10
505.200000
20
312.900000
0
VERTEX
8
0
10
504.200000
20
310.900000
0
VERTEX
8
0
10
494.756098
20
295.195122
0
VERTEX
8
0
10
489.000000
20
288.000000
0
VERTEX
8
0
10
500.800000
20
266.900000
0
VERTEX
8
0
10
512.000000
20
247.000000
0
SEQEND
0
POLYLINE
8
0
6
CONTINUOUS
66
1
62
7
10
0.0
20
0.0
30
0.000000
0
VERTEX
8
0
10
309.000000
20
246.000000
0
VERTEX
8
0
10
314.000000
20
252.000000
0
VERTEX
8
0
10
317.000000
20
255.000000
0
VERTEX
8
0
10
319.088235
20
254.352941
0
VERTEX
8
0
10
329.750000
20
252.250000
0
VERTEX
8
0
10
331.700000
20
260.100000
0
VERTEX
8
0
10
332.000000
20
262.000000
0
VERTEX
8
0
10
334.000000
20
264.000000
0
VERTEX
8
0
10
344.000000
20
266.000000
0
VERTEX
8
0
10
345.000000
20
267.000000
0
VERTEX
8
0
10
342.700000
20
273.900000
0
VERTEX
8
0
10
342.200000
20
275.100000
0
VERTEX
8
0
10
341.000000
20
278.000000
0
VERTEX
8
0
10
342.000000
20
280.000000
0
VERTEX
8
0
10
350.000000
20
287.000000
0
VERTEX
8
0
10
342.000000
20
296.000000
0
VERTEX
8
0
10
342.000000
20
298.000000
0
VERTEX
8
0
10
346.000000
20
308.000000
0
VERTEX
8
0
10
341.911765
20
309.647059
0
VERTEX
8
0
10
335.000000
20
311.000000
0
VERTEX
8
0
10
332.000000
20
314.000000
0
VERTEX
8
0
10
331.000000
20
323.000000
0
VERTEX
8
0
10
330.000000
20
324.000000
0
VERTEX
8
0
10
319.000000
20
321.000000
0
VERTEX
8
0
10
317.000000
20
321.000000
0
VERTEX
8
0
10
313.000000
20
327.000000
0
VERTEX
8
0
10
310.000000
20
329.000000
0
VERTEX
8
0
10
302.153846
20
322.769231
0
VERTEX
8
0
10
300.000000
20
321.000000
0
VERTEX
8
0
10
294.088235
20
322.352941
0
VERTEX
8
0
10
289.000000
20
324.000000
0
VERTEX
8
0
10
288.000000
20
323.000000
0
VERTEX
8
0
10
286.000000
20
314.000000
0
VERTEX
8
0
10
284.000000
20
312.000000
0
VERTEX
8
0
10
280.911765
20
311.352941
0
VERTEX
8
0
10
275.000000
20
310.000000
0
VERTEX
8
0
10
273.000000
20
308.000000
0
VERTEX
8
0
10
277.000000
20
297.000000
0
VERTEX
8
0
10
272.000000
20
292.000000
0
VERTEX
8
0
10
268.846154
20
290.230769
0
VERTEX
8
0
10
268.000000
20
290.000000
0
VERTEX
8
0
10
267.000000
20
289.000000
0
VERTEX
8
0
10
274.230769
20
281.153846
0
VERTEX
8
0
10
276.000000
20
279.000000
0
VERTEX
8
0
10
274.615385
20
272.076923
0
VERTEX
8
0
10
273.000000
20
269.000000
0
VERTEX
8
0
10
275.000000
20
267.000000
0
VERTEX
8
0
10
283.000000
20
265.000000
0
VERTEX
8
0
10
286.000000
20
262.000000
0
VERTEX
8
0
10
287.800000
20
253.900000
0
VERTEX
8
0
10
288.000000
20
253.000000
0
VERTEX
8
0
10
289.000000
20
252.000000
0
VERTEX
8
0
10
300.000000
20
256.000000
0
VERTEX
8
0
10
309.000000
20
246.000000
0
SEQEND
0
POLYLINE
8
0
6
CONTINUOUS
66
1
62
7
10
0.0
20
0.0
30
0.000000
0
VERTEX
8
0
10
218.000000
20
239.000000
0
VERTEX
8
0
10
232.846154
20
247.230769
0
VERTEX
8
0
10
259.000000
20
262.000000
0
VERTEX
8
0
10
265.000000
20
276.000000
0
VERTEX
8
0
10
262.000000
20
279.000000
0
VERTEX
8
0
10
255.900000
20
282.800000
0
VERTEX
8
0
10
255.100000
20
283.200000
0
VERTEX
8
0
10
252.000000
20
285.000000
0
VERTEX
8
0
10
206.000000
20
285.000000
0
VERTEX
8
0
10
188.769231
20
261.153846
0
VERTEX
8
0
10
186.000000
20
257.000000
0
VERTEX
8
0
10
189.000000
20
254.000000
0
VERTEX
8
0
10
193.100000
20
252.200000
0
VERTEX
8
0
10
193.900000
20
251.800000
0
VERTEX
8
0
10
217.100000
20
239.200000
0
VERTEX
8
0
10
218.000000
20
239.000000
0
SEQEND
0
POLYLINE
8
0
6
CONTINUOUS
66
1
62
7
10
0.0
20
0.0
30
0.000000
0
VERTEX
8
0
10
401.000000
20
238.000000
0
VERTEX
8
0
10
423.100000
20
248.800000
0
VERTEX
8
0
10
430.000000
20
253.000000
0
VERTEX
8
0
10
430.000000
20
255.000000
0
VERTEX
8
0
10
416.000000
20
279.000000
0
VERTEX
8
0
10
412.100000
20
282.200000
0
VERTEX
8
0
10
399.000000
20
284.000000
0
VERTEX
8
0
10
364.000000
20
284.000000
0
VERTEX
8
0
10
354.000000
20
275.000000
0
VERTEX
8
0
10
354.700000
20
271.900000
0
VERTEX
8
0
10
358.000000
20
263.000000
0
VERTEX
8
0
10
378.846154
20
249.769231
0
VERTEX
8
0
10
398.088235
20
238.352941
0
VERTEX
8
0
10
401.000000
20
238.000000
0
SEQEND
0
POLYLINE
8
0
6
CONTINUOUS
66
1
62
7
10
0.0
20
0.0
30
0.000000
0
VERTEX
8
0
10
154.000000
20
213.000000
0
VERTEX
8
0
10
157.200000
20
218.900000
0
VERTEX
8
0
10
167.000000
20
251.000000
0
VERTEX
8
0
10
154.000000
20
264.000000
0
VERTEX
8
0
10
139.000000
20
277.000000
0
VERTEX
8
0
10
133.000000
20
271.000000
0
VERTEX
8
0
10
125.769231
20
256.153846
0
VERTEX
8
0
10
123.800000
20
253.100000
0
VERTEX
8
0
10
119.000000
20
244.000000
0
VERTEX
8
0
10
119.000000
20
237.000000
0
VERTEX
8
0
10
125.000000
20
231.000000
0
VERTEX
8
0
10
136.180000
20
223.240000
0
VERTEX
8
0
10
140.180000
20
220.240000
0
VERTEX
8
0
10
152.100000
20
213.300000
0
VERTEX
8
0
10
154.000000
20
213.000000
0
SEQEND
0
POLYLINE
8
0
6
CONTINUOUS
66
1
62
7
10
0.0
20
0.0
30
0.000000
0
VERTEX
8
0
10
465.000000
20
211.000000
0
VERTEX
8
0
10
481.153846
20
219.769231
0
VERTEX
8
0
10
496.000000
20
230.000000
0
VERTEX
8
0
10
500.000000
20
234.000000
0
VERTEX
8
0
10
500.000000
20
240.000000
0
VERTEX
8
0
10
494.800000
20
250.900000
0
VERTEX
8
0
10
493.800000
20
252.900000
0
VERTEX
8
0
10
482.000000
20
274.000000
0
VERTEX
8
0
10
479.000000
20
274.000000
0
VERTEX
8
0
10
458.000000
20
257.000000
0
VERTEX
8
0
10
449.000000
20
248.000000
0
VERTEX
8
0
10
457.700000
20
225.900000
0
VERTEX
8
0
10
458.647059
20
222.911765
0
VERTEX
8
0
10
461.000000
20
213.000000
0
VERTEX
8
0
10
463.000000
20
211.000000
0
VERTEX
8
0
10
465.000000
20
211.000000
0
SEQEND
0
POLYLINE
8
0
6
CONTINUOUS
66
1
62
7
10
0.0
20
0.0
30
0.000000
0
VERTEX
8
0
10
202.000000
20
200.000000
0
VERTEX
8
0
10
204.750000
20
201.250000
0
VERTEX
8
0
10
207.000000
20
214.000000
0
VERTEX
8
0
10
207.000000
20
227.000000
0
VERTEX
8
0
10
206.000000
20
229.000000
0
VERTEX
8
0
10
192.100000
20
237.200000
0
VERTEX
8
0
10
181.000000
20
243.000000
0
VERTEX
8
0
10
178.800000
20
240.100000
0
VERTEX
8
0
10
172.352941
20
225.911765
0
VERTEX
8
0
10
171.647059
20
223.088235
0
VERTEX
8
0
10
169.000000
20
214.000000
0
VERTEX
8
0
10
169.000000
20
208.000000
0
VERTEX
8
0
10
171.000000
20
206.000000
0
VERTEX
8
0
10
195.053846
20
200.430769
0
VERTEX
8
0
10
202.000000
20
200.000000
0
SEQEND
0
POLYLINE
8
0
6
CONTINUOUS
66
1
62
7
10
0.0
20
0.0
30
0.000000
0
VERTEX
8
0
10
237.000000
20
199.000000
0
VERTEX
8
0
10
255.000000
20
202.000000
0
VERTEX
8
0
10
257.200000
20
204.900000
0
VERTEX
8
0
10
260.200000
20
209.900000
0
VERTEX
8
0
10
279.000000
20
241.000000
0
VERTEX
8
0
10
277.300000
20
251.100000
0
VERTEX
8
0
10
277.000000
20
253.000000
0
VERTEX
8
0
10
275.000000
20
255.000000
0
VERTEX
8
0
10
268.000000
20
257.000000
0
VERTEX
8
0
10
262.911765
20
256.352941
0
VERTEX
8
0
10
260.088235
20
255.647059
0
VERTEX
8
0
10
251.100000
20
251.800000
0
VERTEX
8
0
10
222.000000
20
235.000000
0
VERTEX
8
0
10
221.445545
20
231.955446
0
VERTEX
8
0
10
219.250000
20
199.250000
0
VERTEX
8
0
10
237.000000
20
199.000000
0
SEQEND
0
POLYLINE
8
0
6
CONTINUOUS
66
1
62
7
10
0.0
20
0.0
30
0.000000
0
VERTEX
8
0
10
396.000000
20
198.000000
0
VERTEX
8
0
10
399.000000
20
203.000000
0
VERTEX
8
0
10
399.000000
20
209.000000
0
VERTEX
8
0
10
395.700000
20
228.900000
0
VERTEX
8
0
10
394.000000
20
235.000000
0
VERTEX
8
0
10
370.100000
20
249.200000
0
VERTEX
8
0
10
356.000000
20
257.000000
0
VERTEX
8
0
10
350.923077
20
256.384615
0
VERTEX
8
0
10
345.900000
20
255.300000
0
VERTEX
8
0
10
344.000000
20
255.000000
0
VERTEX
8
0
10
341.000000
20
252.000000
0
VERTEX
8
0
10
340.700000
20
250.100000
0
VERTEX
8
0
10
340.000000
20
249.000000
0
VERTEX
8
0
10
340.000000
20
241.000000
0
VERTEX
8
0
10
342.200000
20
235.100000
0
VERTEX
8
0
10
342.800000
20
233.900000
0
VERTEX
8
0
10
357.800000
20
206.900000
0
VERTEX
8
0
10
361.000000
20
201.000000
0
VERTEX
8
0
10
362.000000
20
200.000000
0
VERTEX
8
0
10
365.923077
20
199.615385
0
VERTEX
8
0
10
396.000000
20
198.000000
0
SEQEND
0
POLYLINE
8
0
6
CONTINUOUS
66
1
62
7
10
0.0
20
0.0
30
0.000000
0
VERTEX
8
0
10
420.000000
20
198.000000
0
VERTEX
8
0
10
437.932432
20
201.405405
0
VERTEX
8
0
10
442.900000
20
203.200000
0
VERTEX
8
0
10
449.000000
20
207.000000
0
VERTEX
8
0
10
446.300000
20
216.100000
0
VERTEX
8
0
10
439.300000
20
238.100000
0
VERTEX
8
0
10
439.000000
20
240.000000
0
VERTEX
8
0
10
437.000000
20
242.000000
0
VERTEX
8
0
10
430.900000
20
239.200000
0
VERTEX
8
0
10
430.100000
20
238.800000
0
VERTEX
8
0
10
410.000000
20
228.000000
0
VERTEX
8
0
10
412.000000
20
200.000000
0
VERTEX
8
0
10
413.000000
20
199.000000
0
VERTEX
8
0
10
420.000000
20
198.000000
0
SEQEND
0
POLYLINE
8
0
6
CONTINUOUS
66
1
62
7
10
0.0
20
0.0
30
0.000000
0
VERTEX
8
0
10
277.000000
20
166.000000
0
VERTEX
8
0
10
293.846154
20
176.230769
0
VERTEX
8
0
10
303.000000
20
183.000000
0
VERTEX
8
0
10
306.000000
20
199.000000
0
VERTEX
8
0
10
306.000000
20
233.000000
0
VERTEX
8
0
10
297.000000
20
242.000000
0
VERTEX
8
0
10
287.000000
20
240.000000
0
VERTEX
8
0
10
282.000000
20
235.000000
0
VERTEX
8
0
10
260.800000
20
200.100000
0
VERTEX
8
0
10
259.000000
20
197.000000
0
VERTEX
8
0
10
273.000000
20
169.000000
0
VERTEX
8
0
10
277.000000
20
166.000000
0
SEQEND
0
POLYLINE
8
0
6
CONTINUOUS
66
1
62
7
10
0.0
20
0.0
30
0.000000
0
VERTEX
8
0
10
341.000000
20
165.000000
0
VERTEX
8
0
10
343.760000
20
168.180000
0
VERTEX
8
0
10
346.800000
20
174.100000
0
VERTEX
8
0
10
347.200000
20
174.900000
0
VERTEX
8
0
10
357.000000
20
194.000000
0
VERTEX
8
0
10
357.000000
20
196.000000
0
VERTEX
8
0
10
352.800000
20
204.900000
0
VERTEX
8
0
10
335.000000
20
238.000000
0
VERTEX
8
0
10
326.900000
20
240.800000
0
VERTEX
8
0
10
322.000000
20
243.000000
0
VERTEX
8
0
10
313.800000
20
234.100000
0
VERTEX
8
0
10
312.458824
20
230.964706
0
VERTEX
8
0
10
311.000000
20
218.000000
0
VERTEX
8
0
10
311.000000
20
186.000000
0
VERTEX
8
0
10
315.000000
20
182.000000
0
VERTEX
8
0
10
340.100000
20
165.200000
0
VERTEX
8
0
10
341.000000
20
165.000000
0
SEQEND
0
POLYLINE
8
0
6
CONTINUOUS
66
1
62
7
10
0.0
20
0.0
30
0.000000
0
VERTEX
8
0
10
151.000000
20
152.000000
0
VERTEX
8
0
10
152.000000
20
153.000000
0
VERTEX
8
0
10
152.000000
20
199.000000
0
VERTEX
8
0
10
114.000000
20
221.000000
0
VERTEX
8
0
10
113.250000
20
220.750000
0
VERTEX
8
0
10
109.000000
20
191.000000
0
VERTEX
8
0
10
109.000000
20
175.000000
0
VERTEX
8
0
10
115.000000
20
169.000000
0
VERTEX
8
0
10
149.100000
20
153.200000
0
VERTEX
8
0
10
151.000000
20
152.000000
0
SEQEND
0
POLYLINE
8
0
6
CONTINUOUS
66
1
62
7
10
0.0
20
0.0
30
0.000000
0
VERTEX
8
0
10
466.000000
20
149.000000
0
VERTEX
8
0
10
476.100000
20
153.800000
0
VERTEX
8
0
10
499.846154
20
164.230769
0
VERTEX
8
0
10
507.000000
20
169.000000
0
VERTEX
8
0
10
508.000000
20
170.000000
0
VERTEX
8
0
10
508.430769
20
176.946154
0
VERTEX
8
0
10
509.000000
20
178.000000
0
VERTEX
8
0
10
509.000000
20
203.000000
0
VERTEX
8
0
10
508.384615
20
204.076923
0
VERTEX
8
0
10
505.000000
20
218.000000
0
VERTEX
8
0
10
504.000000
20
219.000000
0
VERTEX
8
0
10
491.100000
20
210.800000
0
VERTEX
8
0
10
470.900000
20
199.200000
0
VERTEX
8
0
10
470.000000
20
199.000000
0
VERTEX
8
0
10
466.800000
20
195.100000
0
VERTEX
8
0
10
464.455172
20
160.962069
0
VERTEX
8
0
10
464.000000
20
150.000000
0
VERTEX
8
0
10
465.000000
20
149.000000
0
VERTEX
8
0
10
466.000000
20
149.000000
0
SEQEND
0
POLYLINE
8
0
6
CONTINUOUS
66
1
62
7
10
0.0
20
0.0
30
0.000000
0
VERTEX
8
0
10
230.000000
20
147.000000
0
VERTEX
8
0
10
238.100000
20
149.700000
0
VERTEX
8
0
10
258.900000
20
157.200000
0
VERTEX
8
0
10
261.000000
20
158.000000
0
VERTEX
8
0
10
263.000000
20
160.000000
0
VERTEX
8
0
10
261.800000
20
161.900000
0
VERTEX
8
0
10
250.000000
20
184.000000
0
VERTEX
8
0
10
246.100000
20
185.300000
0
VERTEX
8
0
10
245.000000
20
186.000000
0
VERTEX
8
0
10
228.000000
20
186.000000
0
VERTEX
8
0
10
221.000000
20
185.000000
0
VERTEX
8
0
10
220.250000
20
184.750000
0
VERTEX
8
0
10
224.405405
20
155.067568
0
VERTEX
8
0
10
225.352941
20
151.088235
0
VERTEX
8
0
10
227.000000
20
148.000000
0
VERTEX
8
0
10
230.000000
20
147.000000
0
SEQEND
0
POLYLINE
8
0
6
CONTINUOUS
66
1
62
7
10
0.0
20
0.0
30
0.000000
0
VERTEX
8
0
10
388.000000
20
146.000000
0
VERTEX
8
0
10
391.000000
20
148.000000
0
VERTEX
8
0
10
392.615385
20
156.076923
0
VERTEX
8
0
10
394.384615
20
164.923077
0
VERTEX
8
0
10
397.000000
20
175.000000
0
VERTEX
8
0
10
397.000000
20
181.000000
0
VERTEX
8
0
10
395.000000
20
183.000000
0
VERTEX
8
0
10
375.000000
20
186.000000
0
VERTEX
8
0
10
368.000000
20
186.000000
0
VERTEX
8
0
10
366.000000
20
184.000000
0
VERTEX
8
0
10
356.200000
20
162.900000
0
VERTEX
8
0
10
355.800000
20
162.100000
0
VERTEX
8
0
10
355.000000
20
161.000000
0
VERTEX
8
0
10
355.000000
20
158.000000
0
VERTEX
8
0
10
357.000000
20
156.000000
0
VERTEX
8
0
10
384.100000
20
147.300000
0
VERTEX
8
0
10
388.000000
20
146.000000
0
SEQEND
0
POLYLINE
8
0
6
CONTINUOUS
66
1
62
7
10
0.0
20
0.0
30
0.000000
0
VERTEX
8
0
10
208.000000
20
144.000000
0
VERTEX
8
0
10
212.750000
20
145.250000
0
VERTEX
8
0
10
207.352941
20
177.088235
0
VERTEX
8
0
10
206.000000
20
182.000000
0
VERTEX
8
0
10
203.000000
20
185.000000
0
VERTEX
8
0
10
168.900000
20
192.800000
0
VERTEX
8
0
10
167.250000
20
192.750000
0
VERTEX
8
0
10
165.569231
20
182.053846
0
VERTEX
8
0
10
165.000000
20
181.000000
0
VERTEX
8
0
10
165.000000
20
158.000000
0
VERTEX
8
0
10
167.000000
20
150.000000
0
VERTEX
8
0
10
170.000000
20
147.000000
0
VERTEX
8
0
10
195.032995
20
144.461929
0
VERTEX
8
0
10
208.000000
20
144.000000
0
SEQEND
0
POLYLINE
8
0
6
CONTINUOUS
66
1
62
7
10
0.0
20
0.0
30
0.000000
0
VERTEX
8
0
10
429.000000
20
142.000000
0
VERTEX
8
0
10
440.088235
20
143.647059
0
VERTEX
8
0
10
447.000000
20
145.000000
0
VERTEX
8
0
10
449.000000
20
147.000000
0
VERTEX
8
0
10
449.647059
20
149.088235
0
VERTEX
8
0
10
450.352941
20
151.911765
0
VERTEX
8
0
10
452.000000
20
164.000000
0
VERTEX
8
0
10
452.000000
20
187.000000
0
VERTEX
8
0
10
451.000000
20
189.000000
0
VERTEX
8
0
10
449.000000
20
191.000000
0
VERTEX
8
0
10
441.923077
20
189.384615
0
VERTEX
8
0
10
433.076923
20
187.615385
0
VERTEX
8
0
10
423.962069
20
185.455172
0
VERTEX
8
0
10
413.000000
20
185.000000
0
VERTEX
8
0
10
411.384615
20
180.923077
0
VERTEX
8
0
10
410.384615
20
175.923077
0
VERTEX
8
0
10
404.000000
20
146.000000
0
VERTEX
8
0
10
406.000000
20
144.000000
0
VERTEX
8
0
10
418.037931
20
142.455172
0
VERTEX
8
0
10
429.000000
20
142.000000
0
SEQEND
0
POLYLINE
8
0
6
CONTINUOUS
66
1
62
7
10
0.0
20
0.0
30
0.000000
0
VERTEX
8
0
10
308.000000
20
124.000000
0
VERTEX
8
0
10
320.247059
20
136.788235
0
VERTEX
8
0
10
332.000000
20
150.000000
0
VERTEX
8
0
10
332.000000
20
153.000000
0
VERTEX
8
0
10
330.000000
20
155.000000
0
VERTEX
8
0
10
315.900000
20
164.800000
0
VERTEX
8
0
10
315.100000
20
165.200000
0
VERTEX
8
0
10
310.000000
20
168.000000
0
VERTEX
8
0
10
308.000000
20
168.000000
0
VERTEX
8
0
10
294.153846
20
160.769231
0
VERTEX
8
0
10
284.000000
20
154.000000
0
VERTEX
8
0
10
284.000000
20
153.000000
0
VERTEX
8
0
10
290.247059
20
144.211765
0
VERTEX
8
0
10
307.000000
20
124.000000
0
VERTEX
8
0
10
308.000000
20
124.000000
0
SEQEND
0
POLYLINE
8
0
6
CONTINUOUS
66
1
62
7
10
0.0
20
0.0
30
0.000000
0
VERTEX
8
0
10
260.000000
20
96.000000
0
VERTEX
8
0
10
279.100000
20
103.800000
0
VERTEX
8
0
10
286.820000
20
108.240000
0
VERTEX
8
0
10
298.000000
20
116.000000
0
VERTEX
8
0
10
288.754098
20
125.795082
0
VERTEX
8
0
10
271.000000
20
147.000000
0
VERTEX
8
0
10
248.900000
20
139.300000
0
VERTEX
8
0
10
245.900000
20
138.300000
0
VERTEX
8
0
10
235.000000
20
135.000000
0
VERTEX
8
0
10
233.000000
20
133.000000
0
VERTEX
8
0
10
234.352941
20
129.088235
0
VERTEX
8
0
10
242.230769
20
114.153846
0
VERTEX
8
0
10
244.240000
20
111.180000
0
VERTEX
8
0
10
254.000000
20
98.000000
0
VERTEX
8
0
10
260.000000
20
96.000000
0
SEQEND
0
POLYLINE
8
0
6
CONTINUOUS
66
1
62
7
10
0.0
20
0.0
30
0.000000
0
VERTEX
8
0
10
359.000000
20
95.000000
0
VERTEX
8
0
10
367.000000
20
102.000000
0
VERTEX
8
0
10
379.769231
20
122.153846
0
VERTEX
8
0
10
381.230769
20
124.846154
0
VERTEX
8
0
10
384.000000
20
129.000000
0
VERTEX
8
0
10
384.000000
20
131.000000
0
VERTEX
8
0
10
382.000000
20
133.000000
0
VERTEX
8
0
10
358.900000
20
141.700000
0
VERTEX
8
0
10
357.100000
20
142.300000
0
VERTEX
8
0
10
349.000000
20
146.000000
0
VERTEX
8
0
10
344.000000
20
145.000000
0
VERTEX
8
0
10
322.230769
20
117.846154
0
VERTEX
8
0
10
321.800000
20
117.100000
0
VERTEX
8
0
10
321.000000
20
116.000000
0
VERTEX
8
0
10
327.000000
20
110.000000
0
VERTEX
8
0
10
339.153846
20
103.230769
0
VERTEX
8
0
10
339.900000
20
102.800000
0
VERTEX
8
0
10
359.000000
20
95.000000
0
SEQEND
0
POLYLINE
8
0
6
CONTINUOUS
66
1
62
7
10
0.0
20
0.0
30
0.000000
0
VERTEX
8
0
10
218.000000
20
87.000000
0
VERTEX
8
0
10
219.035294
20
87.541176
0
VERTEX
8
0
10
240.000000
20
90.000000
0
VERTEX
8
0
10
241.000000
20
91.000000
0
VERTEX
8
0
10
241.000000
20
93.000000
0
VERTEX
8
0
10
222.800000
20
122.900000
0
VERTEX
8
0
10
222.200000
20
124.100000
0
VERTEX
8
0
10
219.000000
20
128.000000
0
VERTEX
8
0
10
215.811321
20
129.339623
0
VERTEX
8
0
10
201.044554
20
131.445545
0
VERTEX
8
0
10
172.250000
20
131.750000
0
VERTEX
8
0
10
175.300000
20
122.100000
0
VERTEX
8
0
10
187.200000
20
96.100000
0
VERTEX
8
0
10
187.800000
20
94.900000
0
VERTEX
8
0
10
190.000000
20
90.000000
0
VERTEX
8
0
10
193.000000
20
87.000000
0
VERTEX
8
0
10
218.000000
20
87.000000
0
SEQEND
0
POLYLINE
8
0
6
CONTINUOUS
66
1
62
7
10
0.0
20
0.0
30
0.000000
0
VERTEX
8
0
10
417.000000
20
86.000000
0
VERTEX
8
0
10
424.000000
20
87.000000
0
VERTEX
8
0
10
427.240000
20
90.820000
0
VERTEX
8
0
10
429.760000
20
94.180000
0
VERTEX
8
0
10
445.000000
20
126.000000
0
VERTEX
8
0
10
445.000000
20
128.000000
0
VERTEX
8
0
10
443.000000
20
130.000000
0
VERTEX
8
0
10
437.000000
20
130.000000
0
VERTEX
8
0
10
436.000000
20
129.000000
0
VERTEX
8
0
10
407.000000
20
129.000000
0
VERTEX
8
0
10
406.000000
20
130.000000
0
VERTEX
8
0
10
399.000000
20
129.000000
0
VERTEX
8
0
10
396.769231
20
125.153846
0
VERTEX
8
0
10
394.200000
20
120.900000
0
VERTEX
8
0
10
375.000000
20
91.000000
0
VERTEX
8
0
10
376.900000
20
89.800000
0
VERTEX
8
0
10
388.032995
20
87.461929
0
VERTEX
8
0
10
417.000000
20
86.000000
0
SEQEND
0
POLYLINE
8
0
6
CONTINUOUS
66
1
62
7
10
0.0
20
0.0
30
0.000000
0
VERTEX
8
0
10
309.000000
20
56.000000
0
VERTEX
8
0
10
316.100000
20
59.800000
0
VERTEX
8
0
10
338.180000
20
73.760000
0
VERTEX
8
0
10
338.846154
20
74.230769
0
VERTEX
8
0
10
344.000000
20
78.000000
0
VERTEX
8
0
10
348.000000
20
83.000000
0
VERTEX
8
0
10
347.000000
20
85.000000
0
VERTEX
8
0
10
342.900000
20
86.800000
0
VERTEX
8
0
10
321.180000
20
98.240000
0
VERTEX
8
0
10
314.153846
20
103.230769
0
VERTEX
8
0
10
310.000000
20
106.000000
0
VERTEX
8
0
10
308.000000
20
106.000000
0
VERTEX
8
0
10
303.153846
20
102.769231
0
VERTEX
8
0
10
287.900000
20
94.200000
0
VERTEX
8
0
10
281.900000
20
91.200000
0
VERTEX
8
0
10
270.000000
20
86.000000
0
VERTEX
8
0
10
268.000000
20
84.000000
0
VERTEX
8
0
10
281.820000
20
72.760000
0
VERTEX
8
0
10
285.180000
20
70.240000
0
VERTEX
8
0
10
299.900000
20
59.800000
0
VERTEX
8
0
10
309.000000
20
56.000000
0
SEQEND
0
POLYLINE
8
0
6
CONTINUOUS
66
1
62
7
10
0.0
20
0.0
30
0.000000
0
VERTEX
8
0
10
319.000000
20
25.000000
0
VERTEX
8
0
10
347.959016
20
27.450820
0
VERTEX
8
0
10
368.932432
20
31.405405
0
VERTEX
8
0
10
378.923077
20
33.384615
0
VERTEX
8
0
10
387.900000
20
36.200000
0
VERTEX
8
0
10
409.900000
20
44.300000
0
VERTEX
8
0
10
430.900000
20
54.200000
0
VERTEX
8
0
10
446.100000
20
61.800000
0
VERTEX
8
0
10
453.820000
20
66.240000
0
VERTEX
8
0
10
457.180000
20
68.760000
0
VERTEX
8
0
10
482.000000
20
87.000000
0
VERTEX
8
0
10
512.000000
20
117.000000
0
VERTEX
8
0
10
514.760000
20
121.180000
0
VERTEX
8
0
10
532.760000
20
145.180000
0
VERTEX
8
0
10
544.769231
20
166.153846
0
VERTEX
8
0
10
550.800000
20
178.100000
0
VERTEX
8
0
10
556.700000
20
193.100000
0
VERTEX
8
0
10
563.300000
20
212.900000
0
VERTEX
8
0
10
571.352941
20
245.911765
0
VERTEX
8
0
10
573.450820
20
260.959016
0
VERTEX
8
0
10
575.000000
20
296.000000
0
VERTEX
8
0
10
572.544828
20
325.962069
0
VERTEX
8
0
10
566.615385
20
352.923077
0
VERTEX
8
0
10
565.647059
20
356.911765
0
VERTEX
8
0
10
553.700000
20
389.900000
0
VERTEX
8
0
10
553.300000
20
391.100000
0
VERTEX
8
0
10
533.200000
20
430.100000
0
VERTEX
8
0
10
517.240000
20
451.180000
0
VERTEX
8
0
10
510.000000
20
461.000000
0
VERTEX
8
0
10
477.766112
20
491.750520
0
VERTEX
8
0
10
466.820000
20
499.760000
0
VERTEX
8
0
10
462.820000
20
502.760000
0
VERTEX
8
0
10
444.100000
20
515.200000
0
VERTEX
8
0
10
411.100000
20
531.300000
0
VERTEX
8
0
10
373.923077
20
543.615385
0
VERTEX
8
0
10
344.000000
20
549.000000
0
VERTEX
8
0
10
342.000000
20
551.000000
0
VERTEX
8
0
10
338.200000
20
565.100000
0
VERTEX
8
0
10
335.000000
20
570.000000
0
VERTEX
8
0
10
329.000000
20
576.000000
0
VERTEX
8
0
10
323.900000
20
578.800000
0
VERTEX
8
0
10
317.000000
20
581.000000
0
VERTEX
8
0
10
306.000000
20
581.000000
0
VERTEX
8
0
10
299.900000
20
579.200000
0
VERTEX
8
0
10
294.000000
20
576.000000
0
VERTEX
8
0
10
287.000000
20
569.000000
0
VERTEX
8
0
10
285.230769
20
565.846154
0
VERTEX
8
0
10
284.800000
20
565.100000
0
VERTEX
8
0
10
281.000000
20
551.000000
0
VERTEX
8
0
10
279.000000
20
549.000000
0
VERTEX
8
0
10
252.923077
20
544.384615
0
VERTEX
8
0
10
249.076923
20
543.615385
0
VERTEX
8
0
10
210.100000
20
530.700000
0
VERTEX
8
0
10
178.900000
20
515.200000
0
VERTEX
8
0
10
160.180000
20
502.760000
0
VERTEX
8
0
10
152.820000
20
497.240000
0
VERTEX
8
0
10
145.233888
20
491.750520
0
VERTEX
8
0
10
113.000000
20
461.000000
0
VERTEX
8
0
10
103.240000
20
447.820000
0
VERTEX
8
0
10
88.800000
20
428.100000
0
VERTEX
8
0
10
70.300000
20
392.900000
0
VERTEX
8
0
10
68.700000
20
388.100000
0
VERTEX
8
0
10
57.352941
20
356.911765
0
VERTEX
8
0
10
55.615385
20
349.076923
0
VERTEX
8
0
10
50.450820
20
325.959016
0
VERTEX
8
0
10
49.549180
20
316.040984
0
VERTEX
8
0
10
48.000000
20
280.000000
0
VERTEX
8
0
10
50.450820
20
251.040984
0
VERTEX
8
0
10
52.352941
20
243.088235
0
VERTEX
8
0
10
59.700000
20
212.900000
0
VERTEX
8
0
10
66.700000
20
191.900000
0
VERTEX
8
0
10
72.200000
20
178.100000
0
VERTEX
8
0
10
79.769231
20
163.846154
0
VERTEX
8
0
10
89.240000
20
146.180000
0
VERTEX
8
0
10
109.760000
20
118.820000
0
VERTEX
8
0
10
141.000000
20
87.000000
0
VERTEX
8
0
10
169.180000
20
66.240000
0
VERTEX
8
0
10
180.100000
20
60.200000
0
VERTEX
8
0
10
194.100000
20
53.200000
0
VERTEX
8
0
10
214.900000
20
43.700000
0
VERTEX
8
0
10
235.900000
20
35.800000
0
VERTEX
8
0
10
247.923077
20
32.615385
0
VERTEX
8
0
10
258.932432
20
30.594595
0
VERTEX
8
0
10
275.040984
20
27.450820
0
VERTEX
8
0
10
284.959016
20
26.549180
0
VERTEX
8
0
10
319.000000
20
25.000000
0
SEQEND
0
ENDSEC
0
EOF
