0
SECTION
2
HEADER
9
$ACADVER
1
AC1003
9
$INSBASE
10
0.0
20
0.0
30
0.0
9
$EXTMIN
10
0.000
20
0.000
30
0.0
9
$EXTMAX
10
726.000
20
726.000
30
0.0
9
$LIMMIN
10
0.000
20
0.000
9
$LIMMAX
10
726.000
20
726.000
9
$LTSCALE
40
1.0
9
$LUNITS
70
2
9
$LUPREC
70
3
9
$LIMCHECK
70
0
9
$UCSNAME
2

9
$UCSORG
10
0.0
20
0.0
30
0.0
9
$UCSXDIR
10
1.0
20
0.0
30
0.0
9
$UCSYDIR
10
0.0
20
1.0
30
0.0
9
$WORLDVIEW
70
1
9
$UNITMODE
70
0
0
ENDSEC
0
SECTION
2
TABLES
0
TABLE
2
VPORT
70
1
0
VPORT
2
*ACTIVE
70
0
10
0.0
20
0.0
11
1.0
21
1.0
12
363.000
22
363.000
13
0.0
23
0.0
14
1.0
24
1.0
15
0.0
25
0.0
16
0.0
26
0.0
36
1.0
17
0.0
27
0.0
37
0.0
40
500.0
41
1.000
42
50.0
43
0.0
44
0.0
50
0.0
51
0.0
71
0
72
100
73
1
74
1
75
0
76
0
77
0
78
0
0
ENDTAB
0
TABLE
2
LTYPE
70
1
0
LTYPE
2
CONTINUOUS
70
64
3
Solid line
72
65
73
0
40
0.000
0
ENDTAB
0
TABLE
2
LAYER
70
1
0
LAYER
2
0
70
64
62
7
6
CONTINUOUS
0
ENDTAB
0
ENDSEC
0
SECTION
2
BLOCKS
0
ENDSEC
0
SECTION
2
ENTITIES
0
POLYLINE
8
0
6
CONTINUOUS
66
1
62
7
10
0.0
20
0.0
30
0.000000
0
VERTEX
8
0
10
371.000000
20
641.000000
0
VERTEX
8
0
10
374.000000
20
643.000000
0
VERTEX
8
0
10
376.230769
20
645.846154
0
VERTEX
8
0
10
378.000000
20
648.000000
0
VERTEX
8
0
10
378.000000
20
655.000000
0
VERTEX
8
0
10
376.000000
20
658.000000
0
VERTEX
8
0
10
372.100000
20
661.200000
0
VERTEX
8
0
10
371.000000
20
662.000000
0
VERTEX
8
0
10
364.000000
20
662.000000
0
VERTEX
8
0
10
362.000000
20
661.000000
0
VERTEX
8
0
10
357.800000
20
656.100000
0
VERTEX
8
0
10
357.000000
20
655.000000
0
VERTEX
8
0
10
357.000000
20
648.000000
0
VERTEX
8
0
10
358.000000
20
646.000000
0
VERTEX
8
0
10
361.846154
20
642.769231
0
VERTEX
8
0
10
364.164706
20
641.741176
0
VERTEX
8
0
10
371.000000
20
641.000000
0
SEQEND
0
POLYLINE
8
0
6
CONTINUOUS
66
1
62
7
10
0.0
20
0.0
30
0.000000
0
VERTEX
8
0
10
370.000000
20
407.000000
0
VERTEX
8
0
10
372.000000
20
408.000000
0
SEQEND
0
POLYLINE
8
0
6
CONTINUOUS
66
1
62
7
10
0.0
20
0.0
30
0.000000
0
VERTEX
8
0
10
642.000000
20
391.000000
0
VERTEX
8
0
10
642.352941
20
393.088235
0
VERTEX
8
0
10
633.800000
20
428.900000
0
VERTEX
8
0
10
632.700000
20
431.900000
0
VERTEX
8
0
10
618.800000
20
465.900000
0
VERTEX
8
0
10
608.200000
20
487.100000
0
VERTEX
8
0
10
603.760000
20
495.820000
0
VERTEX
8
0
10
580.000000
20
527.000000
0
VERTEX
8
0
10
546.180000
20
560.240000
0
VERTEX
8
0
10
515.820000
20
583.760000
0
VERTEX
8
0
10
503.900000
20
589.800000
0
VERTEX
8
0
10
498.846154
20
592.769231
0
VERTEX
8
0
10
475.900000
20
603.700000
0
VERTEX
8
0
10
472.100000
20
605.200000
0
VERTEX
8
0
10
440.923077
20
615.615385
0
VERTEX
8
0
10
418.076923
20
620.384615
0
VERTEX
8
0
10
407.962069
20
622.544828
0
VERTEX
8
0
10
378.000000
20
625.000000
0
VERTEX
8
0
10
358.973846
20
624.470769
0
VERTEX
8
0
10
331.040984
20
622.549180
0
VERTEX
8
0
10
300.076923
20
616.615385
0
VERTEX
8
0
10
266.900000
20
605.300000
0
VERTEX
8
0
10
232.000000
20
589.000000
0
VERTEX
8
0
10
231.000000
20
588.000000
0
VERTEX
8
0
10
240.100000
20
583.300000
0
VERTEX
8
0
10
241.900000
20
582.700000
0
VERTEX
8
0
10
255.000000
20
582.000000
0
VERTEX
8
0
10
258.000000
20
579.000000
0
VERTEX
8
0
10
258.000000
20
572.000000
0
VERTEX
8
0
10
257.352941
20
570.911765
0
VERTEX
8
0
10
256.000000
20
566.000000
0
VERTEX
8
0
10
261.846154
20
561.769231
0
VERTEX
8
0
10
276.088235
20
554.352941
0
VERTEX
8
0
10
278.911765
20
553.647059
0
VERTEX
8
0
10
309.000000
20
550.000000
0
VERTEX
8
0
10
317.000000
20
550.000000
0
VERTEX
8
0
10
327.911765
20
553.352941
0
VERTEX
8
0
10
333.000000
20
554.000000
0
VERTEX
8
0
10
339.900000
20
551.700000
0
VERTEX
8
0
10
343.000000
20
551.000000
0
VERTEX
8
0
10
355.000000
20
557.000000
0
VERTEX
8
0
10
355.200000
20
560.100000
0
VERTEX
8
0
10
354.800000
20
560.900000
0
VERTEX
8
0
10
347.800000
20
570.900000
0
VERTEX
8
0
10
347.000000
20
572.000000
0
VERTEX
8
0
10
347.000000
20
575.000000
0
VERTEX
8
0
10
348.000000
20
577.000000
0
VERTEX
8
0
10
353.900000
20
582.200000
0
VERTEX
8
0
10
355.000000
20
583.000000
0
VERTEX
8
0
10
370.000000
20
583.000000
0
VERTEX
8
0
10
371.000000
20
582.000000
0
VERTEX
8
0
10
375.000000
20
582.000000
0
VERTEX
8
0
10
383.900000
20
588.200000
0
VERTEX
8
0
10
385.000000
20
589.000000
0
VERTEX
8
0
10
387.100000
20
588.300000
0
VERTEX
8
0
10
406.000000
20
580.000000
0
VERTEX
8
0
10
407.200000
20
578.100000
0
VERTEX
8
0
10
408.560976
20
574.951220
0
VERTEX
8
0
10
410.405405
20
561.067568
0
VERTEX
8
0
10
416.200000
20
545.900000
0
VERTEX
8
0
10
416.000000
20
545.000000
0
VERTEX
8
0
10
408.000000
20
541.000000
0
VERTEX
8
0
10
403.900000
20
541.700000
0
VERTEX
8
0
10
396.000000
20
544.000000
0
VERTEX
8
0
10
395.000000
20
543.000000
0
VERTEX
8
0
10
404.000000
20
529.000000
0
VERTEX
8
0
10
407.000000
20
526.000000
0
VERTEX
8
0
10
408.000000
20
526.000000
0
VERTEX
8
0
10
409.200000
20
524.100000
0
VERTEX
8
0
10
414.800000
20
510.900000
0
VERTEX
8
0
10
428.000000
20
478.000000
0
VERTEX
8
0
10
433.000000
20
473.000000
0
VERTEX
8
0
10
440.000000
20
471.000000
0
VERTEX
8
0
10
443.000000
20
471.000000
0
VERTEX
8
0
10
445.000000
20
473.000000
0
VERTEX
8
0
10
445.000000
20
474.000000
0
VERTEX
8
0
10
444.000000
20
475.000000
0
VERTEX
8
0
10
444.000000
20
484.000000
0
VERTEX
8
0
10
445.000000
20
485.000000
0
VERTEX
8
0
10
449.000000
20
486.000000
0
VERTEX
8
0
10
459.000000
20
475.000000
0
VERTEX
8
0
10
461.000000
20
477.000000
0
VERTEX
8
0
10
462.800000
20
491.100000
0
VERTEX
8
0
10
463.000000
20
492.000000
0
VERTEX
8
0
10
464.000000
20
493.000000
0
VERTEX
8
0
10
468.000000
20
493.000000
0
VERTEX
8
0
10
476.900000
20
486.800000
0
VERTEX
8
0
10
480.000000
20
485.000000
0
VERTEX
8
0
10
481.240000
20
486.820000
0
VERTEX
8
0
10
484.000000
20
491.000000
0
VERTEX
8
0
10
491.000000
20
498.000000
0
VERTEX
8
0
10
494.000000
20
495.000000
0
VERTEX
8
0
10
494.000000
20
494.000000
0
VERTEX
8
0
10
498.000000
20
492.000000
0
VERTEX
8
0
10
508.029183
20
492.533074
0
VERTEX
8
0
10
542.000000
20
495.000000
0
VERTEX
8
0
10
548.000000
20
490.000000
0
VERTEX
8
0
10
547.200000
20
488.900000
0
VERTEX
8
0
10
527.752941
20
470.211765
0
VERTEX
8
0
10
521.800000
20
463.100000
0
VERTEX
8
0
10
521.000000
20
460.000000
0
VERTEX
8
0
10
522.769231
20
457.846154
0
VERTEX
8
0
10
530.000000
20
451.000000
0
VERTEX
8
0
10
533.000000
20
437.000000
0
VERTEX
8
0
10
534.900000
20
435.800000
0
VERTEX
8
0
10
541.000000
20
433.000000
0
VERTEX
8
0
10
548.000000
20
438.000000
0
VERTEX
8
0
10
548.200000
20
438.900000
0
VERTEX
8
0
10
555.000000
20
464.000000
0
VERTEX
8
0
10
556.100000
20
463.200000
0
VERTEX
8
0
10
564.795082
20
457.754098
0
VERTEX
8
0
10
570.000000
20
453.000000
0
VERTEX
8
0
10
571.000000
20
454.000000
0
VERTEX
8
0
10
570.000000
20
463.000000
0
VERTEX
8
0
10
572.000000
20
464.000000
0
VERTEX
8
0
10
579.000000
20
458.000000
0
VERTEX
8
0
10
583.000000
20
466.000000
0
VERTEX
8
0
10
585.000000
20
466.000000
0
VERTEX
8
0
10
586.200000
20
464.100000
0
VERTEX
8
0
10
589.700000
20
456.900000
0
VERTEX
8
0
10
591.000000
20
452.000000
0
VERTEX
8
0
10
593.000000
20
450.000000
0
VERTEX
8
0
10
607.750000
20
447.750000
0
VERTEX
8
0
10
608.200000
20
446.100000
0
VERTEX
8
0
10
608.647059
20
444.911765
0
VERTEX
8
0
10
614.000000
20
418.000000
0
VERTEX
8
0
10
617.000000
20
415.000000
0
VERTEX
8
0
10
630.100000
20
407.200000
0
VERTEX
8
0
10
635.000000
20
404.000000
0
VERTEX
8
0
10
638.000000
20
393.000000
0
VERTEX
8
0
10
642.000000
20
391.000000
0
SEQEND
0
POLYLINE
8
0
6
CONTINUOUS
66
1
62
7
10
0.0
20
0.0
30
0.000000
0
VERTEX
8
0
10
528.000000
20
281.000000
0
VERTEX
8
0
10
534.230769
20
296.846154
0
VERTEX
8
0
10
540.700000
20
309.100000
0
VERTEX
8
0
10
542.000000
20
313.000000
0
VERTEX
8
0
10
553.000000
20
321.000000
0
VERTEX
8
0
10
554.000000
20
323.000000
0
VERTEX
8
0
10
545.000000
20
339.000000
0
VERTEX
8
0
10
541.000000
20
342.000000
0
VERTEX
8
0
10
531.000000
20
336.000000
0
VERTEX
8
0
10
526.000000
20
331.000000
0
VERTEX
8
0
10
524.271805
20
326.826572
0
VERTEX
8
0
10
522.526185
20
308.023691
0
VERTEX
8
0
10
520.700000
20
302.100000
0
VERTEX
8
0
10
519.800000
20
300.100000
0
VERTEX
8
0
10
519.000000
20
299.000000
0
VERTEX
8
0
10
519.000000
20
288.000000
0
VERTEX
8
0
10
520.000000
20
285.000000
0
VERTEX
8
0
10
521.900000
20
283.800000
0
VERTEX
8
0
10
528.000000
20
281.000000
0
SEQEND
0
POLYLINE
8
0
6
CONTINUOUS
66
1
62
7
10
0.0
20
0.0
30
0.000000
0
VERTEX
8
0
10
168.000000
20
269.000000
0
VERTEX
8
0
10
168.000000
20
270.000000
0
VERTEX
8
0
10
155.000000
20
273.000000
0
VERTEX
8
0
10
156.000000
20
275.000000
0
VERTEX
8
0
10
158.900000
20
276.300000
0
VERTEX
8
0
10
160.060000
20
276.580000
0
VERTEX
8
0
10
181.000000
20
279.000000
0
VERTEX
8
0
10
183.000000
20
281.000000
0
VERTEX
8
0
10
183.800000
20
289.100000
0
VERTEX
8
0
10
184.250000
20
290.750000
0
VERTEX
8
0
10
191.923077
20
289.615385
0
VERTEX
8
0
10
193.900000
20
288.800000
0
VERTEX
8
0
10
195.000000
20
288.000000
0
VERTEX
8
0
10
196.230769
20
289.846154
0
VERTEX
8
0
10
199.000000
20
294.000000
0
VERTEX
8
0
10
208.000000
20
293.000000
0
VERTEX
8
0
10
211.900000
20
296.200000
0
VERTEX
8
0
10
215.000000
20
297.000000
0
VERTEX
8
0
10
228.900000
20
289.800000
0
VERTEX
8
0
10
230.000000
20
289.000000
0
VERTEX
8
0
10
234.000000
20
289.000000
0
VERTEX
8
0
10
239.100000
20
291.800000
0
VERTEX
8
0
10
246.000000
20
295.000000
0
VERTEX
8
0
10
255.769231
20
307.153846
0
VERTEX
8
0
10
266.200000
20
336.900000
0
VERTEX
8
0
10
268.769231
20
341.153846
0
VERTEX
8
0
10
274.247788
20
348.783186
0
VERTEX
8
0
10
286.000000
20
362.000000
0
VERTEX
8
0
10
298.100000
20
368.700000
0
VERTEX
8
0
10
311.100000
20
373.700000
0
VERTEX
8
0
10
325.846154
20
379.230769
0
VERTEX
8
0
10
344.211765
20
393.752941
0
VERTEX
8
0
10
363.100000
20
402.800000
0
VERTEX
8
0
10
370.000000
20
407.000000
0
SEQEND
0
POLYLINE
8
0
6
CONTINUOUS
66
1
62
7
10
0.0
20
0.0
30
0.000000
0
VERTEX
8
0
10
168.000000
20
269.000000
0
VERTEX
8
0
10
171.000000
20
270.000000
0
SEQEND
0
POLYLINE
8
0
6
CONTINUOUS
66
1
62
7
10
0.0
20
0.0
30
0.000000
0
VERTEX
8
0
10
164.000000
20
256.000000
0
VERTEX
8
0
10
159.900000
20
257.700000
0
VERTEX
8
0
10
156.000000
20
259.000000
0
VERTEX
8
0
10
154.000000
20
261.000000
0
VERTEX
8
0
10
154.000000
20
262.000000
0
VERTEX
8
0
10
156.000000
20
264.000000
0
VERTEX
8
0
10
158.100000
20
264.700000
0
VERTEX
8
0
10
166.900000
20
268.200000
0
VERTEX
8
0
10
168.000000
20
269.000000
0
SEQEND
0
POLYLINE
8
0
6
CONTINUOUS
66
1
62
7
10
0.0
20
0.0
30
0.000000
0
VERTEX
8
0
10
165.000000
20
256.000000
0
VERTEX
8
0
10
164.000000
20
256.000000
0
SEQEND
0
POLYLINE
8
0
6
CONTINUOUS
66
1
62
7
10
0.0
20
0.0
30
0.000000
0
VERTEX
8
0
10
387.000000
20
195.000000
0
VERTEX
8
0
10
387.500000
20
196.000000
0
VERTEX
8
0
10
386.647059
20
199.911765
0
VERTEX
8
0
10
381.000000
20
214.000000
0
VERTEX
8
0
10
371.932432
20
213.405405
0
VERTEX
8
0
10
367.000000
20
213.000000
0
VERTEX
8
0
10
365.000000
20
211.000000
0
VERTEX
8
0
10
366.000000
20
209.000000
0
VERTEX
8
0
10
372.000000
20
203.000000
0
VERTEX
8
0
10
384.100000
20
196.200000
0
VERTEX
8
0
10
387.000000
20
195.000000
0
SEQEND
0
POLYLINE
8
0
6
CONTINUOUS
66
1
62
7
10
0.0
20
0.0
30
0.000000
0
VERTEX
8
0
10
144.000000
20
187.000000
0
VERTEX
8
0
10
140.230769
20
192.153846
0
VERTEX
8
0
10
120.300000
20
227.100000
0
VERTEX
8
0
10
118.800000
20
230.900000
0
VERTEX
8
0
10
104.647059
20
267.911765
0
VERTEX
8
0
10
96.647059
20
298.911765
0
VERTEX
8
0
10
94.560976
20
311.951220
0
VERTEX
8
0
10
92.000000
20
354.000000
0
VERTEX
8
0
10
94.455172
20
377.962069
0
VERTEX
8
0
10
96.615385
20
394.076923
0
VERTEX
8
0
10
103.300000
20
426.900000
0
VERTEX
8
0
10
110.300000
20
445.900000
0
VERTEX
8
0
10
117.200000
20
462.900000
0
VERTEX
8
0
10
124.800000
20
477.100000
0
VERTEX
8
0
10
135.240000
20
495.820000
0
VERTEX
8
0
10
139.769231
20
502.153846
0
VERTEX
8
0
10
155.249406
20
523.767221
0
VERTEX
8
0
10
185.000000
20
555.000000
0
VERTEX
8
0
10
195.195122
20
562.756098
0
VERTEX
8
0
10
212.000000
20
576.000000
0
VERTEX
8
0
10
213.243902
20
574.195122
0
VERTEX
8
0
10
216.411765
20
569.647059
0
VERTEX
8
0
10
214.000000
20
563.000000
0
VERTEX
8
0
10
216.000000
20
561.000000
0
VERTEX
8
0
10
225.100000
20
557.200000
0
VERTEX
8
0
10
231.900000
20
553.800000
0
VERTEX
8
0
10
244.820000
20
545.760000
0
VERTEX
8
0
10
259.820000
20
533.760000
0
VERTEX
8
0
10
265.088235
20
530.352941
0
VERTEX
8
0
10
294.940000
20
525.580000
0
VERTEX
8
0
10
309.100000
20
523.200000
0
VERTEX
8
0
10
311.100000
20
522.200000
0
VERTEX
8
0
10
316.000000
20
520.000000
0
VERTEX
8
0
10
321.000000
20
515.000000
0
VERTEX
8
0
10
321.544828
20
510.962069
0
VERTEX
8
0
10
323.200000
20
498.100000
0
VERTEX
8
0
10
324.800000
20
494.900000
0
VERTEX
8
0
10
342.000000
20
469.000000
0
VERTEX
8
0
10
366.000000
20
447.000000
0
VERTEX
8
0
10
373.200000
20
439.100000
0
VERTEX
8
0
10
373.800000
20
437.900000
0
VERTEX
8
0
10
378.000000
20
428.000000
0
VERTEX
8
0
10
376.000000
20
426.000000
0
VERTEX
8
0
10
370.000000
20
425.000000
0
VERTEX
8
0
10
363.000000
20
425.000000
0
VERTEX
8
0
10
339.000000
20
430.000000
0
VERTEX
8
0
10
333.000000
20
430.000000
0
VERTEX
8
0
10
318.088235
20
426.647059
0
VERTEX
8
0
10
316.900000
20
426.300000
0
VERTEX
8
0
10
298.900000
20
417.200000
0
VERTEX
8
0
10
287.000000
20
410.000000
0
VERTEX
8
0
10
285.000000
20
408.000000
0
VERTEX
8
0
10
285.000000
20
406.000000
0
VERTEX
8
0
10
286.900000
20
404.800000
0
VERTEX
8
0
10
288.000000
20
404.000000
0
VERTEX
8
0
10
292.000000
20
404.000000
0
VERTEX
8
0
10
297.900000
20
407.200000
0
VERTEX
8
0
10
303.900000
20
410.200000
0
VERTEX
8
0
10
323.000000
20
417.000000
0
VERTEX
8
0
10
325.000000
20
417.000000
0
VERTEX
8
0
10
327.000000
20
415.000000
0
VERTEX
8
0
10
325.100000
20
413.800000
0
VERTEX
8
0
10
323.900000
20
413.200000
0
VERTEX
8
0
10
313.000000
20
408.000000
0
VERTEX
8
0
10
309.800000
20
404.100000
0
VERTEX
8
0
10
309.000000
20
403.000000
0
VERTEX
8
0
10
313.000000
20
401.000000
0
VERTEX
8
0
10
318.088235
20
401.647059
0
VERTEX
8
0
10
327.100000
20
404.800000
0
VERTEX
8
0
10
344.000000
20
410.000000
0
VERTEX
8
0
10
365.000000
20
410.000000
0
VERTEX
8
0
10
370.000000
20
408.000000
0
VERTEX
8
0
10
370.000000
20
407.000000
0
SEQEND
0
POLYLINE
8
0
6
CONTINUOUS
66
1
62
7
10
0.0
20
0.0
30
0.000000
0
VERTEX
8
0
10
144.000000
20
187.000000
0
VERTEX
8
0
10
144.800000
20
188.100000
0
VERTEX
8
0
10
148.352941
20
196.911765
0
VERTEX
8
0
10
148.615385
20
198.076923
0
VERTEX
8
0
10
153.230769
20
224.846154
0
VERTEX
8
0
10
159.000000
20
235.000000
0
VERTEX
8
0
10
159.000000
20
239.000000
0
VERTEX
8
0
10
157.000000
20
242.000000
0
VERTEX
8
0
10
147.000000
20
238.000000
0
VERTEX
8
0
10
146.000000
20
238.000000
0
VERTEX
8
0
10
144.000000
20
240.000000
0
VERTEX
8
0
10
144.000000
20
242.000000
0
VERTEX
8
0
10
145.846154
20
243.230769
0
VERTEX
8
0
10
160.820000
20
253.240000
0
VERTEX
8
0
10
164.000000
20
256.000000
0
SEQEND
0
POLYLINE
8
0
6
CONTINUOUS
66
1
62
7
10
0.0
20
0.0
30
0.000000
0
VERTEX
8
0
10
144.000000
20
186.000000
0
VERTEX
8
0
10
144.000000
20
187.000000
0
SEQEND
0
POLYLINE
8
0
6
CONTINUOUS
66
1
62
7
10
0.0
20
0.0
30
0.000000
0
VERTEX
8
0
10
240.000000
20
131.000000
0
VERTEX
8
0
10
239.000000
20
132.000000
0
VERTEX
8
0
10
240.000000
20
133.000000
0
VERTEX
8
0
10
241.000000
20
132.000000
0
SEQEND
0
POLYLINE
8
0
6
CONTINUOUS
66
1
62
7
10
0.0
20
0.0
30
0.000000
0
VERTEX
8
0
10
240.000000
20
131.000000
0
VERTEX
8
0
10
241.000000
20
132.000000
0
SEQEND
0
POLYLINE
8
0
6
CONTINUOUS
66
1
62
7
10
0.0
20
0.0
30
0.000000
0
VERTEX
8
0
10
240.000000
20
131.000000
0
VERTEX
8
0
10
241.352941
20
125.088235
0
VERTEX
8
0
10
245.000000
20
113.000000
0
VERTEX
8
0
10
244.000000
20
102.000000
0
VERTEX
8
0
10
246.000000
20
100.000000
0
VERTEX
8
0
10
261.100000
20
94.200000
0
VERTEX
8
0
10
278.100000
20
87.300000
0
VERTEX
8
0
10
309.088235
20
78.352941
0
VERTEX
8
0
10
319.911765
20
75.647059
0
VERTEX
8
0
10
334.032995
20
73.461929
0
VERTEX
8
0
10
346.967005
20
72.538071
0
VERTEX
8
0
10
375.000000
20
71.000000
0
VERTEX
8
0
10
416.076923
20
75.615385
0
VERTEX
8
0
10
449.900000
20
83.200000
0
VERTEX
8
0
10
451.100000
20
83.700000
0
VERTEX
8
0
10
487.900000
20
98.200000
0
VERTEX
8
0
10
502.100000
20
105.800000
0
VERTEX
8
0
10
521.820000
20
116.240000
0
VERTEX
8
0
10
554.000000
20
141.000000
0
VERTEX
8
0
10
586.230769
20
175.846154
0
VERTEX
8
0
10
603.230769
20
200.846154
0
VERTEX
8
0
10
611.800000
20
216.100000
0
VERTEX
8
0
10
620.200000
20
232.900000
0
VERTEX
8
0
10
627.700000
20
249.100000
0
VERTEX
8
0
10
629.300000
20
253.900000
0
VERTEX
8
0
10
638.000000
20
280.000000
0
VERTEX
8
0
10
632.000000
20
282.000000
0
VERTEX
8
0
10
625.769231
20
272.153846
0
VERTEX
8
0
10
622.000000
20
267.000000
0
VERTEX
8
0
10
621.180000
20
266.760000
0
VERTEX
8
0
10
616.000000
20
263.000000
0
VERTEX
8
0
10
616.000000
20
259.000000
0
VERTEX
8
0
10
617.352941
20
255.088235
0
VERTEX
8
0
10
618.000000
20
254.000000
0
VERTEX
8
0
10
617.000000
20
253.000000
0
VERTEX
8
0
10
612.000000
20
253.000000
0
VERTEX
8
0
10
609.800000
20
250.100000
0
VERTEX
8
0
10
607.000000
20
245.000000
0
VERTEX
8
0
10
593.000000
20
246.000000
0
VERTEX
8
0
10
590.000000
20
249.000000
0
VERTEX
8
0
10
589.352941
20
252.088235
0
VERTEX
8
0
10
588.000000
20
257.000000
0
VERTEX
8
0
10
587.000000
20
258.000000
0
VERTEX
8
0
10
585.900000
20
257.200000
0
VERTEX
8
0
10
572.180000
20
249.760000
0
VERTEX
8
0
10
568.820000
20
247.240000
0
VERTEX
8
0
10
546.761622
20
226.249730
0
VERTEX
8
0
10
544.900000
20
225.200000
0
VERTEX
8
0
10
543.000000
20
224.000000
0
VERTEX
8
0
10
531.000000
20
224.000000
0
VERTEX
8
0
10
529.932432
20
224.594595
0
VERTEX
8
0
10
525.000000
20
225.000000
0
VERTEX
8
0
10
522.000000
20
228.000000
0
VERTEX
8
0
10
511.000000
20
250.000000
0
VERTEX
8
0
10
511.000000
20
254.000000
0
VERTEX
8
0
10
512.248869
20
255.773756
0
VERTEX
8
0
10
522.000000
20
266.000000
0
VERTEX
8
0
10
507.249057
20
282.228302
0
VERTEX
8
0
10
505.405405
20
288.067568
0
VERTEX
8
0
10
504.594595
20
292.932432
0
VERTEX
8
0
10
504.000000
20
299.000000
0
VERTEX
8
0
10
506.200000
20
302.900000
0
VERTEX
8
0
10
511.000000
20
316.000000
0
VERTEX
8
0
10
509.000000
20
317.000000
0
VERTEX
8
0
10
506.230769
20
312.846154
0
VERTEX
8
0
10
497.200000
20
292.900000
0
VERTEX
8
0
10
495.800000
20
290.100000
0
VERTEX
8
0
10
489.468966
20
276.972414
0
VERTEX
8
0
10
488.531034
20
261.027586
0
VERTEX
8
0
10
488.000000
20
213.000000
0
VERTEX
8
0
10
490.352941
20
205.088235
0
VERTEX
8
0
10
492.000000
20
202.000000
0
VERTEX
8
0
10
491.420000
20
197.940000
0
VERTEX
8
0
10
490.000000
20
187.000000
0
VERTEX
8
0
10
492.300000
20
180.100000
0
VERTEX
8
0
10
493.300000
20
177.100000
0
VERTEX
8
0
10
497.000000
20
164.000000
0
VERTEX
8
0
10
496.000000
20
151.000000
0
VERTEX
8
0
10
494.000000
20
149.000000
0
VERTEX
8
0
10
483.000000
20
149.000000
0
VERTEX
8
0
10
481.923077
20
149.615385
0
VERTEX
8
0
10
475.180000
20
152.240000
0
VERTEX
8
0
10
471.820000
20
154.760000
0
VERTEX
8
0
10
466.000000
20
160.000000
0
VERTEX
8
0
10
462.560976
20
171.951220
0
VERTEX
8
0
10
461.000000
20
195.000000
0
VERTEX
8
0
10
460.000000
20
196.000000
0
VERTEX
8
0
10
458.800000
20
194.100000
0
VERTEX
8
0
10
455.384615
20
186.923077
0
VERTEX
8
0
10
454.430769
20
181.946154
0
VERTEX
8
0
10
452.000000
20
156.000000
0
VERTEX
8
0
10
450.100000
20
154.800000
0
VERTEX
8
0
10
447.000000
20
153.000000
0
VERTEX
8
0
10
443.000000
20
153.000000
0
VERTEX
8
0
10
432.000000
20
157.000000
0
VERTEX
8
0
10
429.000000
20
160.000000
0
VERTEX
8
0
10
423.300000
20
171.100000
0
VERTEX
8
0
10
421.000000
20
177.000000
0
VERTEX
8
0
10
427.800000
20
191.100000
0
VERTEX
8
0
10
429.352941
20
195.911765
0
VERTEX
8
0
10
431.800000
20
207.100000
0
VERTEX
8
0
10
440.200000
20
219.900000
0
VERTEX
8
0
10
441.531034
20
230.027586
0
VERTEX
8
0
10
443.445545
20
255.955446
0
VERTEX
8
0
10
445.352941
20
264.911765
0
VERTEX
8
0
10
446.800000
20
269.100000
0
VERTEX
8
0
10
451.384615
20
282.923077
0
VERTEX
8
0
10
453.000000
20
296.000000
0
VERTEX
8
0
10
451.647059
20
299.911765
0
VERTEX
8
0
10
451.300000
20
301.100000
0
VERTEX
8
0
10
451.000000
20
303.000000
0
VERTEX
8
0
10
449.000000
20
305.000000
0
VERTEX
8
0
10
444.000000
20
305.000000
0
VERTEX
8
0
10
440.088235
20
303.647059
0
VERTEX
8
0
10
418.088235
20
298.647059
0
VERTEX
8
0
10
409.100000
20
294.800000
0
VERTEX
8
0
10
407.900000
20
294.200000
0
VERTEX
8
0
10
404.000000
20
291.000000
0
VERTEX
8
0
10
400.647059
20
283.088235
0
VERTEX
8
0
10
398.647059
20
275.088235
0
VERTEX
8
0
10
383.800000
20
248.100000
0
VERTEX
8
0
10
381.230769
20
243.846154
0
VERTEX
8
0
10
379.000000
20
239.000000
0
VERTEX
8
0
10
380.000000
20
238.000000
0
VERTEX
8
0
10
405.000000
20
238.000000
0
VERTEX
8
0
10
410.000000
20
233.000000
0
VERTEX
8
0
10
419.000000
20
201.000000
0
VERTEX
8
0
10
412.700000
20
183.100000
0
VERTEX
8
0
10
412.000000
20
182.000000
0
VERTEX
8
0
10
420.700000
20
163.900000
0
VERTEX
8
0
10
422.300000
20
159.100000
0
VERTEX
8
0
10
426.000000
20
148.000000
0
VERTEX
8
0
10
426.000000
20
140.000000
0
VERTEX
8
0
10
424.000000
20
137.000000
0
VERTEX
8
0
10
421.000000
20
134.000000
0
VERTEX
8
0
10
416.000000
20
132.000000
0
VERTEX
8
0
10
405.900000
20
136.800000
0
VERTEX
8
0
10
403.000000
20
138.000000
0
VERTEX
8
0
10
391.000000
20
150.000000
0
VERTEX
8
0
10
384.230769
20
162.153846
0
VERTEX
8
0
10
383.760000
20
162.820000
0
VERTEX
8
0
10
371.000000
20
179.000000
0
VERTEX
8
0
10
338.900000
20
190.700000
0
VERTEX
8
0
10
325.153846
20
196.230769
0
VERTEX
8
0
10
320.000000
20
200.000000
0
VERTEX
8
0
10
319.352941
20
202.088235
0
VERTEX
8
0
10
319.000000
20
205.000000
0
VERTEX
8
0
10
317.000000
20
207.000000
0
VERTEX
8
0
10
306.923077
20
208.615385
0
VERTEX
8
0
10
300.846154
20
210.769231
0
VERTEX
8
0
10
296.000000
20
214.000000
0
VERTEX
8
0
10
289.000000
20
221.000000
0
VERTEX
8
0
10
289.000000
20
222.000000
0
VERTEX
8
0
10
297.000000
20
238.000000
0
VERTEX
8
0
10
297.000000
20
242.000000
0
VERTEX
8
0
10
291.223757
20
247.248619
0
VERTEX
8
0
10
281.776243
20
255.751381
0
VERTEX
8
0
10
259.100000
20
273.200000
0
VERTEX
8
0
10
256.000000
20
275.000000
0
VERTEX
8
0
10
252.000000
20
275.000000
0
VERTEX
8
0
10
248.100000
20
272.800000
0
VERTEX
8
0
10
246.900000
20
272.200000
0
VERTEX
8
0
10
240.000000
20
266.000000
0
VERTEX
8
0
10
239.800000
20
265.100000
0
VERTEX
8
0
10
238.445545
20
261.955446
0
VERTEX
8
0
10
236.000000
20
243.000000
0
VERTEX
8
0
10
251.200000
20
210.100000
0
VERTEX
8
0
10
253.000000
20
207.000000
0
VERTEX
8
0
10
253.000000
20
205.000000
0
VERTEX
8
0
10
248.000000
20
202.000000
0
VERTEX
8
0
10
231.000000
20
203.000000
0
VERTEX
8
0
10
230.000000
20
202.000000
0
VERTEX
8
0
10
245.788235
20
189.752941
0
VERTEX
8
0
10
258.000000
20
179.000000
0
VERTEX
8
0
10
259.700000
20
173.900000
0
VERTEX
8
0
10
261.000000
20
171.000000
0
VERTEX
8
0
10
259.352941
20
161.911765
0
VERTEX
8
0
10
259.000000
20
159.000000
0
VERTEX
8
0
10
256.000000
20
156.000000
0
VERTEX
8
0
10
244.180000
20
165.240000
0
VERTEX
8
0
10
240.820000
20
167.760000
0
VERTEX
8
0
10
231.000000
20
174.000000
0
VERTEX
8
0
10
230.000000
20
173.000000
0
VERTEX
8
0
10
243.750594
20
158.767221
0
VERTEX
8
0
10
251.558824
20
148.735294
0
VERTEX
8
0
10
253.000000
20
146.000000
0
VERTEX
8
0
10
249.384615
20
134.923077
0
VERTEX
8
0
10
249.000000
20
131.000000
0
VERTEX
8
0
10
247.000000
20
129.000000
0
VERTEX
8
0
10
241.846154
20
131.769231
0
VERTEX
8
0
10
241.000000
20
132.000000
0
SEQEND
0
POLYLINE
8
0
6
CONTINUOUS
66
1
62
7
10
0.0
20
0.0
30
0.000000
0
VERTEX
8
0
10
373.000000
20
47.000000
0
VERTEX
8
0
10
418.076923
20
52.615385
0
VERTEX
8
0
10
421.923077
20
53.384615
0
VERTEX
8
0
10
458.900000
20
62.200000
0
VERTEX
8
0
10
474.900000
20
68.300000
0
VERTEX
8
0
10
503.846154
20
80.230769
0
VERTEX
8
0
10
518.100000
20
88.800000
0
VERTEX
8
0
10
540.804878
20
102.243902
0
VERTEX
8
0
10
577.000000
20
132.000000
0
VERTEX
8
0
10
593.247059
20
150.788235
0
VERTEX
8
0
10
612.756098
20
174.195122
0
VERTEX
8
0
10
629.800000
20
203.100000
0
VERTEX
8
0
10
635.200000
20
211.900000
0
VERTEX
8
0
10
651.300000
20
250.900000
0
VERTEX
8
0
10
655.647059
20
263.088235
0
VERTEX
8
0
10
656.352941
20
265.911765
0
VERTEX
8
0
10
664.554455
20
302.044554
0
VERTEX
8
0
10
667.461929
20
339.967005
0
VERTEX
8
0
10
668.000000
20
354.000000
0
VERTEX
8
0
10
665.538071
20
380.967005
0
VERTEX
8
0
10
659.384615
20
417.076923
0
VERTEX
8
0
10
657.615385
20
425.923077
0
VERTEX
8
0
10
643.800000
20
464.900000
0
VERTEX
8
0
10
642.200000
20
469.100000
0
VERTEX
8
0
10
621.760000
20
507.820000
0
VERTEX
8
0
10
595.240000
20
543.180000
0
VERTEX
8
0
10
561.000000
20
578.000000
0
VERTEX
8
0
10
528.820000
20
601.760000
0
VERTEX
8
0
10
517.900000
20
607.800000
0
VERTEX
8
0
10
502.100000
20
616.200000
0
VERTEX
8
0
10
483.900000
20
624.700000
0
VERTEX
8
0
10
462.100000
20
632.300000
0
VERTEX
8
0
10
445.923077
20
637.615385
0
VERTEX
8
0
10
432.076923
20
640.384615
0
VERTEX
8
0
10
410.250000
20
645.250000
0
VERTEX
8
0
10
408.384615
20
658.076923
0
VERTEX
8
0
10
405.800000
20
666.900000
0
VERTEX
8
0
10
399.000000
20
678.000000
0
VERTEX
8
0
10
390.153846
20
684.230769
0
VERTEX
8
0
10
387.846154
20
685.769231
0
VERTEX
8
0
10
380.900000
20
688.700000
0
VERTEX
8
0
10
379.100000
20
689.300000
0
VERTEX
8
0
10
375.000000
20
691.000000
0
VERTEX
8
0
10
360.000000
20
691.000000
0
VERTEX
8
0
10
354.100000
20
688.700000
0
VERTEX
8
0
10
352.900000
20
688.300000
0
VERTEX
8
0
10
347.153846
20
685.769231
0
VERTEX
8
0
10
338.000000
20
680.000000
0
VERTEX
8
0
10
329.800000
20
668.100000
0
VERTEX
8
0
10
327.352941
20
661.911765
0
VERTEX
8
0
10
324.000000
20
645.000000
0
VERTEX
8
0
10
313.076923
20
642.615385
0
VERTEX
8
0
10
280.900000
20
635.300000
0
VERTEX
8
0
10
262.100000
20
628.700000
0
VERTEX
8
0
10
242.100000
20
620.800000
0
VERTEX
8
0
10
228.900000
20
614.200000
0
VERTEX
8
0
10
206.180000
20
601.760000
0
VERTEX
8
0
10
174.000000
20
578.000000
0
VERTEX
8
0
10
138.760000
20
542.180000
0
VERTEX
8
0
10
115.240000
20
510.820000
0
VERTEX
8
0
10
95.200000
20
473.900000
0
VERTEX
8
0
10
94.800000
20
473.100000
0
VERTEX
8
0
10
78.700000
20
431.100000
0
VERTEX
8
0
10
70.439024
20
389.951220
0
VERTEX
8
0
10
67.000000
20
354.000000
0
VERTEX
8
0
10
69.560976
20
313.951220
0
VERTEX
8
0
10
72.384615
20
296.076923
0
VERTEX
8
0
10
79.700000
20
262.900000
0
VERTEX
8
0
10
88.300000
20
238.100000
0
VERTEX
8
0
10
94.200000
20
223.100000
0
VERTEX
8
0
10
102.800000
20
206.900000
0
VERTEX
8
0
10
114.240000
20
186.180000
0
VERTEX
8
0
10
137.760000
20
154.820000
0
VERTEX
8
0
10
173.000000
20
119.000000
0
VERTEX
8
0
10
209.180000
20
92.240000
0
VERTEX
8
0
10
219.100000
20
87.200000
0
VERTEX
8
0
10
237.100000
20
78.200000
0
VERTEX
8
0
10
255.900000
20
69.700000
0
VERTEX
8
0
10
282.900000
20
59.700000
0
VERTEX
8
0
10
293.923077
20
56.615385
0
VERTEX
8
0
10
303.923077
20
54.615385
0
VERTEX
8
0
10
335.032995
20
49.461929
0
VERTEX
8
0
10
373.000000
20
47.000000
0
SEQEND
0
ENDSEC
0
EOF
