0
SECTION
2
HEADER
9
$ACADVER
1
AC1003
9
$INSBASE
10
0.0
20
0.0
30
0.0
9
$EXTMIN
10
0.000
20
0.000
30
0.0
9
$EXTMAX
10
638.000
20
673.000
30
0.0
9
$LIMMIN
10
0.000
20
0.000
9
$LIMMAX
10
638.000
20
673.000
9
$LTSCALE
40
1.0
9
$LUNITS
70
2
9
$LUPREC
70
3
9
$LIMCHECK
70
0
9
$UCSNAME
2

9
$UCSORG
10
0.0
20
0.0
30
0.0
9
$UCSXDIR
10
1.0
20
0.0
30
0.0
9
$UCSYDIR
10
0.0
20
1.0
30
0.0
9
$WORLDVIEW
70
1
9
$UNITMODE
70
0
0
ENDSEC
0
SECTION
2
TABLES
0
TABLE
2
VPORT
70
1
0
VPORT
2
*ACTIVE
70
0
10
0.0
20
0.0
11
1.0
21
1.0
12
319.000
22
336.500
13
0.0
23
0.0
14
1.0
24
1.0
15
0.0
25
0.0
16
0.0
26
0.0
36
1.0
17
0.0
27
0.0
37
0.0
40
500.0
41
1.055
42
50.0
43
0.0
44
0.0
50
0.0
51
0.0
71
0
72
100
73
1
74
1
75
0
76
0
77
0
78
0
0
ENDTAB
0
TABLE
2
LTYPE
70
1
0
LTYPE
2
CONTINUOUS
70
64
3
Solid line
72
65
73
0
40
0.000
0
ENDTAB
0
TABLE
2
LAYER
70
1
0
LAYER
2
0
70
64
62
7
6
CONTINUOUS
0
ENDTAB
0
ENDSEC
0
SECTION
2
BLOCKS
0
ENDSEC
0
SECTION
2
ENTITIES
0
POLYLINE
8
0
6
CONTINUOUS
66
1
62
7
10
0.0
20
0.0
30
0.000000
0
VERTEX
8
0
10
321.000000
20
605.000000
0
VERTEX
8
0
10
323.000000
20
606.000000
0
VERTEX
8
0
10
328.200000
20
611.900000
0
VERTEX
8
0
10
329.000000
20
613.000000
0
VERTEX
8
0
10
329.000000
20
620.000000
0
VERTEX
8
0
10
327.769231
20
621.846154
0
VERTEX
8
0
10
326.000000
20
625.000000
0
VERTEX
8
0
10
324.153846
20
626.230769
0
VERTEX
8
0
10
322.000000
20
628.000000
0
VERTEX
8
0
10
313.000000
20
628.000000
0
VERTEX
8
0
10
310.000000
20
626.000000
0
VERTEX
8
0
10
307.769231
20
623.153846
0
VERTEX
8
0
10
306.000000
20
621.000000
0
VERTEX
8
0
10
306.000000
20
612.000000
0
VERTEX
8
0
10
308.000000
20
609.000000
0
VERTEX
8
0
10
314.053846
20
605.430769
0
VERTEX
8
0
10
321.000000
20
605.000000
0
SEQEND
0
POLYLINE
8
0
6
CONTINUOUS
66
1
62
7
10
0.0
20
0.0
30
0.000000
0
VERTEX
8
0
10
455.000000
20
473.000000
0
VERTEX
8
0
10
453.000000
20
474.000000
0
SEQEND
0
POLYLINE
8
0
6
CONTINUOUS
66
1
62
7
10
0.0
20
0.0
30
0.000000
0
VERTEX
8
0
10
457.000000
20
472.000000
0
VERTEX
8
0
10
455.000000
20
473.000000
0
SEQEND
0
POLYLINE
8
0
6
CONTINUOUS
66
1
62
7
10
0.0
20
0.0
30
0.000000
0
VERTEX
8
0
10
456.000000
20
471.000000
0
VERTEX
8
0
10
455.000000
20
473.000000
0
SEQEND
0
POLYLINE
8
0
6
CONTINUOUS
66
1
62
7
10
0.0
20
0.0
30
0.000000
0
VERTEX
8
0
10
456.000000
20
471.000000
0
VERTEX
8
0
10
457.000000
20
472.000000
0
SEQEND
0
POLYLINE
8
0
6
CONTINUOUS
66
1
62
7
10
0.0
20
0.0
30
0.000000
0
VERTEX
8
0
10
175.000000
20
429.000000
0
VERTEX
8
0
10
181.000000
20
431.000000
0
VERTEX
8
0
10
190.245902
20
441.795082
0
VERTEX
8
0
10
199.000000
20
452.000000
0
VERTEX
8
0
10
206.100000
20
455.800000
0
VERTEX
8
0
10
206.846154
20
456.230769
0
VERTEX
8
0
10
218.000000
20
463.000000
0
VERTEX
8
0
10
218.230769
20
463.846154
0
VERTEX
8
0
10
221.000000
20
469.000000
0
VERTEX
8
0
10
221.000000
20
473.000000
0
VERTEX
8
0
10
217.200000
20
485.100000
0
VERTEX
8
0
10
216.200000
20
487.100000
0
VERTEX
8
0
10
207.000000
20
501.000000
0
VERTEX
8
0
10
204.000000
20
504.000000
0
VERTEX
8
0
10
193.900000
20
509.800000
0
VERTEX
8
0
10
193.100000
20
510.200000
0
VERTEX
8
0
10
189.000000
20
512.000000
0
VERTEX
8
0
10
179.000000
20
512.000000
0
VERTEX
8
0
10
175.088235
20
510.647059
0
VERTEX
8
0
10
163.900000
20
507.200000
0
VERTEX
8
0
10
156.820000
20
502.240000
0
VERTEX
8
0
10
150.000000
20
496.000000
0
VERTEX
8
0
10
145.245902
20
489.795082
0
VERTEX
8
0
10
139.300000
20
478.900000
0
VERTEX
8
0
10
138.700000
20
477.100000
0
VERTEX
8
0
10
137.000000
20
470.000000
0
VERTEX
8
0
10
137.000000
20
465.000000
0
VERTEX
8
0
10
138.352941
20
461.088235
0
VERTEX
8
0
10
138.647059
20
459.911765
0
VERTEX
8
0
10
141.240000
20
453.180000
0
VERTEX
8
0
10
147.000000
20
445.000000
0
VERTEX
8
0
10
155.820000
20
437.760000
0
VERTEX
8
0
10
159.846154
20
434.769231
0
VERTEX
8
0
10
168.088235
20
430.352941
0
VERTEX
8
0
10
175.000000
20
429.000000
0
SEQEND
0
POLYLINE
8
0
6
CONTINUOUS
66
1
62
7
10
0.0
20
0.0
30
0.000000
0
VERTEX
8
0
10
351.000000
20
313.000000
0
VERTEX
8
0
10
363.000000
20
320.000000
0
VERTEX
8
0
10
365.230769
20
322.846154
0
VERTEX
8
0
10
367.230769
20
325.846154
0
VERTEX
8
0
10
370.647059
20
332.088235
0
VERTEX
8
0
10
372.352941
20
338.911765
0
VERTEX
8
0
10
373.000000
20
340.000000
0
VERTEX
8
0
10
373.000000
20
346.000000
0
VERTEX
8
0
10
369.800000
20
358.900000
0
VERTEX
8
0
10
369.300000
20
360.100000
0
VERTEX
8
0
10
366.760000
20
366.820000
0
VERTEX
8
0
10
359.245902
20
376.204918
0
VERTEX
8
0
10
355.180000
20
380.240000
0
VERTEX
8
0
10
347.820000
20
385.760000
0
VERTEX
8
0
10
337.000000
20
389.000000
0
VERTEX
8
0
10
328.923077
20
388.384615
0
VERTEX
8
0
10
325.000000
20
388.000000
0
VERTEX
8
0
10
317.000000
20
380.000000
0
VERTEX
8
0
10
314.240000
20
375.820000
0
VERTEX
8
0
10
311.300000
20
369.900000
0
VERTEX
8
0
10
310.700000
20
368.100000
0
VERTEX
8
0
10
309.000000
20
363.000000
0
VERTEX
8
0
10
309.000000
20
355.000000
0
VERTEX
8
0
10
318.240000
20
340.180000
0
VERTEX
8
0
10
320.760000
20
336.820000
0
VERTEX
8
0
10
335.000000
20
321.000000
0
VERTEX
8
0
10
344.100000
20
315.300000
0
VERTEX
8
0
10
351.000000
20
313.000000
0
SEQEND
0
POLYLINE
8
0
6
CONTINUOUS
66
1
62
7
10
0.0
20
0.0
30
0.000000
0
VERTEX
8
0
10
223.000000
20
296.000000
0
VERTEX
8
0
10
228.100000
20
298.800000
0
VERTEX
8
0
10
239.000000
20
307.000000
0
VERTEX
8
0
10
245.760000
20
316.180000
0
VERTEX
8
0
10
256.800000
20
339.100000
0
VERTEX
8
0
10
257.200000
20
339.900000
0
VERTEX
8
0
10
258.000000
20
341.000000
0
VERTEX
8
0
10
258.000000
20
351.000000
0
VERTEX
8
0
10
252.760000
20
360.820000
0
VERTEX
8
0
10
250.000000
20
365.000000
0
VERTEX
8
0
10
240.000000
20
373.000000
0
VERTEX
8
0
10
228.000000
20
373.000000
0
VERTEX
8
0
10
215.000000
20
367.000000
0
VERTEX
8
0
10
206.000000
20
358.000000
0
VERTEX
8
0
10
204.230769
20
354.846154
0
VERTEX
8
0
10
202.800000
20
352.100000
0
VERTEX
8
0
10
199.647059
20
342.088235
0
VERTEX
8
0
10
198.647059
20
338.088235
0
VERTEX
8
0
10
197.000000
20
322.000000
0
VERTEX
8
0
10
201.800000
20
310.900000
0
VERTEX
8
0
10
207.000000
20
303.000000
0
VERTEX
8
0
10
211.846154
20
299.769231
0
VERTEX
8
0
10
217.088235
20
297.352941
0
VERTEX
8
0
10
223.000000
20
296.000000
0
SEQEND
0
POLYLINE
8
0
6
CONTINUOUS
66
1
62
7
10
0.0
20
0.0
30
0.000000
0
VERTEX
8
0
10
296.000000
20
260.000000
0
VERTEX
8
0
10
297.100000
20
260.800000
0
VERTEX
8
0
10
305.000000
20
269.000000
0
VERTEX
8
0
10
312.153846
20
273.769231
0
VERTEX
8
0
10
316.100000
20
275.800000
0
VERTEX
8
0
10
321.000000
20
280.000000
0
VERTEX
8
0
10
322.000000
20
283.000000
0
VERTEX
8
0
10
321.200000
20
286.100000
0
VERTEX
8
0
10
320.800000
20
286.900000
0
VERTEX
8
0
10
319.000000
20
290.000000
0
VERTEX
8
0
10
318.100000
20
290.200000
0
VERTEX
8
0
10
312.000000
20
292.000000
0
VERTEX
8
0
10
303.000000
20
292.000000
0
VERTEX
8
0
10
277.911765
20
287.352941
0
VERTEX
8
0
10
273.000000
20
286.000000
0
VERTEX
8
0
10
268.000000
20
281.000000
0
VERTEX
8
0
10
266.000000
20
277.000000
0
VERTEX
8
0
10
267.000000
20
273.000000
0
VERTEX
8
0
10
269.000000
20
271.000000
0
VERTEX
8
0
10
277.088235
20
269.352941
0
VERTEX
8
0
10
283.911765
20
267.647059
0
VERTEX
8
0
10
289.820000
20
264.760000
0
VERTEX
8
0
10
296.000000
20
260.000000
0
SEQEND
0
POLYLINE
8
0
6
CONTINUOUS
66
1
62
7
10
0.0
20
0.0
30
0.000000
0
VERTEX
8
0
10
455.000000
20
256.000000
0
VERTEX
8
0
10
454.000000
20
257.000000
0
SEQEND
0
POLYLINE
8
0
6
CONTINUOUS
66
1
62
7
10
0.0
20
0.0
30
0.000000
0
VERTEX
8
0
10
455.000000
20
256.000000
0
VERTEX
8
0
10
469.000000
20
268.000000
0
VERTEX
8
0
10
482.000000
20
281.000000
0
VERTEX
8
0
10
493.769231
20
299.153846
0
VERTEX
8
0
10
495.230769
20
301.846154
0
VERTEX
8
0
10
500.700000
20
312.100000
0
VERTEX
8
0
10
502.200000
20
315.900000
0
VERTEX
8
0
10
508.594595
20
334.067568
0
VERTEX
8
0
10
510.455172
20
350.962069
0
VERTEX
8
0
10
511.000000
20
384.000000
0
VERTEX
8
0
10
501.700000
20
414.900000
0
VERTEX
8
0
10
494.769231
20
427.846154
0
VERTEX
8
0
10
491.200000
20
434.100000
0
VERTEX
8
0
10
478.000000
20
451.000000
0
VERTEX
8
0
10
456.000000
20
471.000000
0
SEQEND
0
POLYLINE
8
0
6
CONTINUOUS
66
1
62
7
10
0.0
20
0.0
30
0.000000
0
VERTEX
8
0
10
454.000000
20
257.000000
0
VERTEX
8
0
10
453.000000
20
256.000000
0
VERTEX
8
0
10
454.000000
20
255.000000
0
VERTEX
8
0
10
455.000000
20
256.000000
0
SEQEND
0
POLYLINE
8
0
6
CONTINUOUS
66
1
62
7
10
0.0
20
0.0
30
0.000000
0
VERTEX
8
0
10
298.000000
20
231.000000
0
VERTEX
8
0
10
308.100000
20
233.800000
0
VERTEX
8
0
10
317.000000
20
240.000000
0
VERTEX
8
0
10
317.230769
20
240.846154
0
VERTEX
8
0
10
320.000000
20
245.000000
0
VERTEX
8
0
10
319.000000
20
246.000000
0
VERTEX
8
0
10
294.940000
20
242.420000
0
VERTEX
8
0
10
277.000000
20
240.000000
0
VERTEX
8
0
10
276.000000
20
239.000000
0
VERTEX
8
0
10
281.846154
20
234.769231
0
VERTEX
8
0
10
284.153846
20
233.230769
0
VERTEX
8
0
10
292.060000
20
231.420000
0
VERTEX
8
0
10
298.000000
20
231.000000
0
SEQEND
0
POLYLINE
8
0
6
CONTINUOUS
66
1
62
7
10
0.0
20
0.0
30
0.000000
0
VERTEX
8
0
10
454.000000
20
257.000000
0
VERTEX
8
0
10
454.300000
20
258.900000
0
VERTEX
8
0
10
458.000000
20
276.000000
0
VERTEX
8
0
10
458.000000
20
282.000000
0
VERTEX
8
0
10
454.647059
20
302.911765
0
VERTEX
8
0
10
453.647059
20
306.911765
0
VERTEX
8
0
10
453.430769
20
361.053846
0
VERTEX
8
0
10
452.420000
20
369.060000
0
VERTEX
8
0
10
447.647059
20
393.911765
0
VERTEX
8
0
10
443.300000
20
405.100000
0
VERTEX
8
0
10
439.769231
20
412.846154
0
VERTEX
8
0
10
432.200000
20
425.100000
0
VERTEX
8
0
10
421.000000
20
439.000000
0
VERTEX
8
0
10
401.779310
20
456.751724
0
VERTEX
8
0
10
396.900000
20
459.800000
0
VERTEX
8
0
10
393.153846
20
462.230769
0
VERTEX
8
0
10
389.000000
20
465.000000
0
VERTEX
8
0
10
389.000000
20
466.000000
0
VERTEX
8
0
10
395.200000
20
476.900000
0
VERTEX
8
0
10
401.000000
20
492.000000
0
VERTEX
8
0
10
399.594595
20
500.932432
0
VERTEX
8
0
10
395.754098
20
508.795082
0
VERTEX
8
0
10
391.000000
20
515.000000
0
VERTEX
8
0
10
375.153846
20
528.230769
0
VERTEX
8
0
10
372.100000
20
530.200000
0
VERTEX
8
0
10
366.932432
20
532.594595
0
VERTEX
8
0
10
361.000000
20
534.000000
0
VERTEX
8
0
10
348.000000
20
534.000000
0
VERTEX
8
0
10
334.900000
20
528.200000
0
VERTEX
8
0
10
332.000000
20
527.000000
0
VERTEX
8
0
10
323.000000
20
518.000000
0
VERTEX
8
0
10
318.352941
20
507.911765
0
VERTEX
8
0
10
317.647059
20
505.088235
0
VERTEX
8
0
10
315.000000
20
492.000000
0
VERTEX
8
0
10
315.000000
20
484.000000
0
VERTEX
8
0
10
315.647059
20
482.911765
0
VERTEX
8
0
10
317.000000
20
478.000000
0
VERTEX
8
0
10
323.180000
20
473.240000
0
VERTEX
8
0
10
334.100000
20
468.300000
0
VERTEX
8
0
10
343.100000
20
464.200000
0
VERTEX
8
0
10
358.153846
20
454.230769
0
VERTEX
8
0
10
365.200000
20
449.600000
0
VERTEX
8
0
10
376.900000
20
454.300000
0
VERTEX
8
0
10
378.000000
20
455.000000
0
VERTEX
8
0
10
379.000000
20
455.000000
0
VERTEX
8
0
10
382.000000
20
452.000000
0
VERTEX
8
0
10
399.769231
20
422.846154
0
VERTEX
8
0
10
401.200000
20
420.100000
0
VERTEX
8
0
10
406.647059
20
400.911765
0
VERTEX
8
0
10
408.384615
20
393.076923
0
VERTEX
8
0
10
411.000000
20
383.000000
0
VERTEX
8
0
10
411.000000
20
356.000000
0
VERTEX
8
0
10
407.647059
20
336.088235
0
VERTEX
8
0
10
402.800000
20
324.100000
0
VERTEX
8
0
10
399.200000
20
316.900000
0
VERTEX
8
0
10
395.000000
20
311.000000
0
VERTEX
8
0
10
384.000000
20
300.000000
0
VERTEX
8
0
10
358.900000
20
287.300000
0
VERTEX
8
0
10
341.000000
20
279.000000
0
VERTEX
8
0
10
339.000000
20
277.000000
0
VERTEX
8
0
10
335.300000
20
266.900000
0
VERTEX
8
0
10
331.000000
20
259.000000
0
VERTEX
8
0
10
320.000000
20
253.000000
0
VERTEX
8
0
10
317.000000
20
253.000000
0
VERTEX
8
0
10
302.000000
20
256.000000
0
VERTEX
8
0
10
295.000000
20
256.000000
0
VERTEX
8
0
10
291.100000
20
253.800000
0
VERTEX
8
0
10
274.000000
20
247.000000
0
VERTEX
8
0
10
271.000000
20
247.000000
0
VERTEX
8
0
10
267.100000
20
249.200000
0
VERTEX
8
0
10
265.900000
20
249.800000
0
VERTEX
8
0
10
262.000000
20
253.000000
0
VERTEX
8
0
10
258.243902
20
258.195122
0
VERTEX
8
0
10
252.000000
20
265.000000
0
VERTEX
8
0
10
249.900000
20
265.800000
0
VERTEX
8
0
10
239.962069
20
267.544828
0
VERTEX
8
0
10
213.067568
20
270.405405
0
VERTEX
8
0
10
190.846154
20
281.769231
0
VERTEX
8
0
10
180.000000
20
289.000000
0
VERTEX
8
0
10
177.760000
20
291.820000
0
VERTEX
8
0
10
169.800000
20
302.900000
0
VERTEX
8
0
10
160.300000
20
324.100000
0
VERTEX
8
0
10
156.700000
20
335.900000
0
VERTEX
8
0
10
154.420000
20
345.060000
0
VERTEX
8
0
10
152.580000
20
357.940000
0
VERTEX
8
0
10
152.000000
20
372.000000
0
VERTEX
8
0
10
151.000000
20
373.000000
0
VERTEX
8
0
10
149.800000
20
371.100000
0
VERTEX
8
0
10
143.352941
20
358.911765
0
VERTEX
8
0
10
138.647059
20
340.088235
0
VERTEX
8
0
10
137.000000
20
335.000000
0
VERTEX
8
0
10
137.000000
20
291.000000
0
VERTEX
8
0
10
140.569231
20
251.946154
0
VERTEX
8
0
10
141.430769
20
245.053846
0
VERTEX
8
0
10
145.352941
20
226.088235
0
VERTEX
8
0
10
152.352941
20
198.088235
0
VERTEX
8
0
10
161.800000
20
169.900000
0
VERTEX
8
0
10
169.769231
20
154.846154
0
VERTEX
8
0
10
183.247788
20
135.216814
0
VERTEX
8
0
10
190.000000
20
127.000000
0
VERTEX
8
0
10
198.820000
20
119.760000
0
VERTEX
8
0
10
202.180000
20
117.240000
0
VERTEX
8
0
10
213.100000
20
110.200000
0
VERTEX
8
0
10
220.100000
20
107.200000
0
VERTEX
8
0
10
236.000000
20
104.000000
0
VERTEX
8
0
10
243.000000
20
104.000000
0
VERTEX
8
0
10
253.900000
20
107.200000
0
VERTEX
8
0
10
262.000000
20
112.000000
0
VERTEX
8
0
10
262.200000
20
112.900000
0
VERTEX
8
0
10
265.000000
20
122.000000
0
VERTEX
8
0
10
265.000000
20
139.000000
0
VERTEX
8
0
10
258.000000
20
186.000000
0
VERTEX
8
0
10
258.000000
20
195.000000
0
VERTEX
8
0
10
261.000000
20
210.000000
0
VERTEX
8
0
10
265.000000
20
214.000000
0
VERTEX
8
0
10
273.000000
20
217.000000
0
VERTEX
8
0
10
276.000000
20
217.000000
0
VERTEX
8
0
10
283.000000
20
214.000000
0
VERTEX
8
0
10
285.200000
20
211.100000
0
VERTEX
8
0
10
291.000000
20
201.000000
0
VERTEX
8
0
10
291.000000
20
173.000000
0
VERTEX
8
0
10
289.544828
20
161.037931
0
VERTEX
8
0
10
288.541176
20
148.035294
0
VERTEX
8
0
10
285.594595
20
128.067568
0
VERTEX
8
0
10
285.352941
20
126.911765
0
VERTEX
8
0
10
276.000000
20
96.000000
0
VERTEX
8
0
10
277.200000
20
94.100000
0
VERTEX
8
0
10
280.000000
20
90.000000
0
VERTEX
8
0
10
282.846154
20
88.769231
0
VERTEX
8
0
10
287.088235
20
86.352941
0
VERTEX
8
0
10
299.000000
20
84.000000
0
VERTEX
8
0
10
325.000000
20
84.000000
0
VERTEX
8
0
10
336.932432
20
86.405405
0
VERTEX
8
0
10
344.900000
20
89.200000
0
VERTEX
8
0
10
353.100000
20
92.800000
0
VERTEX
8
0
10
364.000000
20
101.000000
0
VERTEX
8
0
10
371.000000
20
108.000000
0
VERTEX
8
0
10
389.756098
20
130.195122
0
VERTEX
8
0
10
417.800000
20
178.100000
0
VERTEX
8
0
10
418.200000
20
178.900000
0
VERTEX
8
0
10
428.000000
20
199.000000
0
VERTEX
8
0
10
429.000000
20
198.000000
0
VERTEX
8
0
10
429.000000
20
192.000000
0
VERTEX
8
0
10
425.647059
20
180.088235
0
VERTEX
8
0
10
421.000000
20
158.000000
0
VERTEX
8
0
10
421.000000
20
147.000000
0
VERTEX
8
0
10
422.820000
20
145.760000
0
VERTEX
8
0
10
426.180000
20
143.240000
0
VERTEX
8
0
10
440.000000
20
139.000000
0
VERTEX
8
0
10
451.000000
20
139.000000
0
VERTEX
8
0
10
470.911765
20
142.352941
0
VERTEX
8
0
10
474.911765
20
143.352941
0
VERTEX
8
0
10
479.820000
20
146.240000
0
VERTEX
8
0
10
483.180000
20
148.760000
0
VERTEX
8
0
10
493.000000
20
157.000000
0
VERTEX
8
0
10
502.760000
20
170.180000
0
VERTEX
8
0
10
510.700000
20
186.100000
0
VERTEX
8
0
10
518.700000
20
203.100000
0
VERTEX
8
0
10
527.594595
20
234.067568
0
VERTEX
8
0
10
528.405405
20
238.932432
0
VERTEX
8
0
10
529.483902
20
270.984878
0
VERTEX
8
0
10
536.405405
20
305.932432
0
VERTEX
8
0
10
537.405405
20
311.932432
0
VERTEX
8
0
10
539.000000
20
320.000000
0
VERTEX
8
0
10
539.000000
20
331.000000
0
VERTEX
8
0
10
535.560976
20
362.951220
0
VERTEX
8
0
10
533.200000
20
379.100000
0
VERTEX
8
0
10
529.700000
20
387.900000
0
VERTEX
8
0
10
517.800000
20
412.900000
0
VERTEX
8
0
10
516.200000
20
416.100000
0
VERTEX
8
0
10
506.754098
20
430.795082
0
VERTEX
8
0
10
498.000000
20
442.000000
0
VERTEX
8
0
10
483.204918
20
455.245902
0
VERTEX
8
0
10
477.795082
20
459.754098
0
VERTEX
8
0
10
457.900000
20
471.800000
0
VERTEX
8
0
10
457.000000
20
472.000000
0
SEQEND
0
POLYLINE
8
0
6
CONTINUOUS
66
1
62
7
10
0.0
20
0.0
30
0.000000
0
VERTEX
8
0
10
324.000000
20
34.000000
0
VERTEX
8
0
10
361.955446
20
37.445545
0
VERTEX
8
0
10
370.911765
20
39.352941
0
VERTEX
8
0
10
382.076923
20
41.615385
0
VERTEX
8
0
10
405.900000
20
47.200000
0
VERTEX
8
0
10
424.100000
20
54.800000
0
VERTEX
8
0
10
449.846154
20
66.230769
0
VERTEX
8
0
10
464.153846
20
74.769231
0
VERTEX
8
0
10
485.804878
20
87.243902
0
VERTEX
8
0
10
521.000000
20
116.000000
0
VERTEX
8
0
10
532.245902
20
128.795082
0
VERTEX
8
0
10
555.756098
20
157.195122
0
VERTEX
8
0
10
570.769231
20
182.153846
0
VERTEX
8
0
10
577.200000
20
192.900000
0
VERTEX
8
0
10
591.700000
20
228.100000
0
VERTEX
8
0
10
597.352941
20
244.911765
0
VERTEX
8
0
10
605.554455
20
281.044554
0
VERTEX
8
0
10
608.461929
20
317.967005
0
VERTEX
8
0
10
609.000000
20
331.000000
0
VERTEX
8
0
10
606.538071
20
357.967005
0
VERTEX
8
0
10
603.352941
20
377.088235
0
VERTEX
8
0
10
598.352941
20
400.088235
0
VERTEX
8
0
10
587.700000
20
430.900000
0
VERTEX
8
0
10
582.700000
20
443.900000
0
VERTEX
8
0
10
572.800000
20
462.900000
0
VERTEX
8
0
10
563.200000
20
481.100000
0
VERTEX
8
0
10
553.240000
20
495.180000
0
VERTEX
8
0
10
546.240000
20
504.180000
0
VERTEX
8
0
10
536.000000
20
518.000000
0
VERTEX
8
0
10
499.776243
20
551.751381
0
VERTEX
8
0
10
469.820000
20
572.760000
0
VERTEX
8
0
10
428.900000
20
593.800000
0
VERTEX
8
0
10
398.900000
20
603.700000
0
VERTEX
8
0
10
391.100000
20
606.300000
0
VERTEX
8
0
10
376.932432
20
609.594595
0
VERTEX
8
0
10
359.932432
20
612.594595
0
VERTEX
8
0
10
349.000000
20
614.000000
0
VERTEX
8
0
10
347.000000
20
616.000000
0
VERTEX
8
0
10
345.352941
20
623.088235
0
VERTEX
8
0
10
344.647059
20
625.911765
0
VERTEX
8
0
10
339.000000
20
636.000000
0
VERTEX
8
0
10
336.000000
20
639.000000
0
VERTEX
8
0
10
330.900000
20
641.800000
0
VERTEX
8
0
10
330.100000
20
642.200000
0
VERTEX
8
0
10
324.000000
20
645.000000
0
VERTEX
8
0
10
312.000000
20
645.000000
0
VERTEX
8
0
10
305.100000
20
642.700000
0
VERTEX
8
0
10
303.900000
20
642.200000
0
VERTEX
8
0
10
294.000000
20
634.000000
0
VERTEX
8
0
10
290.800000
20
628.100000
0
VERTEX
8
0
10
289.420000
20
624.940000
0
VERTEX
8
0
10
288.000000
20
616.000000
0
VERTEX
8
0
10
286.000000
20
614.000000
0
VERTEX
8
0
10
262.932432
20
610.405405
0
VERTEX
8
0
10
250.911765
20
608.352941
0
VERTEX
8
0
10
206.100000
20
593.800000
0
VERTEX
8
0
10
170.900000
20
576.200000
0
VERTEX
8
0
10
138.820000
20
554.240000
0
VERTEX
8
0
10
109.000000
20
528.000000
0
VERTEX
8
0
10
99.000000
20
518.000000
0
VERTEX
8
0
10
72.200000
20
481.900000
0
VERTEX
8
0
10
68.800000
20
475.100000
0
VERTEX
8
0
10
51.300000
20
441.900000
0
VERTEX
8
0
10
48.800000
20
435.100000
0
VERTEX
8
0
10
37.352941
20
402.911765
0
VERTEX
8
0
10
34.647059
20
391.088235
0
VERTEX
8
0
10
29.439024
20
366.951220
0
VERTEX
8
0
10
26.000000
20
331.000000
0
VERTEX
8
0
10
26.541176
20
317.964706
0
VERTEX
8
0
10
29.439024
20
285.048780
0
VERTEX
8
0
10
37.352941
20
246.088235
0
VERTEX
8
0
10
43.800000
20
227.900000
0
VERTEX
8
0
10
53.200000
20
204.100000
0
VERTEX
8
0
10
57.800000
20
194.900000
0
VERTEX
8
0
10
72.240000
20
168.180000
0
VERTEX
8
0
10
86.760000
20
148.820000
0
VERTEX
8
0
10
96.000000
20
136.000000
0
VERTEX
8
0
10
129.000000
20
103.000000
0
VERTEX
8
0
10
161.180000
20
79.240000
0
VERTEX
8
0
10
170.100000
20
74.200000
0
VERTEX
8
0
10
187.900000
20
64.800000
0
VERTEX
8
0
10
208.100000
20
55.300000
0
VERTEX
8
0
10
234.900000
20
45.800000
0
VERTEX
8
0
10
246.923077
20
42.615385
0
VERTEX
8
0
10
256.923077
20
40.615385
0
VERTEX
8
0
10
277.037931
20
36.455172
0
VERTEX
8
0
10
324.000000
20
34.000000
0
SEQEND
0
ENDSEC
0
EOF
