0
SECTION
2
HEADER
9
$ACADVER
1
AC1003
9
$INSBASE
10
0.0
20
0.0
30
0.0
9
$EXTMIN
10
0.000
20
0.000
30
0.0
9
$EXTMAX
10
980.000
20
806.000
30
0.0
9
$LIMMIN
10
0.000
20
0.000
9
$LIMMAX
10
980.000
20
806.000
9
$LTSCALE
40
1.0
9
$LUNITS
70
2
9
$LUPREC
70
3
9
$LIMCHECK
70
0
9
$UCSNAME
2

9
$UCSORG
10
0.0
20
0.0
30
0.0
9
$UCSXDIR
10
1.0
20
0.0
30
0.0
9
$UCSYDIR
10
0.0
20
1.0
30
0.0
9
$WORLDVIEW
70
1
9
$UNITMODE
70
0
0
ENDSEC
0
SECTION
2
TABLES
0
TABLE
2
VPORT
70
1
0
VPORT
2
*ACTIVE
70
0
10
0.0
20
0.0
11
1.0
21
1.0
12
490.000
22
403.000
13
0.0
23
0.0
14
1.0
24
1.0
15
0.0
25
0.0
16
0.0
26
0.0
36
1.0
17
0.0
27
0.0
37
0.0
40
500.0
41
0.822
42
50.0
43
0.0
44
0.0
50
0.0
51
0.0
71
0
72
100
73
1
74
1
75
0
76
0
77
0
78
0
0
ENDTAB
0
TABLE
2
LTYPE
70
1
0
LTYPE
2
CONTINUOUS
70
64
3
Solid line
72
65
73
0
40
0.000
0
ENDTAB
0
TABLE
2
LAYER
70
1
0
LAYER
2
0
70
64
62
7
6
CONTINUOUS
0
ENDTAB
0
ENDSEC
0
SECTION
2
BLOCKS
0
ENDSEC
0
SECTION
2
ENTITIES
0
POLYLINE
8
0
6
CONTINUOUS
66
1
62
7
10
0.0
20
0.0
30
0.000000
0
VERTEX
8
0
10
207.000000
20
271.000000
0
VERTEX
8
0
10
205.000000
20
271.000000
0
SEQEND
0
POLYLINE
8
0
6
CONTINUOUS
66
1
62
7
10
0.0
20
0.0
30
0.000000
0
VERTEX
8
0
10
778.000000
20
271.000000
0
VERTEX
8
0
10
776.000000
20
271.000000
0
SEQEND
0
POLYLINE
8
0
6
CONTINUOUS
66
1
62
7
10
0.0
20
0.0
30
0.000000
0
VERTEX
8
0
10
205.000000
20
271.000000
0
VERTEX
8
0
10
205.000000
20
272.000000
0
VERTEX
8
0
10
199.100000
20
275.200000
0
VERTEX
8
0
10
146.900000
20
307.700000
0
VERTEX
8
0
10
135.088235
20
311.352941
0
VERTEX
8
0
10
115.000000
20
315.000000
0
VERTEX
8
0
10
106.000000
20
315.000000
0
VERTEX
8
0
10
99.060000
20
313.580000
0
VERTEX
8
0
10
93.180000
20
311.760000
0
VERTEX
8
0
10
85.000000
20
305.000000
0
VERTEX
8
0
10
83.200000
20
300.900000
0
VERTEX
8
0
10
81.000000
20
295.000000
0
VERTEX
8
0
10
81.000000
20
291.000000
0
VERTEX
8
0
10
83.800000
20
284.900000
0
VERTEX
8
0
10
90.000000
20
276.000000
0
VERTEX
8
0
10
98.100000
20
272.300000
0
VERTEX
8
0
10
118.000000
20
268.000000
0
VERTEX
8
0
10
205.000000
20
271.000000
0
SEQEND
0
POLYLINE
8
0
6
CONTINUOUS
66
1
62
7
10
0.0
20
0.0
30
0.000000
0
VERTEX
8
0
10
778.000000
20
271.000000
0
VERTEX
8
0
10
818.988109
20
270.512485
0
VERTEX
8
0
10
843.000000
20
268.000000
0
VERTEX
8
0
10
863.000000
20
268.000000
0
VERTEX
8
0
10
872.955446
20
269.445545
0
VERTEX
8
0
10
883.900000
20
272.300000
0
VERTEX
8
0
10
885.100000
20
272.800000
0
VERTEX
8
0
10
892.000000
20
276.000000
0
VERTEX
8
0
10
894.240000
20
278.820000
0
VERTEX
8
0
10
899.700000
20
287.100000
0
VERTEX
8
0
10
902.000000
20
293.000000
0
VERTEX
8
0
10
900.300000
20
298.100000
0
VERTEX
8
0
10
898.200000
20
303.100000
0
VERTEX
8
0
10
897.000000
20
306.000000
0
VERTEX
8
0
10
894.000000
20
309.000000
0
VERTEX
8
0
10
880.000000
20
314.000000
0
VERTEX
8
0
10
861.000000
20
314.000000
0
VERTEX
8
0
10
849.088235
20
310.647059
0
VERTEX
8
0
10
835.900000
20
306.200000
0
VERTEX
8
0
10
787.900000
20
278.200000
0
VERTEX
8
0
10
787.153846
20
277.769231
0
VERTEX
8
0
10
778.000000
20
272.000000
0
VERTEX
8
0
10
778.000000
20
271.000000
0
SEQEND
0
POLYLINE
8
0
6
CONTINUOUS
66
1
62
7
10
0.0
20
0.0
30
0.000000
0
VERTEX
8
0
10
337.000000
20
256.000000
0
VERTEX
8
0
10
336.760000
20
257.820000
0
VERTEX
8
0
10
319.000000
20
280.000000
0
VERTEX
8
0
10
300.000000
20
299.000000
0
VERTEX
8
0
10
295.820000
20
301.760000
0
VERTEX
8
0
10
279.153846
20
313.230769
0
VERTEX
8
0
10
272.900000
20
316.700000
0
VERTEX
8
0
10
251.000000
20
323.000000
0
VERTEX
8
0
10
242.932432
20
322.405405
0
VERTEX
8
0
10
234.000000
20
320.000000
0
VERTEX
8
0
10
229.800000
20
315.100000
0
VERTEX
8
0
10
228.000000
20
310.000000
0
VERTEX
8
0
10
228.000000
20
306.000000
0
VERTEX
8
0
10
231.230769
20
297.153846
0
VERTEX
8
0
10
238.000000
20
288.000000
0
VERTEX
8
0
10
259.100000
20
273.200000
0
VERTEX
8
0
10
263.900000
20
270.800000
0
VERTEX
8
0
10
275.088235
20
266.352941
0
VERTEX
8
0
10
284.911765
20
263.647059
0
VERTEX
8
0
10
320.946154
20
257.569231
0
VERTEX
8
0
10
337.000000
20
256.000000
0
SEQEND
0
POLYLINE
8
0
6
CONTINUOUS
66
1
62
7
10
0.0
20
0.0
30
0.000000
0
VERTEX
8
0
10
650.000000
20
256.000000
0
VERTEX
8
0
10
651.060000
20
256.580000
0
VERTEX
8
0
10
684.067568
20
260.594595
0
VERTEX
8
0
10
700.100000
20
264.700000
0
VERTEX
8
0
10
712.100000
20
268.700000
0
VERTEX
8
0
10
719.846154
20
272.230769
0
VERTEX
8
0
10
731.100000
20
278.800000
0
VERTEX
8
0
10
745.000000
20
289.000000
0
VERTEX
8
0
10
745.230769
20
289.846154
0
VERTEX
8
0
10
751.700000
20
300.100000
0
VERTEX
8
0
10
752.300000
20
301.900000
0
VERTEX
8
0
10
754.000000
20
310.000000
0
VERTEX
8
0
10
750.000000
20
318.000000
0
VERTEX
8
0
10
743.100000
20
321.300000
0
VERTEX
8
0
10
742.000000
20
322.000000
0
VERTEX
8
0
10
724.000000
20
322.000000
0
VERTEX
8
0
10
717.088235
20
319.647059
0
VERTEX
8
0
10
715.900000
20
319.300000
0
VERTEX
8
0
10
700.180000
20
311.760000
0
VERTEX
8
0
10
696.820000
20
309.240000
0
VERTEX
8
0
10
673.783186
20
290.247788
0
VERTEX
8
0
10
662.751724
20
279.220690
0
VERTEX
8
0
10
655.248276
20
270.779310
0
VERTEX
8
0
10
645.000000
20
257.000000
0
VERTEX
8
0
10
646.000000
20
256.000000
0
VERTEX
8
0
10
650.000000
20
256.000000
0
SEQEND
0
POLYLINE
8
0
6
CONTINUOUS
66
1
62
7
10
0.0
20
0.0
30
0.000000
0
VERTEX
8
0
10
158.000000
20
223.000000
0
VERTEX
8
0
10
156.000000
20
224.000000
0
SEQEND
0
POLYLINE
8
0
6
CONTINUOUS
66
1
62
7
10
0.0
20
0.0
30
0.000000
0
VERTEX
8
0
10
824.000000
20
222.000000
0
VERTEX
8
0
10
826.000000
20
223.000000
0
SEQEND
0
POLYLINE
8
0
6
CONTINUOUS
66
1
62
7
10
0.0
20
0.0
30
0.000000
0
VERTEX
8
0
10
97.000000
20
192.000000
0
VERTEX
8
0
10
105.000000
20
194.000000
0
VERTEX
8
0
10
106.240000
20
195.820000
0
VERTEX
8
0
10
109.615385
20
201.076923
0
VERTEX
8
0
10
111.000000
20
209.000000
0
VERTEX
8
0
10
109.800000
20
210.900000
0
VERTEX
8
0
10
106.000000
20
217.000000
0
VERTEX
8
0
10
102.100000
20
219.200000
0
VERTEX
8
0
10
98.000000
20
221.000000
0
VERTEX
8
0
10
92.000000
20
221.000000
0
VERTEX
8
0
10
89.100000
20
219.700000
0
VERTEX
8
0
10
87.900000
20
219.200000
0
VERTEX
8
0
10
82.000000
20
215.000000
0
VERTEX
8
0
10
80.800000
20
212.100000
0
VERTEX
8
0
10
80.000000
20
211.000000
0
VERTEX
8
0
10
80.000000
20
202.000000
0
VERTEX
8
0
10
81.000000
20
199.000000
0
VERTEX
8
0
10
85.000000
20
195.000000
0
VERTEX
8
0
10
89.088235
20
193.352941
0
VERTEX
8
0
10
97.000000
20
192.000000
0
SEQEND
0
POLYLINE
8
0
6
CONTINUOUS
66
1
62
7
10
0.0
20
0.0
30
0.000000
0
VERTEX
8
0
10
889.000000
20
192.000000
0
VERTEX
8
0
10
893.923077
20
193.384615
0
VERTEX
8
0
10
899.000000
20
196.000000
0
VERTEX
8
0
10
901.200000
20
199.900000
0
VERTEX
8
0
10
903.000000
20
203.000000
0
VERTEX
8
0
10
901.647059
20
209.911765
0
VERTEX
8
0
10
898.000000
20
217.000000
0
VERTEX
8
0
10
895.100000
20
219.200000
0
VERTEX
8
0
10
892.000000
20
221.000000
0
VERTEX
8
0
10
882.000000
20
221.000000
0
VERTEX
8
0
10
880.100000
20
219.800000
0
VERTEX
8
0
10
874.000000
20
216.000000
0
VERTEX
8
0
10
872.800000
20
213.100000
0
VERTEX
8
0
10
871.000000
20
210.000000
0
VERTEX
8
0
10
871.000000
20
206.000000
0
VERTEX
8
0
10
875.000000
20
197.000000
0
VERTEX
8
0
10
878.000000
20
194.000000
0
VERTEX
8
0
10
889.000000
20
192.000000
0
SEQEND
0
POLYLINE
8
0
6
CONTINUOUS
66
1
62
7
10
0.0
20
0.0
30
0.000000
0
VERTEX
8
0
10
488.000000
20
175.000000
0
VERTEX
8
0
10
495.153846
20
179.769231
0
VERTEX
8
0
10
528.820000
20
202.240000
0
VERTEX
8
0
10
541.180000
20
211.760000
0
VERTEX
8
0
10
568.788235
20
234.247059
0
VERTEX
8
0
10
575.211765
20
239.752941
0
VERTEX
8
0
10
602.000000
20
264.000000
0
VERTEX
8
0
10
642.000000
20
304.000000
0
VERTEX
8
0
10
685.769231
20
358.153846
0
VERTEX
8
0
10
693.760000
20
369.180000
0
VERTEX
8
0
10
717.769231
20
405.153846
0
VERTEX
8
0
10
731.800000
20
427.100000
0
VERTEX
8
0
10
754.300000
20
473.900000
0
VERTEX
8
0
10
762.300000
20
499.900000
0
VERTEX
8
0
10
764.580000
20
509.060000
0
VERTEX
8
0
10
765.420000
20
514.940000
0
VERTEX
8
0
10
767.464602
20
535.969027
0
VERTEX
8
0
10
768.000000
20
558.000000
0
VERTEX
8
0
10
765.580000
20
579.940000
0
VERTEX
8
0
10
762.700000
20
595.900000
0
VERTEX
8
0
10
757.200000
20
611.100000
0
VERTEX
8
0
10
744.769231
20
636.846154
0
VERTEX
8
0
10
743.230769
20
639.153846
0
VERTEX
8
0
10
729.000000
20
659.000000
0
VERTEX
8
0
10
714.000000
20
674.000000
0
VERTEX
8
0
10
709.820000
20
676.760000
0
VERTEX
8
0
10
705.820000
20
679.760000
0
VERTEX
8
0
10
693.900000
20
686.800000
0
VERTEX
8
0
10
693.100000
20
687.200000
0
VERTEX
8
0
10
675.911765
20
695.647059
0
VERTEX
8
0
10
669.088235
20
697.352941
0
VERTEX
8
0
10
644.067568
20
702.405405
0
VERTEX
8
0
10
631.000000
20
704.000000
0
VERTEX
8
0
10
599.000000
20
704.000000
0
VERTEX
8
0
10
569.088235
20
695.647059
0
VERTEX
8
0
10
552.100000
20
687.800000
0
VERTEX
8
0
10
538.900000
20
680.200000
0
VERTEX
8
0
10
523.000000
20
669.000000
0
VERTEX
8
0
10
504.000000
20
650.000000
0
VERTEX
8
0
10
489.230769
20
629.846154
0
VERTEX
8
0
10
489.000000
20
629.000000
0
VERTEX
8
0
10
488.000000
20
628.000000
0
VERTEX
8
0
10
483.200000
20
637.100000
0
VERTEX
8
0
10
467.752212
20
659.783186
0
VERTEX
8
0
10
457.000000
20
672.000000
0
VERTEX
8
0
10
449.846154
20
676.769231
0
VERTEX
8
0
10
445.820000
20
679.760000
0
VERTEX
8
0
10
428.900000
20
688.700000
0
VERTEX
8
0
10
412.100000
20
694.300000
0
VERTEX
8
0
10
382.962069
20
698.544828
0
VERTEX
8
0
10
372.037931
20
699.455172
0
VERTEX
8
0
10
338.000000
20
701.000000
0
VERTEX
8
0
10
328.044554
20
699.554455
0
VERTEX
8
0
10
315.923077
20
697.384615
0
VERTEX
8
0
10
290.088235
20
690.647059
0
VERTEX
8
0
10
280.100000
20
685.800000
0
VERTEX
8
0
10
260.211765
20
673.752941
0
VERTEX
8
0
10
245.000000
20
660.000000
0
VERTEX
8
0
10
239.240000
20
651.820000
0
VERTEX
8
0
10
236.240000
20
647.820000
0
VERTEX
8
0
10
226.230769
20
631.846154
0
VERTEX
8
0
10
225.800000
20
631.100000
0
VERTEX
8
0
10
220.352941
20
618.911765
0
VERTEX
8
0
10
219.647059
20
616.088235
0
VERTEX
8
0
10
215.439024
20
593.951220
0
VERTEX
8
0
10
212.000000
20
563.000000
0
VERTEX
8
0
10
212.538071
20
543.967005
0
VERTEX
8
0
10
215.430769
20
516.053846
0
VERTEX
8
0
10
220.647059
20
487.911765
0
VERTEX
8
0
10
221.352941
20
485.088235
0
VERTEX
8
0
10
231.800000
20
455.900000
0
VERTEX
8
0
10
232.800000
20
453.900000
0
VERTEX
8
0
10
246.230769
20
425.153846
0
VERTEX
8
0
10
265.769231
20
392.846154
0
VERTEX
8
0
10
288.240000
20
359.180000
0
VERTEX
8
0
10
309.754098
20
331.795082
0
VERTEX
8
0
10
329.249822
20
308.240569
0
VERTEX
8
0
10
382.000000
20
254.000000
0
VERTEX
8
0
10
399.204918
20
240.245902
0
VERTEX
8
0
10
405.204918
20
235.245902
0
VERTEX
8
0
10
439.846154
20
207.769231
0
VERTEX
8
0
10
488.000000
20
175.000000
0
SEQEND
0
POLYLINE
8
0
6
CONTINUOUS
66
1
62
7
10
0.0
20
0.0
30
0.000000
0
VERTEX
8
0
10
285.000000
20
174.000000
0
VERTEX
8
0
10
287.000000
20
175.000000
0
SEQEND
0
POLYLINE
8
0
6
CONTINUOUS
66
1
62
7
10
0.0
20
0.0
30
0.000000
0
VERTEX
8
0
10
698.000000
20
174.000000
0
VERTEX
8
0
10
695.000000
20
175.000000
0
SEQEND
0
POLYLINE
8
0
6
CONTINUOUS
66
1
62
7
10
0.0
20
0.0
30
0.000000
0
VERTEX
8
0
10
158.000000
20
223.000000
0
VERTEX
8
0
10
164.100000
20
219.200000
0
VERTEX
8
0
10
178.100000
20
213.300000
0
VERTEX
8
0
10
179.900000
20
212.700000
0
VERTEX
8
0
10
194.951220
20
210.560976
0
VERTEX
8
0
10
204.000000
20
210.000000
0
VERTEX
8
0
10
220.000000
20
212.000000
0
VERTEX
8
0
10
237.032995
20
211.461929
0
VERTEX
8
0
10
251.035294
20
210.458824
0
VERTEX
8
0
10
315.911765
20
206.647059
0
VERTEX
8
0
10
331.911765
20
202.647059
0
VERTEX
8
0
10
359.100000
20
193.200000
0
VERTEX
8
0
10
364.100000
20
191.300000
0
VERTEX
8
0
10
406.900000
20
171.800000
0
VERTEX
8
0
10
410.900000
20
169.800000
0
VERTEX
8
0
10
434.000000
20
160.000000
0
VERTEX
8
0
10
439.000000
20
161.000000
0
VERTEX
8
0
10
441.000000
20
163.000000
0
VERTEX
8
0
10
442.000000
20
169.000000
0
VERTEX
8
0
10
440.000000
20
173.000000
0
VERTEX
8
0
10
417.100000
20
187.200000
0
VERTEX
8
0
10
407.100000
20
192.200000
0
VERTEX
8
0
10
365.911765
20
208.647059
0
VERTEX
8
0
10
345.911765
20
213.647059
0
VERTEX
8
0
10
302.067568
20
223.405405
0
VERTEX
8
0
10
293.000000
20
225.000000
0
VERTEX
8
0
10
159.900000
20
224.200000
0
VERTEX
8
0
10
158.000000
20
223.000000
0
SEQEND
0
POLYLINE
8
0
6
CONTINUOUS
66
1
62
7
10
0.0
20
0.0
30
0.000000
0
VERTEX
8
0
10
824.000000
20
222.000000
0
VERTEX
8
0
10
821.000000
20
224.000000
0
VERTEX
8
0
10
689.000000
20
224.000000
0
VERTEX
8
0
10
681.053846
20
222.569231
0
VERTEX
8
0
10
669.067568
20
220.594595
0
VERTEX
8
0
10
632.088235
20
212.647059
0
VERTEX
8
0
10
614.900000
20
208.300000
0
VERTEX
8
0
10
568.100000
20
187.800000
0
VERTEX
8
0
10
555.153846
20
180.769231
0
VERTEX
8
0
10
542.000000
20
173.000000
0
VERTEX
8
0
10
541.800000
20
172.100000
0
VERTEX
8
0
10
540.000000
20
169.000000
0
VERTEX
8
0
10
540.000000
20
164.000000
0
VERTEX
8
0
10
542.000000
20
161.000000
0
VERTEX
8
0
10
548.000000
20
159.000000
0
VERTEX
8
0
10
571.900000
20
169.200000
0
VERTEX
8
0
10
575.100000
20
170.800000
0
VERTEX
8
0
10
617.900000
20
190.300000
0
VERTEX
8
0
10
622.900000
20
192.200000
0
VERTEX
8
0
10
650.088235
20
201.647059
0
VERTEX
8
0
10
664.911765
20
205.352941
0
VERTEX
8
0
10
682.023691
20
207.526185
0
VERTEX
8
0
10
744.967005
20
211.461929
0
VERTEX
8
0
10
746.000000
20
212.000000
0
VERTEX
8
0
10
793.000000
20
210.000000
0
VERTEX
8
0
10
806.923077
20
213.384615
0
VERTEX
8
0
10
817.900000
20
218.200000
0
VERTEX
8
0
10
824.000000
20
222.000000
0
SEQEND
0
POLYLINE
8
0
6
CONTINUOUS
66
1
62
7
10
0.0
20
0.0
30
0.000000
0
VERTEX
8
0
10
121.000000
20
154.000000
0
VERTEX
8
0
10
120.000000
20
155.000000
0
SEQEND
0
POLYLINE
8
0
6
CONTINUOUS
66
1
62
7
10
0.0
20
0.0
30
0.000000
0
VERTEX
8
0
10
121.000000
20
154.000000
0
VERTEX
8
0
10
122.000000
20
155.000000
0
VERTEX
8
0
10
121.000000
20
156.000000
0
VERTEX
8
0
10
120.000000
20
155.000000
0
SEQEND
0
POLYLINE
8
0
6
CONTINUOUS
66
1
62
7
10
0.0
20
0.0
30
0.000000
0
VERTEX
8
0
10
285.000000
20
174.000000
0
VERTEX
8
0
10
280.000000
20
176.000000
0
VERTEX
8
0
10
229.000000
20
176.000000
0
VERTEX
8
0
10
215.032995
20
174.538071
0
VERTEX
8
0
10
203.067568
20
172.594595
0
VERTEX
8
0
10
191.100000
20
169.800000
0
VERTEX
8
0
10
180.900000
20
165.200000
0
VERTEX
8
0
10
174.195122
20
161.756098
0
VERTEX
8
0
10
166.000000
20
155.000000
0
VERTEX
8
0
10
163.405405
20
147.932432
0
VERTEX
8
0
10
162.594595
20
143.067568
0
VERTEX
8
0
10
162.000000
20
133.000000
0
VERTEX
8
0
10
163.405405
20
127.067568
0
VERTEX
8
0
10
167.000000
20
121.000000
0
VERTEX
8
0
10
171.900000
20
117.800000
0
VERTEX
8
0
10
175.000000
20
116.000000
0
VERTEX
8
0
10
190.000000
20
116.000000
0
VERTEX
8
0
10
199.900000
20
118.300000
0
VERTEX
8
0
10
201.100000
20
118.700000
0
VERTEX
8
0
10
206.846154
20
121.230769
0
VERTEX
8
0
10
209.153846
20
122.769231
0
VERTEX
8
0
10
228.195122
20
136.756098
0
VERTEX
8
0
10
244.195122
20
149.756098
0
VERTEX
8
0
10
260.100000
20
159.800000
0
VERTEX
8
0
10
285.000000
20
174.000000
0
SEQEND
0
POLYLINE
8
0
6
CONTINUOUS
66
1
62
7
10
0.0
20
0.0
30
0.000000
0
VERTEX
8
0
10
698.000000
20
174.000000
0
VERTEX
8
0
10
720.900000
20
160.800000
0
VERTEX
8
0
10
757.000000
20
136.000000
0
VERTEX
8
0
10
759.000000
20
134.000000
0
VERTEX
8
0
10
759.000000
20
133.000000
0
VERTEX
8
0
10
763.804878
20
128.756098
0
VERTEX
8
0
10
768.846154
20
124.769231
0
VERTEX
8
0
10
778.088235
20
119.352941
0
VERTEX
8
0
10
780.911765
20
118.647059
0
VERTEX
8
0
10
793.000000
20
116.000000
0
VERTEX
8
0
10
802.000000
20
116.000000
0
VERTEX
8
0
10
807.932432
20
117.405405
0
VERTEX
8
0
10
809.900000
20
118.200000
0
VERTEX
8
0
10
816.000000
20
122.000000
0
VERTEX
8
0
10
817.200000
20
124.900000
0
VERTEX
8
0
10
820.000000
20
134.000000
0
VERTEX
8
0
10
820.000000
20
142.000000
0
VERTEX
8
0
10
818.594595
20
147.932432
0
VERTEX
8
0
10
815.800000
20
152.900000
0
VERTEX
8
0
10
815.200000
20
154.100000
0
VERTEX
8
0
10
812.000000
20
158.000000
0
VERTEX
8
0
10
795.900000
20
167.800000
0
VERTEX
8
0
10
795.100000
20
168.200000
0
VERTEX
8
0
10
778.076923
20
172.384615
0
VERTEX
8
0
10
749.040984
20
175.450820
0
VERTEX
8
0
10
733.000000
20
177.000000
0
VERTEX
8
0
10
716.000000
20
177.000000
0
VERTEX
8
0
10
702.032995
20
175.538071
0
VERTEX
8
0
10
698.000000
20
174.000000
0
SEQEND
0
POLYLINE
8
0
6
CONTINUOUS
66
1
62
7
10
0.0
20
0.0
30
0.000000
0
VERTEX
8
0
10
494.000000
20
105.000000
0
VERTEX
8
0
10
502.000000
20
107.000000
0
VERTEX
8
0
10
508.200000
20
114.900000
0
VERTEX
8
0
10
509.800000
20
119.100000
0
VERTEX
8
0
10
511.000000
20
123.000000
0
VERTEX
8
0
10
508.200000
20
131.100000
0
VERTEX
8
0
10
502.000000
20
138.000000
0
VERTEX
8
0
10
501.100000
20
138.200000
0
VERTEX
8
0
10
494.000000
20
140.000000
0
VERTEX
8
0
10
488.000000
20
140.000000
0
VERTEX
8
0
10
481.100000
20
137.700000
0
VERTEX
8
0
10
479.900000
20
137.200000
0
VERTEX
8
0
10
477.000000
20
135.000000
0
VERTEX
8
0
10
473.352941
20
127.911765
0
VERTEX
8
0
10
472.647059
20
125.088235
0
VERTEX
8
0
10
472.000000
20
119.000000
0
VERTEX
8
0
10
473.200000
20
117.100000
0
VERTEX
8
0
10
473.800000
20
115.900000
0
VERTEX
8
0
10
475.000000
20
113.000000
0
VERTEX
8
0
10
478.000000
20
110.000000
0
VERTEX
8
0
10
482.264706
20
107.441176
0
VERTEX
8
0
10
483.900000
20
106.700000
0
VERTEX
8
0
10
494.000000
20
105.000000
0
SEQEND
0
POLYLINE
8
0
6
CONTINUOUS
66
1
62
7
10
0.0
20
0.0
30
0.000000
0
VERTEX
8
0
10
328.000000
20
100.000000
0
VERTEX
8
0
10
338.923077
20
102.384615
0
VERTEX
8
0
10
357.900000
20
110.200000
0
VERTEX
8
0
10
361.900000
20
112.200000
0
VERTEX
8
0
10
380.088235
20
119.647059
0
VERTEX
8
0
10
382.911765
20
120.352941
0
VERTEX
8
0
10
397.067568
20
123.594595
0
VERTEX
8
0
10
403.067568
20
124.594595
0
VERTEX
8
0
10
421.000000
20
127.000000
0
VERTEX
8
0
10
422.000000
20
128.000000
0
VERTEX
8
0
10
412.153846
20
134.230769
0
VERTEX
8
0
10
409.846154
20
135.769231
0
VERTEX
8
0
10
382.100000
20
148.300000
0
VERTEX
8
0
10
353.932432
20
154.594595
0
VERTEX
8
0
10
349.067568
20
155.405405
0
VERTEX
8
0
10
348.000000
20
156.000000
0
VERTEX
8
0
10
326.000000
20
156.000000
0
VERTEX
8
0
10
322.088235
20
154.647059
0
VERTEX
8
0
10
311.900000
20
151.200000
0
VERTEX
8
0
10
307.900000
20
149.200000
0
VERTEX
8
0
10
301.000000
20
145.000000
0
VERTEX
8
0
10
294.240000
20
136.820000
0
VERTEX
8
0
10
290.000000
20
127.000000
0
VERTEX
8
0
10
290.580000
20
118.940000
0
VERTEX
8
0
10
292.000000
20
111.000000
0
VERTEX
8
0
10
297.900000
20
105.800000
0
VERTEX
8
0
10
308.044554
20
101.445545
0
VERTEX
8
0
10
328.000000
20
100.000000
0
SEQEND
0
POLYLINE
8
0
6
CONTINUOUS
66
1
62
7
10
0.0
20
0.0
30
0.000000
0
VERTEX
8
0
10
666.000000
20
100.000000
0
VERTEX
8
0
10
671.932432
20
101.405405
0
VERTEX
8
0
10
684.000000
20
105.000000
0
VERTEX
8
0
10
690.000000
20
111.000000
0
VERTEX
8
0
10
690.300000
20
112.900000
0
VERTEX
8
0
10
692.000000
20
118.000000
0
VERTEX
8
0
10
692.000000
20
124.000000
0
VERTEX
8
0
10
687.000000
20
138.000000
0
VERTEX
8
0
10
679.000000
20
146.000000
0
VERTEX
8
0
10
665.900000
20
152.800000
0
VERTEX
8
0
10
658.000000
20
155.000000
0
VERTEX
8
0
10
631.000000
20
155.000000
0
VERTEX
8
0
10
619.067568
20
152.594595
0
VERTEX
8
0
10
604.100000
20
148.700000
0
VERTEX
8
0
10
590.900000
20
144.300000
0
VERTEX
8
0
10
571.153846
20
135.769231
0
VERTEX
8
0
10
560.000000
20
129.000000
0
VERTEX
8
0
10
562.000000
20
127.000000
0
VERTEX
8
0
10
567.053846
20
126.430769
0
VERTEX
8
0
10
597.923077
20
121.615385
0
VERTEX
8
0
10
626.900000
20
109.800000
0
VERTEX
8
0
10
628.100000
20
109.200000
0
VERTEX
8
0
10
645.900000
20
100.700000
0
VERTEX
8
0
10
666.000000
20
100.000000
0
SEQEND
0
POLYLINE
8
0
6
CONTINUOUS
66
1
62
7
10
0.0
20
0.0
30
0.000000
0
VERTEX
8
0
10
121.000000
20
154.000000
0
VERTEX
8
0
10
120.000000
20
144.000000
0
VERTEX
8
0
10
120.000000
20
131.000000
0
VERTEX
8
0
10
121.569231
20
123.946154
0
VERTEX
8
0
10
123.300000
20
114.100000
0
VERTEX
8
0
10
126.800000
20
105.900000
0
VERTEX
8
0
10
136.000000
20
93.000000
0
VERTEX
8
0
10
137.000000
20
93.000000
0
VERTEX
8
0
10
139.000000
20
91.000000
0
VERTEX
8
0
10
139.000000
20
90.000000
0
VERTEX
8
0
10
154.200000
20
79.400000
0
VERTEX
8
0
10
160.100000
20
77.200000
0
VERTEX
8
0
10
173.000000
20
74.000000
0
VERTEX
8
0
10
189.000000
20
74.000000
0
VERTEX
8
0
10
196.946154
20
75.430769
0
VERTEX
8
0
10
210.100000
20
77.800000
0
VERTEX
8
0
10
213.900000
20
79.300000
0
VERTEX
8
0
10
232.900000
20
88.200000
0
VERTEX
8
0
10
251.000000
20
101.000000
0
VERTEX
8
0
10
253.300000
20
95.100000
0
VERTEX
8
0
10
255.800000
20
89.900000
0
VERTEX
8
0
10
261.000000
20
83.000000
0
VERTEX
8
0
10
272.000000
20
72.000000
0
VERTEX
8
0
10
277.153846
20
69.230769
0
VERTEX
8
0
10
277.900000
20
68.800000
0
VERTEX
8
0
10
289.100000
20
63.300000
0
VERTEX
8
0
10
297.900000
20
60.700000
0
VERTEX
8
0
10
313.000000
20
58.000000
0
VERTEX
8
0
10
330.000000
20
58.000000
0
VERTEX
8
0
10
344.932432
20
60.405405
0
VERTEX
8
0
10
356.900000
20
64.300000
0
VERTEX
8
0
10
364.900000
20
68.200000
0
VERTEX
8
0
10
388.088235
20
78.647059
0
VERTEX
8
0
10
404.900000
20
83.200000
0
VERTEX
8
0
10
435.100000
20
87.700000
0
VERTEX
8
0
10
440.000000
20
90.000000
0
VERTEX
8
0
10
451.804878
20
77.756098
0
VERTEX
8
0
10
459.846154
20
71.769231
0
VERTEX
8
0
10
466.088235
20
68.352941
0
VERTEX
8
0
10
471.900000
20
66.700000
0
VERTEX
8
0
10
483.000000
20
63.000000
0
VERTEX
8
0
10
496.000000
20
63.000000
0
VERTEX
8
0
10
503.946154
20
64.430769
0
VERTEX
8
0
10
516.846154
20
68.230769
0
VERTEX
8
0
10
521.100000
20
70.800000
0
VERTEX
8
0
10
533.000000
20
79.000000
0
VERTEX
8
0
10
543.000000
20
90.000000
0
VERTEX
8
0
10
548.100000
20
88.300000
0
VERTEX
8
0
10
549.900000
20
87.700000
0
VERTEX
8
0
10
586.911765
20
81.647059
0
VERTEX
8
0
10
630.911765
20
61.647059
0
VERTEX
8
0
10
640.911765
20
59.647059
0
VERTEX
8
0
10
649.000000
20
58.000000
0
VERTEX
8
0
10
668.000000
20
58.000000
0
VERTEX
8
0
10
683.932432
20
60.405405
0
VERTEX
8
0
10
694.900000
20
64.200000
0
VERTEX
8
0
10
696.100000
20
64.700000
0
VERTEX
8
0
10
706.846154
20
70.230769
0
VERTEX
8
0
10
709.804878
20
72.243902
0
VERTEX
8
0
10
717.000000
20
78.000000
0
VERTEX
8
0
10
723.752212
20
86.216814
0
VERTEX
8
0
10
729.800000
20
100.100000
0
VERTEX
8
0
10
730.000000
20
101.000000
0
VERTEX
8
0
10
732.000000
20
102.000000
0
VERTEX
8
0
10
736.000000
20
97.000000
0
VERTEX
8
0
10
752.153846
20
86.230769
0
VERTEX
8
0
10
755.153846
20
84.230769
0
VERTEX
8
0
10
771.088235
20
78.352941
0
VERTEX
8
0
10
775.900000
20
76.800000
0
VERTEX
8
0
10
790.000000
20
74.000000
0
VERTEX
8
0
10
804.000000
20
74.000000
0
VERTEX
8
0
10
813.955446
20
75.445545
0
VERTEX
8
0
10
815.100000
20
75.700000
0
VERTEX
8
0
10
829.846154
20
81.230769
0
VERTEX
8
0
10
835.900000
20
85.200000
0
VERTEX
8
0
10
842.000000
20
89.000000
0
VERTEX
8
0
10
842.000000
20
90.000000
0
VERTEX
8
0
10
844.000000
20
92.000000
0
VERTEX
8
0
10
845.000000
20
92.000000
0
VERTEX
8
0
10
850.000000
20
97.000000
0
VERTEX
8
0
10
855.700000
20
108.100000
0
VERTEX
8
0
10
858.200000
20
113.900000
0
VERTEX
8
0
10
862.000000
20
130.000000
0
VERTEX
8
0
10
862.000000
20
145.000000
0
VERTEX
8
0
10
860.000000
20
155.000000
0
VERTEX
8
0
10
861.000000
20
156.000000
0
VERTEX
8
0
10
868.900000
20
152.700000
0
VERTEX
8
0
10
882.000000
20
150.000000
0
VERTEX
8
0
10
893.000000
20
150.000000
0
VERTEX
8
0
10
907.911765
20
153.352941
0
VERTEX
8
0
10
919.820000
20
160.240000
0
VERTEX
8
0
10
923.180000
20
162.760000
0
VERTEX
8
0
10
933.000000
20
172.000000
0
VERTEX
8
0
10
940.647059
20
187.088235
0
VERTEX
8
0
10
942.200000
20
191.900000
0
VERTEX
8
0
10
944.000000
20
196.000000
0
VERTEX
8
0
10
944.000000
20
215.000000
0
VERTEX
8
0
10
941.647059
20
222.911765
0
VERTEX
8
0
10
937.769231
20
231.846154
0
VERTEX
8
0
10
933.200000
20
239.100000
0
VERTEX
8
0
10
926.000000
20
248.000000
0
VERTEX
8
0
10
925.000000
20
248.000000
0
VERTEX
8
0
10
924.000000
20
249.000000
0
VERTEX
8
0
10
929.230769
20
254.846154
0
VERTEX
8
0
10
935.700000
20
266.100000
0
VERTEX
8
0
10
938.769231
20
272.153846
0
VERTEX
8
0
10
941.580000
20
280.060000
0
VERTEX
8
0
10
942.420000
20
285.940000
0
VERTEX
8
0
10
943.000000
20
287.000000
0
VERTEX
8
0
10
943.000000
20
302.000000
0
VERTEX
8
0
10
937.800000
20
317.900000
0
VERTEX
8
0
10
936.200000
20
321.100000
0
VERTEX
8
0
10
932.754098
20
327.795082
0
VERTEX
8
0
10
928.245902
20
333.204918
0
VERTEX
8
0
10
920.000000
20
342.000000
0
VERTEX
8
0
10
910.900000
20
347.800000
0
VERTEX
8
0
10
908.900000
20
348.800000
0
VERTEX
8
0
10
889.940000
20
354.580000
0
VERTEX
8
0
10
884.060000
20
355.420000
0
VERTEX
8
0
10
883.000000
20
356.000000
0
VERTEX
8
0
10
862.000000
20
356.000000
0
VERTEX
8
0
10
849.060000
20
353.580000
0
VERTEX
8
0
10
843.900000
20
352.300000
0
VERTEX
8
0
10
817.100000
20
343.800000
0
VERTEX
8
0
10
804.846154
20
337.230769
0
VERTEX
8
0
10
792.000000
20
330.000000
0
VERTEX
8
0
10
788.230769
20
335.153846
0
VERTEX
8
0
10
782.000000
20
344.000000
0
VERTEX
8
0
10
773.000000
20
353.000000
0
VERTEX
8
0
10
770.900000
20
353.800000
0
VERTEX
8
0
10
770.153846
20
354.230769
0
VERTEX
8
0
10
762.900000
20
358.700000
0
VERTEX
8
0
10
743.000000
20
364.000000
0
VERTEX
8
0
10
742.000000
20
365.000000
0
VERTEX
8
0
10
751.230769
20
379.846154
0
VERTEX
8
0
10
763.769231
20
399.153846
0
VERTEX
8
0
10
772.200000
20
413.900000
0
VERTEX
8
0
10
791.300000
20
453.900000
0
VERTEX
8
0
10
804.594595
20
494.067568
0
VERTEX
8
0
10
805.405405
20
498.932432
0
VERTEX
8
0
10
810.000000
20
532.000000
0
VERTEX
8
0
10
810.000000
20
564.000000
0
VERTEX
8
0
10
804.700000
20
598.900000
0
VERTEX
8
0
10
799.647059
20
617.911765
0
VERTEX
8
0
10
789.800000
20
641.900000
0
VERTEX
8
0
10
785.800000
20
648.900000
0
VERTEX
8
0
10
771.240000
20
672.180000
0
VERTEX
8
0
10
755.000000
20
692.000000
0
VERTEX
8
0
10
737.180000
20
708.240000
0
VERTEX
8
0
10
725.820000
20
716.760000
0
VERTEX
8
0
10
704.100000
20
728.300000
0
VERTEX
8
0
10
696.100000
20
731.300000
0
VERTEX
8
0
10
669.932432
20
740.594595
0
VERTEX
8
0
10
665.067568
20
741.405405
0
VERTEX
8
0
10
648.000000
20
745.000000
0
VERTEX
8
0
10
592.000000
20
745.000000
0
VERTEX
8
0
10
566.100000
20
737.800000
0
VERTEX
8
0
10
552.088235
20
733.647059
0
VERTEX
8
0
10
533.100000
20
724.800000
0
VERTEX
8
0
10
521.900000
20
719.200000
0
VERTEX
8
0
10
491.660377
20
697.188679
0
VERTEX
8
0
10
483.783186
20
702.752212
0
VERTEX
8
0
10
475.783186
20
709.752212
0
VERTEX
8
0
10
468.900000
20
714.800000
0
VERTEX
8
0
10
466.180000
20
716.240000
0
VERTEX
8
0
10
453.900000
20
723.700000
0
VERTEX
8
0
10
437.100000
20
730.300000
0
VERTEX
8
0
10
417.911765
20
735.647059
0
VERTEX
8
0
10
411.088235
20
737.352941
0
VERTEX
8
0
10
389.967005
20
740.538071
0
VERTEX
8
0
10
377.032995
20
741.461929
0
VERTEX
8
0
10
332.000000
20
742.000000
0
VERTEX
8
0
10
314.067568
20
739.594595
0
VERTEX
8
0
10
297.067568
20
736.594595
0
VERTEX
8
0
10
269.100000
20
726.800000
0
VERTEX
8
0
10
262.900000
20
724.200000
0
VERTEX
8
0
10
240.195122
20
710.756098
0
VERTEX
8
0
10
231.820000
20
704.240000
0
VERTEX
8
0
10
209.754098
20
682.204918
0
VERTEX
8
0
10
202.240000
20
672.820000
0
VERTEX
8
0
10
191.200000
20
654.900000
0
VERTEX
8
0
10
185.800000
20
645.100000
0
VERTEX
8
0
10
180.352941
20
630.911765
0
VERTEX
8
0
10
176.647059
20
617.088235
0
VERTEX
8
0
10
171.461929
20
579.967005
0
VERTEX
8
0
10
170.538071
20
567.032995
0
VERTEX
8
0
10
170.000000
20
541.000000
0
VERTEX
8
0
10
171.464602
20
526.030973
0
VERTEX
8
0
10
172.594595
20
515.932432
0
VERTEX
8
0
10
182.384615
20
469.076923
0
VERTEX
8
0
10
195.300000
20
434.100000
0
VERTEX
8
0
10
211.200000
20
403.100000
0
VERTEX
8
0
10
234.000000
20
364.000000
0
VERTEX
8
0
10
223.900000
20
360.200000
0
VERTEX
8
0
10
221.900000
20
359.300000
0
VERTEX
8
0
10
211.153846
20
354.769231
0
VERTEX
8
0
10
208.846154
20
353.230769
0
VERTEX
8
0
10
200.000000
20
345.000000
0
VERTEX
8
0
10
194.200000
20
336.900000
0
VERTEX
8
0
10
191.000000
20
331.000000
0
VERTEX
8
0
10
189.000000
20
331.000000
0
VERTEX
8
0
10
181.153846
20
336.230769
0
VERTEX
8
0
10
167.900000
20
343.700000
0
VERTEX
8
0
10
152.100000
20
350.300000
0
VERTEX
8
0
10
133.067568
20
354.405405
0
VERTEX
8
0
10
126.000000
20
356.000000
0
VERTEX
8
0
10
96.000000
20
356.000000
0
VERTEX
8
0
10
84.100000
20
352.800000
0
VERTEX
8
0
10
79.900000
20
351.200000
0
VERTEX
8
0
10
65.000000
20
344.000000
0
VERTEX
8
0
10
61.100000
20
339.800000
0
VERTEX
8
0
10
58.000000
20
338.000000
0
VERTEX
8
0
10
48.243902
20
325.804878
0
VERTEX
8
0
10
42.300000
20
312.900000
0
VERTEX
8
0
10
41.700000
20
311.100000
0
VERTEX
8
0
10
39.580000
20
301.060000
0
VERTEX
8
0
10
39.000000
20
288.000000
0
VERTEX
8
0
10
41.300000
20
278.100000
0
VERTEX
8
0
10
47.200000
20
264.100000
0
VERTEX
8
0
10
47.800000
20
262.900000
0
VERTEX
8
0
10
58.000000
20
249.000000
0
VERTEX
8
0
10
49.248619
20
239.776243
0
VERTEX
8
0
10
41.300000
20
226.900000
0
VERTEX
8
0
10
38.647059
20
219.088235
0
VERTEX
8
0
10
38.000000
20
218.000000
0
VERTEX
8
0
10
38.000000
20
197.000000
0
VERTEX
8
0
10
40.352941
20
189.088235
0
VERTEX
8
0
10
40.800000
20
187.900000
0
VERTEX
8
0
10
45.240000
20
178.180000
0
VERTEX
8
0
10
47.760000
20
174.820000
0
VERTEX
8
0
10
49.000000
20
172.000000
0
VERTEX
8
0
10
59.000000
20
162.000000
0
VERTEX
8
0
10
65.100000
20
158.200000
0
VERTEX
8
0
10
69.900000
20
155.800000
0
VERTEX
8
0
10
79.076923
20
152.384615
0
VERTEX
8
0
10
82.923077
20
151.615385
0
VERTEX
8
0
10
89.000000
20
150.000000
0
VERTEX
8
0
10
101.000000
20
150.000000
0
VERTEX
8
0
10
113.900000
20
153.200000
0
VERTEX
8
0
10
120.000000
20
155.000000
0
SEQEND
0
ENDSEC
0
EOF
