0
SECTION
2
HEADER
9
$ACADVER
1
AC1003
9
$INSBASE
10
0.0
20
0.0
30
0.0
9
$EXTMIN
10
0.000
20
0.000
30
0.0
9
$EXTMAX
10
614.000
20
747.000
30
0.0
9
$LIMMIN
10
0.000
20
0.000
9
$LIMMAX
10
614.000
20
747.000
9
$LTSCALE
40
1.0
9
$LUNITS
70
2
9
$LUPREC
70
3
9
$LIMCHECK
70
0
9
$UCSNAME
2

9
$UCSORG
10
0.0
20
0.0
30
0.0
9
$UCSXDIR
10
1.0
20
0.0
30
0.0
9
$UCSYDIR
10
0.0
20
1.0
30
0.0
9
$WORLDVIEW
70
1
9
$UNITMODE
70
0
0
ENDSEC
0
SECTION
2
TABLES
0
TABLE
2
VPORT
70
1
0
VPORT
2
*ACTIVE
70
0
10
0.0
20
0.0
11
1.0
21
1.0
12
307.000
22
373.500
13
0.0
23
0.0
14
1.0
24
1.0
15
0.0
25
0.0
16
0.0
26
0.0
36
1.0
17
0.0
27
0.0
37
0.0
40
500.0
41
1.217
42
50.0
43
0.0
44
0.0
50
0.0
51
0.0
71
0
72
100
73
1
74
1
75
0
76
0
77
0
78
0
0
ENDTAB
0
TABLE
2
LTYPE
70
1
0
LTYPE
2
CONTINUOUS
70
64
3
Solid line
72
65
73
0
40
0.000
0
ENDTAB
0
TABLE
2
LAYER
70
1
0
LAYER
2
0
70
64
62
7
6
CONTINUOUS
0
ENDTAB
0
ENDSEC
0
SECTION
2
BLOCKS
0
ENDSEC
0
SECTION
2
ENTITIES
0
POLYLINE
8
0
6
CONTINUOUS
66
1
62
7
10
0.0
20
0.0
30
0.000000
0
VERTEX
8
0
10
82.000000
20
678.000000
0
VERTEX
8
0
10
82.000000
20
680.000000
0
SEQEND
0
POLYLINE
8
0
6
CONTINUOUS
66
1
62
7
10
0.0
20
0.0
30
0.000000
0
VERTEX
8
0
10
289.000000
20
614.000000
0
VERTEX
8
0
10
289.000000
20
616.000000
0
SEQEND
0
POLYLINE
8
0
6
CONTINUOUS
66
1
62
7
10
0.0
20
0.0
30
0.000000
0
VERTEX
8
0
10
289.000000
20
614.000000
0
VERTEX
8
0
10
290.600000
20
611.800000
0
VERTEX
8
0
10
295.647059
20
592.911765
0
VERTEX
8
0
10
296.352941
20
590.088235
0
VERTEX
8
0
10
298.560976
20
578.951220
0
VERTEX
8
0
10
304.000000
20
534.000000
0
VERTEX
8
0
10
305.000000
20
533.000000
0
VERTEX
8
0
10
331.230769
20
571.846154
0
VERTEX
8
0
10
341.000000
20
586.000000
0
VERTEX
8
0
10
335.200000
20
598.100000
0
VERTEX
8
0
10
328.230769
20
609.153846
0
VERTEX
8
0
10
324.752941
20
614.788235
0
VERTEX
8
0
10
319.247059
20
621.211765
0
VERTEX
8
0
10
309.000000
20
633.000000
0
VERTEX
8
0
10
286.180000
20
655.240000
0
VERTEX
8
0
10
283.000000
20
658.000000
0
VERTEX
8
0
10
269.000000
20
644.000000
0
VERTEX
8
0
10
257.240000
20
628.820000
0
VERTEX
8
0
10
253.200000
20
620.900000
0
VERTEX
8
0
10
246.800000
20
608.100000
0
VERTEX
8
0
10
239.000000
20
590.000000
0
VERTEX
8
0
10
239.000000
20
588.000000
0
VERTEX
8
0
10
245.752212
20
580.783186
0
VERTEX
8
0
10
279.000000
20
541.000000
0
VERTEX
8
0
10
280.000000
20
542.000000
0
VERTEX
8
0
10
280.529231
20
549.026154
0
VERTEX
8
0
10
282.461929
20
579.967005
0
VERTEX
8
0
10
287.384615
20
607.923077
0
VERTEX
8
0
10
289.000000
20
614.000000
0
SEQEND
0
POLYLINE
8
0
6
CONTINUOUS
66
1
62
7
10
0.0
20
0.0
30
0.000000
0
VERTEX
8
0
10
89.000000
20
505.000000
0
VERTEX
8
0
10
89.000000
20
507.000000
0
SEQEND
0
POLYLINE
8
0
6
CONTINUOUS
66
1
62
7
10
0.0
20
0.0
30
0.000000
0
VERTEX
8
0
10
252.000000
20
414.000000
0
VERTEX
8
0
10
252.400000
20
414.800000
0
VERTEX
8
0
10
237.769231
20
436.846154
0
VERTEX
8
0
10
236.230769
20
439.153846
0
VERTEX
8
0
10
228.200000
20
458.100000
0
VERTEX
8
0
10
226.700000
20
461.900000
0
VERTEX
8
0
10
222.000000
20
477.000000
0
VERTEX
8
0
10
222.000000
20
483.000000
0
VERTEX
8
0
10
223.000000
20
484.000000
0
VERTEX
8
0
10
228.000000
20
479.000000
0
VERTEX
8
0
10
253.756098
20
443.804878
0
VERTEX
8
0
10
254.000000
20
443.000000
0
VERTEX
8
0
10
269.846154
20
427.769231
0
VERTEX
8
0
10
272.000000
20
426.000000
0
VERTEX
8
0
10
274.000000
20
428.000000
0
VERTEX
8
0
10
274.580000
20
433.060000
0
VERTEX
8
0
10
275.420000
20
438.940000
0
VERTEX
8
0
10
278.000000
20
458.000000
0
VERTEX
8
0
10
278.000000
20
470.000000
0
VERTEX
8
0
10
273.615385
20
495.923077
0
VERTEX
8
0
10
271.800000
20
499.900000
0
VERTEX
8
0
10
270.200000
20
504.100000
0
VERTEX
8
0
10
262.769231
20
519.846154
0
VERTEX
8
0
10
260.200000
20
524.100000
0
VERTEX
8
0
10
241.240000
20
554.180000
0
VERTEX
8
0
10
222.000000
20
578.000000
0
VERTEX
8
0
10
198.000000
20
602.000000
0
VERTEX
8
0
10
193.820000
20
604.760000
0
VERTEX
8
0
10
193.180000
20
605.240000
0
VERTEX
8
0
10
181.000000
20
614.000000
0
VERTEX
8
0
10
180.000000
20
613.000000
0
VERTEX
8
0
10
180.594595
20
608.932432
0
VERTEX
8
0
10
191.405405
20
542.067568
0
VERTEX
8
0
10
202.800000
20
472.900000
0
VERTEX
8
0
10
210.800000
20
455.900000
0
VERTEX
8
0
10
222.240000
20
438.180000
0
VERTEX
8
0
10
224.760000
20
434.820000
0
VERTEX
8
0
10
239.000000
20
420.000000
0
VERTEX
8
0
10
249.100000
20
415.200000
0
VERTEX
8
0
10
252.000000
20
414.000000
0
SEQEND
0
POLYLINE
8
0
6
CONTINUOUS
66
1
62
7
10
0.0
20
0.0
30
0.000000
0
VERTEX
8
0
10
327.000000
20
408.000000
0
VERTEX
8
0
10
336.088235
20
410.647059
0
VERTEX
8
0
10
351.846154
20
416.230769
0
VERTEX
8
0
10
363.000000
20
424.000000
0
VERTEX
8
0
10
373.200000
20
437.900000
0
VERTEX
8
0
10
376.300000
20
445.900000
0
VERTEX
8
0
10
380.580000
20
461.060000
0
VERTEX
8
0
10
381.420000
20
466.940000
0
VERTEX
8
0
10
384.461929
20
498.967005
0
VERTEX
8
0
10
389.580000
20
551.060000
0
VERTEX
8
0
10
393.384615
20
572.923077
0
VERTEX
8
0
10
399.352941
20
597.911765
0
VERTEX
8
0
10
399.647059
20
599.088235
0
VERTEX
8
0
10
402.000000
20
610.000000
0
VERTEX
8
0
10
401.000000
20
611.000000
0
VERTEX
8
0
10
398.195122
20
608.756098
0
VERTEX
8
0
10
393.804878
20
605.243902
0
VERTEX
8
0
10
363.000000
20
578.000000
0
VERTEX
8
0
10
355.000000
20
570.000000
0
VERTEX
8
0
10
344.240000
20
554.820000
0
VERTEX
8
0
10
333.240000
20
539.820000
0
VERTEX
8
0
10
323.230769
20
521.846154
0
VERTEX
8
0
10
313.200000
20
501.900000
0
VERTEX
8
0
10
305.700000
20
483.100000
0
VERTEX
8
0
10
302.647059
20
472.088235
0
VERTEX
8
0
10
298.450820
20
444.959016
0
VERTEX
8
0
10
297.000000
20
434.000000
0
VERTEX
8
0
10
297.000000
20
426.000000
0
VERTEX
8
0
10
300.000000
20
424.500000
0
VERTEX
8
0
10
303.900000
20
426.200000
0
VERTEX
8
0
10
318.153846
20
435.769231
0
VERTEX
8
0
10
338.223757
20
452.751381
0
VERTEX
8
0
10
338.783186
20
453.247788
0
VERTEX
8
0
10
358.000000
20
470.000000
0
VERTEX
8
0
10
359.000000
20
469.000000
0
VERTEX
8
0
10
359.000000
20
463.000000
0
VERTEX
8
0
10
353.800000
20
449.100000
0
VERTEX
8
0
10
351.200000
20
443.900000
0
VERTEX
8
0
10
342.230769
20
428.846154
0
VERTEX
8
0
10
324.000000
20
410.000000
0
VERTEX
8
0
10
325.000000
20
408.000000
0
VERTEX
8
0
10
327.000000
20
408.000000
0
SEQEND
0
POLYLINE
8
0
6
CONTINUOUS
66
1
62
7
10
0.0
20
0.0
30
0.000000
0
VERTEX
8
0
10
343.000000
20
274.000000
0
VERTEX
8
0
10
344.000000
20
274.000000
0
VERTEX
8
0
10
405.195122
20
325.756098
0
VERTEX
8
0
10
412.000000
20
331.000000
0
VERTEX
8
0
10
437.000000
20
356.000000
0
VERTEX
8
0
10
466.754098
20
388.204918
0
VERTEX
8
0
10
479.769231
20
406.153846
0
VERTEX
8
0
10
484.760000
20
413.180000
0
VERTEX
8
0
10
492.800000
20
428.100000
0
VERTEX
8
0
10
499.200000
20
440.900000
0
VERTEX
8
0
10
506.594595
20
467.067568
0
VERTEX
8
0
10
510.000000
20
492.000000
0
VERTEX
8
0
10
510.000000
20
507.000000
0
VERTEX
8
0
10
509.000000
20
508.000000
0
VERTEX
8
0
10
506.800000
20
504.100000
0
VERTEX
8
0
10
506.200000
20
502.900000
0
VERTEX
8
0
10
490.769231
20
470.153846
0
VERTEX
8
0
10
487.230769
20
464.846154
0
VERTEX
8
0
10
467.760000
20
436.180000
0
VERTEX
8
0
10
461.760000
20
428.180000
0
VERTEX
8
0
10
366.769231
20
311.153846
0
VERTEX
8
0
10
362.240000
20
304.820000
0
VERTEX
8
0
10
344.800000
20
278.100000
0
VERTEX
8
0
10
343.000000
20
274.000000
0
SEQEND
0
POLYLINE
8
0
6
CONTINUOUS
66
1
62
7
10
0.0
20
0.0
30
0.000000
0
VERTEX
8
0
10
342.000000
20
272.000000
0
VERTEX
8
0
10
343.000000
20
274.000000
0
SEQEND
0
POLYLINE
8
0
6
CONTINUOUS
66
1
62
7
10
0.0
20
0.0
30
0.000000
0
VERTEX
8
0
10
235.000000
20
258.000000
0
VERTEX
8
0
10
234.700000
20
259.900000
0
VERTEX
8
0
10
225.800000
20
277.900000
0
VERTEX
8
0
10
225.200000
20
279.100000
0
VERTEX
8
0
10
202.230769
20
316.153846
0
VERTEX
8
0
10
179.230769
20
349.153846
0
VERTEX
8
0
10
129.800000
20
420.900000
0
VERTEX
8
0
10
112.230769
20
450.153846
0
VERTEX
8
0
10
100.300000
20
475.100000
0
VERTEX
8
0
10
89.000000
20
505.000000
0
SEQEND
0
POLYLINE
8
0
6
CONTINUOUS
66
1
62
7
10
0.0
20
0.0
30
0.000000
0
VERTEX
8
0
10
234.000000
20
257.000000
0
VERTEX
8
0
10
217.000000
20
272.000000
0
VERTEX
8
0
10
151.754098
20
338.795082
0
VERTEX
8
0
10
142.245902
20
350.204918
0
VERTEX
8
0
10
121.769231
20
377.846154
0
VERTEX
8
0
10
112.230769
20
393.153846
0
VERTEX
8
0
10
103.200000
20
410.100000
0
VERTEX
8
0
10
97.200000
20
423.100000
0
VERTEX
8
0
10
91.300000
20
443.100000
0
VERTEX
8
0
10
89.647059
20
448.911765
0
VERTEX
8
0
10
87.000000
20
459.000000
0
VERTEX
8
0
10
87.000000
20
490.000000
0
VERTEX
8
0
10
88.461929
20
503.967005
0
VERTEX
8
0
10
89.000000
20
505.000000
0
SEQEND
0
POLYLINE
8
0
6
CONTINUOUS
66
1
62
7
10
0.0
20
0.0
30
0.000000
0
VERTEX
8
0
10
234.000000
20
257.000000
0
VERTEX
8
0
10
235.000000
20
258.000000
0
SEQEND
0
POLYLINE
8
0
6
CONTINUOUS
66
1
62
7
10
0.0
20
0.0
30
0.000000
0
VERTEX
8
0
10
236.000000
20
257.000000
0
VERTEX
8
0
10
235.000000
20
258.000000
0
SEQEND
0
POLYLINE
8
0
6
CONTINUOUS
66
1
62
7
10
0.0
20
0.0
30
0.000000
0
VERTEX
8
0
10
236.000000
20
256.000000
0
VERTEX
8
0
10
234.000000
20
257.000000
0
SEQEND
0
POLYLINE
8
0
6
CONTINUOUS
66
1
62
7
10
0.0
20
0.0
30
0.000000
0
VERTEX
8
0
10
236.000000
20
256.000000
0
VERTEX
8
0
10
236.000000
20
257.000000
0
SEQEND
0
POLYLINE
8
0
6
CONTINUOUS
66
1
62
7
10
0.0
20
0.0
30
0.000000
0
VERTEX
8
0
10
237.000000
20
254.000000
0
VERTEX
8
0
10
236.000000
20
256.000000
0
SEQEND
0
POLYLINE
8
0
6
CONTINUOUS
66
1
62
7
10
0.0
20
0.0
30
0.000000
0
VERTEX
8
0
10
82.000000
20
678.000000
0
VERTEX
8
0
10
80.647059
20
674.088235
0
VERTEX
8
0
10
67.384615
20
612.923077
0
VERTEX
8
0
10
65.615385
20
604.076923
0
VERTEX
8
0
10
61.445545
20
576.955446
0
VERTEX
8
0
10
58.000000
20
523.000000
0
VERTEX
8
0
10
58.000000
20
473.000000
0
VERTEX
8
0
10
61.430769
20
448.053846
0
VERTEX
8
0
10
64.352941
20
429.088235
0
VERTEX
8
0
10
70.700000
20
402.900000
0
VERTEX
8
0
10
78.300000
20
378.100000
0
VERTEX
8
0
10
80.300000
20
373.100000
0
VERTEX
8
0
10
92.200000
20
347.100000
0
VERTEX
8
0
10
93.800000
20
343.900000
0
VERTEX
8
0
10
106.760000
20
324.820000
0
VERTEX
8
0
10
110.769231
20
318.846154
0
VERTEX
8
0
10
126.751724
20
299.779310
0
VERTEX
8
0
10
135.000000
20
290.000000
0
VERTEX
8
0
10
166.820000
20
259.760000
0
VERTEX
8
0
10
191.180000
20
242.240000
0
VERTEX
8
0
10
207.100000
20
234.200000
0
VERTEX
8
0
10
217.100000
20
229.200000
0
VERTEX
8
0
10
231.100000
20
223.300000
0
VERTEX
8
0
10
247.100000
20
218.300000
0
VERTEX
8
0
10
260.000000
20
214.000000
0
VERTEX
8
0
10
261.000000
20
213.000000
0
VERTEX
8
0
10
262.549180
20
204.959016
0
VERTEX
8
0
10
263.450820
20
195.040984
0
VERTEX
8
0
10
264.250000
20
17.250000
0
VERTEX
8
0
10
295.000000
20
17.000000
0
VERTEX
8
0
10
296.000000
20
18.000000
0
VERTEX
8
0
10
296.000000
20
205.000000
0
VERTEX
8
0
10
298.000000
20
207.000000
0
VERTEX
8
0
10
302.088235
20
207.647059
0
VERTEX
8
0
10
332.911765
20
215.352941
0
VERTEX
8
0
10
353.900000
20
222.200000
0
VERTEX
8
0
10
378.100000
20
231.800000
0
VERTEX
8
0
10
416.153846
20
251.769231
0
VERTEX
8
0
10
422.153846
20
255.769231
0
VERTEX
8
0
10
435.795082
20
265.245902
0
VERTEX
8
0
10
441.204918
20
269.754098
0
VERTEX
8
0
10
448.000000
20
275.000000
0
VERTEX
8
0
10
467.000000
20
294.000000
0
VERTEX
8
0
10
480.756098
20
311.195122
0
VERTEX
8
0
10
488.240000
20
320.820000
0
VERTEX
8
0
10
504.769231
20
346.153846
0
VERTEX
8
0
10
508.769231
20
353.153846
0
VERTEX
8
0
10
515.800000
20
368.100000
0
VERTEX
8
0
10
517.200000
20
370.900000
0
VERTEX
8
0
10
527.700000
20
398.100000
0
VERTEX
8
0
10
529.200000
20
401.900000
0
VERTEX
8
0
10
535.647059
20
423.088235
0
VERTEX
8
0
10
541.352941
20
445.911765
0
VERTEX
8
0
10
546.000000
20
469.000000
0
VERTEX
8
0
10
546.000000
20
504.000000
0
VERTEX
8
0
10
540.580000
20
547.940000
0
VERTEX
8
0
10
536.700000
20
567.900000
0
VERTEX
8
0
10
532.352941
20
582.088235
0
VERTEX
8
0
10
525.800000
20
602.900000
0
VERTEX
8
0
10
521.200000
20
613.100000
0
VERTEX
8
0
10
504.200000
20
647.100000
0
VERTEX
8
0
10
502.230769
20
650.153846
0
VERTEX
8
0
10
485.000000
20
679.000000
0
VERTEX
8
0
10
482.000000
20
682.000000
0
VERTEX
8
0
10
481.000000
20
681.000000
0
VERTEX
8
0
10
480.506942
20
609.006754
0
VERTEX
8
0
10
477.594595
20
589.067568
0
VERTEX
8
0
10
473.569231
20
559.053846
0
VERTEX
8
0
10
467.647059
20
533.088235
0
VERTEX
8
0
10
463.647059
20
520.088235
0
VERTEX
8
0
10
450.200000
20
481.900000
0
VERTEX
8
0
10
448.200000
20
477.900000
0
VERTEX
8
0
10
440.769231
20
462.153846
0
VERTEX
8
0
10
436.200000
20
454.900000
0
VERTEX
8
0
10
418.760000
20
430.180000
0
VERTEX
8
0
10
416.240000
20
426.820000
0
VERTEX
8
0
10
397.000000
20
406.000000
0
VERTEX
8
0
10
343.788235
20
360.247059
0
VERTEX
8
0
10
329.000000
20
348.000000
0
VERTEX
8
0
10
296.000000
20
313.000000
0
VERTEX
8
0
10
295.000000
20
314.000000
0
VERTEX
8
0
10
295.000000
20
332.000000
0
VERTEX
8
0
10
299.000000
20
383.000000
0
VERTEX
8
0
10
301.000000
20
385.000000
0
VERTEX
8
0
10
314.100000
20
388.700000
0
VERTEX
8
0
10
331.900000
20
394.300000
0
VERTEX
8
0
10
351.100000
20
400.800000
0
VERTEX
8
0
10
364.153846
20
407.769231
0
VERTEX
8
0
10
376.000000
20
416.000000
0
VERTEX
8
0
10
383.000000
20
423.000000
0
VERTEX
8
0
10
390.200000
20
434.900000
0
VERTEX
8
0
10
391.200000
20
436.900000
0
VERTEX
8
0
10
396.647059
20
448.088235
0
VERTEX
8
0
10
398.647059
20
456.088235
0
VERTEX
8
0
10
400.522642
20
474.020755
0
VERTEX
8
0
10
402.464602
20
510.969027
0
VERTEX
8
0
10
404.405405
20
522.932432
0
VERTEX
8
0
10
409.405405
20
556.932432
0
VERTEX
8
0
10
421.700000
20
609.100000
0
VERTEX
8
0
10
434.300000
20
642.900000
0
VERTEX
8
0
10
438.000000
20
651.000000
0
VERTEX
8
0
10
437.000000
20
652.000000
0
VERTEX
8
0
10
415.900000
20
642.200000
0
VERTEX
8
0
10
385.180000
20
626.760000
0
VERTEX
8
0
10
373.180000
20
617.760000
0
VERTEX
8
0
10
354.000000
20
603.000000
0
VERTEX
8
0
10
340.243902
20
620.195122
0
VERTEX
8
0
10
317.000000
20
649.000000
0
VERTEX
8
0
10
285.000000
20
679.000000
0
VERTEX
8
0
10
282.000000
20
679.000000
0
VERTEX
8
0
10
266.751381
20
662.223757
0
VERTEX
8
0
10
243.247059
20
635.788235
0
VERTEX
8
0
10
236.230769
20
624.846154
0
VERTEX
8
0
10
225.000000
20
607.000000
0
VERTEX
8
0
10
223.000000
20
607.000000
0
VERTEX
8
0
10
216.846154
20
611.769231
0
VERTEX
8
0
10
183.900000
20
628.700000
0
VERTEX
8
0
10
180.900000
20
629.800000
0
VERTEX
8
0
10
148.000000
20
642.000000
0
VERTEX
8
0
10
147.000000
20
641.000000
0
VERTEX
8
0
10
147.800000
20
638.900000
0
VERTEX
8
0
10
148.200000
20
638.100000
0
VERTEX
8
0
10
160.300000
20
604.100000
0
VERTEX
8
0
10
162.300000
20
597.100000
0
VERTEX
8
0
10
167.420000
20
564.060000
0
VERTEX
8
0
10
171.420000
20
536.060000
0
VERTEX
8
0
10
178.647059
20
488.911765
0
VERTEX
8
0
10
183.352941
20
470.088235
0
VERTEX
8
0
10
190.200000
20
452.100000
0
VERTEX
8
0
10
196.769231
20
439.846154
0
VERTEX
8
0
10
208.000000
20
423.000000
0
VERTEX
8
0
10
212.000000
20
419.000000
0
VERTEX
8
0
10
233.153846
20
403.230769
0
VERTEX
8
0
10
242.100000
20
399.200000
0
VERTEX
8
0
10
253.100000
20
394.300000
0
VERTEX
8
0
10
266.000000
20
389.000000
0
VERTEX
8
0
10
268.000000
20
387.000000
0
VERTEX
8
0
10
264.000000
20
326.000000
0
VERTEX
8
0
10
263.000000
20
325.000000
0
VERTEX
8
0
10
252.756098
20
337.804878
0
VERTEX
8
0
10
232.240000
20
364.180000
0
VERTEX
8
0
10
222.000000
20
376.000000
0
VERTEX
8
0
10
198.000000
20
400.000000
0
VERTEX
8
0
10
185.795082
20
409.754098
0
VERTEX
8
0
10
172.000000
20
423.000000
0
VERTEX
8
0
10
162.245902
20
435.204918
0
VERTEX
8
0
10
146.230769
20
457.153846
0
VERTEX
8
0
10
131.800000
20
483.900000
0
VERTEX
8
0
10
113.300000
20
531.100000
0
VERTEX
8
0
10
101.647059
20
575.911765
0
VERTEX
8
0
10
93.615385
20
612.923077
0
VERTEX
8
0
10
93.405405
20
614.067568
0
VERTEX
8
0
10
82.800000
20
676.900000
0
VERTEX
8
0
10
82.000000
20
678.000000
0
SEQEND
0
ENDSEC
0
EOF
