0
SECTION
2
HEADER
9
$ACADVER
1
AC1003
9
$INSBASE
10
0.0
20
0.0
30
0.0
9
$EXTMIN
10
0.000
20
0.000
30
0.0
9
$EXTMAX
10
769.000
20
787.000
30
0.0
9
$LIMMIN
10
0.000
20
0.000
9
$LIMMAX
10
769.000
20
787.000
9
$LTSCALE
40
1.0
9
$LUNITS
70
2
9
$LUPREC
70
3
9
$LIMCHECK
70
0
9
$UCSNAME
2

9
$UCSORG
10
0.0
20
0.0
30
0.0
9
$UCSXDIR
10
1.0
20
0.0
30
0.0
9
$UCSYDIR
10
0.0
20
1.0
30
0.0
9
$WORLDVIEW
70
1
9
$UNITMODE
70
0
0
ENDSEC
0
SECTION
2
TABLES
0
TABLE
2
VPORT
70
1
0
VPORT
2
*ACTIVE
70
0
10
0.0
20
0.0
11
1.0
21
1.0
12
384.500
22
393.500
13
0.0
23
0.0
14
1.0
24
1.0
15
0.0
25
0.0
16
0.0
26
0.0
36
1.0
17
0.0
27
0.0
37
0.0
40
500.0
41
1.023
42
50.0
43
0.0
44
0.0
50
0.0
51
0.0
71
0
72
100
73
1
74
1
75
0
76
0
77
0
78
0
0
ENDTAB
0
TABLE
2
LTYPE
70
1
0
LTYPE
2
CONTINUOUS
70
64
3
Solid line
72
65
73
0
40
0.000
0
ENDTAB
0
TABLE
2
LAYER
70
1
0
LAYER
2
0
70
64
62
7
6
CONTINUOUS
0
ENDTAB
0
ENDSEC
0
SECTION
2
BLOCKS
0
ENDSEC
0
SECTION
2
ENTITIES
0
POLYLINE
8
0
6
CONTINUOUS
66
1
62
7
10
0.0
20
0.0
30
0.000000
0
VERTEX
8
0
10
391.000000
20
719.000000
0
VERTEX
8
0
10
394.000000
20
721.000000
0
VERTEX
8
0
10
396.200000
20
723.900000
0
VERTEX
8
0
10
397.300000
20
726.900000
0
VERTEX
8
0
10
398.000000
20
731.000000
0
VERTEX
8
0
10
397.200000
20
732.100000
0
VERTEX
8
0
10
396.000000
20
735.000000
0
VERTEX
8
0
10
392.000000
20
739.000000
0
VERTEX
8
0
10
389.000000
20
740.000000
0
VERTEX
8
0
10
384.900000
20
739.300000
0
VERTEX
8
0
10
383.000000
20
739.000000
0
VERTEX
8
0
10
378.000000
20
734.000000
0
VERTEX
8
0
10
377.000000
20
731.000000
0
VERTEX
8
0
10
377.000000
20
727.000000
0
VERTEX
8
0
10
378.000000
20
724.000000
0
VERTEX
8
0
10
381.846154
20
720.769231
0
VERTEX
8
0
10
384.164706
20
719.741176
0
VERTEX
8
0
10
391.000000
20
719.000000
0
SEQEND
0
POLYLINE
8
0
6
CONTINUOUS
66
1
62
7
10
0.0
20
0.0
30
0.000000
0
VERTEX
8
0
10
682.000000
20
503.000000
0
VERTEX
8
0
10
680.000000
20
505.000000
0
SEQEND
0
POLYLINE
8
0
6
CONTINUOUS
66
1
62
7
10
0.0
20
0.0
30
0.000000
0
VERTEX
8
0
10
617.000000
20
481.000000
0
VERTEX
8
0
10
619.000000
20
482.000000
0
VERTEX
8
0
10
622.200000
20
485.900000
0
VERTEX
8
0
10
623.000000
20
487.000000
0
VERTEX
8
0
10
623.000000
20
493.000000
0
VERTEX
8
0
10
622.000000
20
495.000000
0
VERTEX
8
0
10
618.000000
20
499.000000
0
VERTEX
8
0
10
614.000000
20
500.000000
0
VERTEX
8
0
10
611.911765
20
499.352941
0
VERTEX
8
0
10
609.000000
20
499.000000
0
VERTEX
8
0
10
604.000000
20
493.000000
0
VERTEX
8
0
10
604.000000
20
487.000000
0
VERTEX
8
0
10
606.000000
20
484.000000
0
VERTEX
8
0
10
608.000000
20
482.000000
0
VERTEX
8
0
10
610.053846
20
481.430769
0
VERTEX
8
0
10
617.000000
20
481.000000
0
SEQEND
0
POLYLINE
8
0
6
CONTINUOUS
66
1
62
7
10
0.0
20
0.0
30
0.000000
0
VERTEX
8
0
10
695.000000
20
463.000000
0
VERTEX
8
0
10
695.000000
20
465.000000
0
SEQEND
0
POLYLINE
8
0
6
CONTINUOUS
66
1
62
7
10
0.0
20
0.0
30
0.000000
0
VERTEX
8
0
10
616.000000
20
369.000000
0
VERTEX
8
0
10
622.000000
20
374.000000
0
VERTEX
8
0
10
627.000000
20
382.000000
0
VERTEX
8
0
10
627.000000
20
385.000000
0
VERTEX
8
0
10
618.248619
20
394.223757
0
VERTEX
8
0
10
604.800000
20
415.900000
0
VERTEX
8
0
10
596.800000
20
429.900000
0
VERTEX
8
0
10
585.300000
20
455.100000
0
VERTEX
8
0
10
578.300000
20
472.100000
0
VERTEX
8
0
10
571.647059
20
490.911765
0
VERTEX
8
0
10
570.405405
20
498.067568
0
VERTEX
8
0
10
567.000000
20
525.000000
0
VERTEX
8
0
10
565.000000
20
527.000000
0
VERTEX
8
0
10
561.911765
20
527.647059
0
VERTEX
8
0
10
559.088235
20
528.352941
0
VERTEX
8
0
10
541.035294
20
530.458824
0
VERTEX
8
0
10
539.972414
20
530.531034
0
VERTEX
8
0
10
517.000000
20
532.000000
0
VERTEX
8
0
10
516.000000
20
531.000000
0
VERTEX
8
0
10
516.647059
20
526.911765
0
VERTEX
8
0
10
519.352941
20
515.088235
0
VERTEX
8
0
10
527.200000
20
495.100000
0
VERTEX
8
0
10
533.200000
20
482.100000
0
VERTEX
8
0
10
549.769231
20
453.846154
0
VERTEX
8
0
10
583.754098
20
411.795082
0
VERTEX
8
0
10
602.230769
20
389.153846
0
VERTEX
8
0
10
615.000000
20
369.000000
0
VERTEX
8
0
10
616.000000
20
369.000000
0
SEQEND
0
POLYLINE
8
0
6
CONTINUOUS
66
1
62
7
10
0.0
20
0.0
30
0.000000
0
VERTEX
8
0
10
87.000000
20
272.000000
0
VERTEX
8
0
10
86.000000
20
272.000000
0
VERTEX
8
0
10
77.647059
20
298.911765
0
VERTEX
8
0
10
74.405405
20
313.067568
0
VERTEX
8
0
10
71.594595
20
329.932432
0
VERTEX
8
0
10
68.000000
20
368.000000
0
VERTEX
8
0
10
68.000000
20
384.000000
0
VERTEX
8
0
10
70.461929
20
411.967005
0
VERTEX
8
0
10
74.405405
20
437.932432
0
VERTEX
8
0
10
78.405405
20
459.932432
0
VERTEX
8
0
10
89.800000
20
492.100000
0
VERTEX
8
0
10
94.300000
20
503.900000
0
VERTEX
8
0
10
111.200000
20
535.900000
0
VERTEX
8
0
10
114.800000
20
543.100000
0
VERTEX
8
0
10
136.240000
20
573.820000
0
VERTEX
8
0
10
138.760000
20
577.180000
0
VERTEX
8
0
10
144.000000
20
585.000000
0
VERTEX
8
0
10
180.000000
20
621.000000
0
VERTEX
8
0
10
221.100000
20
649.800000
0
VERTEX
8
0
10
255.100000
20
667.800000
0
VERTEX
8
0
10
291.900000
20
682.300000
0
VERTEX
8
0
10
294.900000
20
683.300000
0
VERTEX
8
0
10
305.067568
20
686.594595
0
VERTEX
8
0
10
314.923077
20
688.384615
0
VERTEX
8
0
10
343.044554
20
693.554455
0
VERTEX
8
0
10
381.000000
20
697.000000
0
VERTEX
8
0
10
396.030973
20
696.464602
0
VERTEX
8
0
10
433.955446
20
693.554455
0
VERTEX
8
0
10
465.923077
20
686.615385
0
VERTEX
8
0
10
474.911765
20
684.647059
0
VERTEX
8
0
10
511.100000
20
671.200000
0
VERTEX
8
0
10
517.900000
20
668.700000
0
VERTEX
8
0
10
558.900000
20
646.800000
0
VERTEX
8
0
10
560.100000
20
646.200000
0
VERTEX
8
0
10
574.180000
20
636.240000
0
VERTEX
8
0
10
600.000000
20
617.000000
0
VERTEX
8
0
10
607.000000
20
610.000000
0
VERTEX
8
0
10
637.760000
20
574.820000
0
VERTEX
8
0
10
663.800000
20
536.900000
0
VERTEX
8
0
10
680.000000
20
506.000000
0
VERTEX
8
0
10
680.000000
20
505.000000
0
SEQEND
0
POLYLINE
8
0
6
CONTINUOUS
66
1
62
7
10
0.0
20
0.0
30
0.000000
0
VERTEX
8
0
10
87.000000
20
272.000000
0
VERTEX
8
0
10
88.430769
20
283.946154
0
VERTEX
8
0
10
91.200000
20
299.900000
0
VERTEX
8
0
10
93.240000
20
303.820000
0
VERTEX
8
0
10
105.700000
20
321.100000
0
VERTEX
8
0
10
106.300000
20
322.900000
0
VERTEX
8
0
10
108.000000
20
328.000000
0
VERTEX
8
0
10
108.000000
20
335.000000
0
VERTEX
8
0
10
105.800000
20
339.900000
0
VERTEX
8
0
10
103.300000
20
347.100000
0
VERTEX
8
0
10
84.000000
20
394.000000
0
VERTEX
8
0
10
86.000000
20
396.000000
0
VERTEX
8
0
10
144.088235
20
378.352941
0
VERTEX
8
0
10
146.911765
20
377.647059
0
VERTEX
8
0
10
167.900000
20
366.800000
0
VERTEX
8
0
10
172.900000
20
363.800000
0
VERTEX
8
0
10
189.000000
20
354.000000
0
VERTEX
8
0
10
201.000000
20
354.000000
0
VERTEX
8
0
10
208.900000
20
356.200000
0
VERTEX
8
0
10
215.000000
20
360.000000
0
VERTEX
8
0
10
213.200000
20
363.100000
0
VERTEX
8
0
10
209.000000
20
368.000000
0
VERTEX
8
0
10
202.795082
20
372.754098
0
VERTEX
8
0
10
192.900000
20
377.800000
0
VERTEX
8
0
10
186.900000
20
380.800000
0
VERTEX
8
0
10
172.000000
20
389.000000
0
VERTEX
8
0
10
167.800000
20
394.900000
0
VERTEX
8
0
10
163.000000
20
406.000000
0
VERTEX
8
0
10
164.000000
20
416.000000
0
VERTEX
8
0
10
176.000000
20
428.000000
0
VERTEX
8
0
10
204.153846
20
447.769231
0
VERTEX
8
0
10
224.900000
20
460.200000
0
VERTEX
8
0
10
266.100000
20
482.800000
0
VERTEX
8
0
10
272.100000
20
485.800000
0
VERTEX
8
0
10
300.820000
20
499.240000
0
VERTEX
8
0
10
308.180000
20
504.760000
0
VERTEX
8
0
10
315.000000
20
511.000000
0
VERTEX
8
0
10
319.754098
20
517.204918
0
VERTEX
8
0
10
337.800000
20
555.100000
0
VERTEX
8
0
10
338.800000
20
557.100000
0
VERTEX
8
0
10
345.245902
20
567.795082
0
VERTEX
8
0
10
349.754098
20
573.204918
0
VERTEX
8
0
10
365.000000
20
589.000000
0
VERTEX
8
0
10
377.100000
20
594.800000
0
VERTEX
8
0
10
390.900000
20
601.200000
0
VERTEX
8
0
10
416.088235
20
609.647059
0
VERTEX
8
0
10
431.000000
20
613.000000
0
VERTEX
8
0
10
454.000000
20
613.000000
0
VERTEX
8
0
10
467.900000
20
609.700000
0
VERTEX
8
0
10
483.820000
20
602.760000
0
VERTEX
8
0
10
493.766112
20
594.750520
0
VERTEX
8
0
10
536.088235
20
555.352941
0
VERTEX
8
0
10
546.076923
20
553.384615
0
VERTEX
8
0
10
625.088235
20
535.352941
0
VERTEX
8
0
10
642.900000
20
528.700000
0
VERTEX
8
0
10
658.900000
20
519.800000
0
VERTEX
8
0
10
660.100000
20
519.200000
0
VERTEX
8
0
10
674.804878
20
508.756098
0
VERTEX
8
0
10
680.000000
20
505.000000
0
SEQEND
0
POLYLINE
8
0
6
CONTINUOUS
66
1
62
7
10
0.0
20
0.0
30
0.000000
0
VERTEX
8
0
10
87.000000
20
268.000000
0
VERTEX
8
0
10
87.000000
20
272.000000
0
SEQEND
0
POLYLINE
8
0
6
CONTINUOUS
66
1
62
7
10
0.0
20
0.0
30
0.000000
0
VERTEX
8
0
10
409.000000
20
268.000000
0
VERTEX
8
0
10
419.100000
20
270.800000
0
VERTEX
8
0
10
445.000000
20
283.000000
0
VERTEX
8
0
10
451.000000
20
289.000000
0
VERTEX
8
0
10
444.000000
20
296.000000
0
VERTEX
8
0
10
439.820000
20
298.760000
0
VERTEX
8
0
10
436.000000
20
302.000000
0
VERTEX
8
0
10
425.200000
20
318.100000
0
VERTEX
8
0
10
419.230769
20
328.153846
0
VERTEX
8
0
10
409.200000
20
351.100000
0
VERTEX
8
0
10
405.352941
20
363.088235
0
VERTEX
8
0
10
392.800000
20
407.900000
0
VERTEX
8
0
10
389.300000
20
416.100000
0
VERTEX
8
0
10
379.800000
20
436.900000
0
VERTEX
8
0
10
374.245902
20
444.204918
0
VERTEX
8
0
10
366.000000
20
453.000000
0
VERTEX
8
0
10
359.795082
20
457.754098
0
VERTEX
8
0
10
343.900000
20
465.700000
0
VERTEX
8
0
10
333.100000
20
470.200000
0
VERTEX
8
0
10
310.000000
20
478.000000
0
VERTEX
8
0
10
303.000000
20
478.000000
0
VERTEX
8
0
10
292.100000
20
473.700000
0
VERTEX
8
0
10
272.100000
20
464.800000
0
VERTEX
8
0
10
260.900000
20
459.200000
0
VERTEX
8
0
10
245.000000
20
450.000000
0
VERTEX
8
0
10
244.000000
20
449.000000
0
VERTEX
8
0
10
246.000000
20
447.000000
0
VERTEX
8
0
10
250.000000
20
447.000000
0
VERTEX
8
0
10
260.911765
20
450.352941
0
VERTEX
8
0
10
265.923077
20
451.384615
0
VERTEX
8
0
10
294.000000
20
456.000000
0
VERTEX
8
0
10
301.000000
20
456.000000
0
VERTEX
8
0
10
302.846154
20
454.769231
0
VERTEX
8
0
10
305.153846
20
453.230769
0
VERTEX
8
0
10
316.000000
20
445.000000
0
VERTEX
8
0
10
322.756098
20
435.804878
0
VERTEX
8
0
10
331.769231
20
422.846154
0
VERTEX
8
0
10
342.769231
20
404.846154
0
VERTEX
8
0
10
361.800000
20
370.900000
0
VERTEX
8
0
10
377.200000
20
343.100000
0
VERTEX
8
0
10
393.647059
20
311.911765
0
VERTEX
8
0
10
395.300000
20
306.100000
0
VERTEX
8
0
10
405.000000
20
269.000000
0
VERTEX
8
0
10
409.000000
20
268.000000
0
SEQEND
0
POLYLINE
8
0
6
CONTINUOUS
66
1
62
7
10
0.0
20
0.0
30
0.000000
0
VERTEX
8
0
10
695.000000
20
463.000000
0
VERTEX
8
0
10
694.300000
20
461.900000
0
VERTEX
8
0
10
691.384615
20
448.923077
0
VERTEX
8
0
10
690.615385
20
445.076923
0
VERTEX
8
0
10
669.800000
20
401.100000
0
VERTEX
8
0
10
666.200000
20
393.900000
0
VERTEX
8
0
10
657.769231
20
378.153846
0
VERTEX
8
0
10
650.230769
20
366.846154
0
VERTEX
8
0
10
640.752212
20
352.216814
0
VERTEX
8
0
10
634.247788
20
344.783186
0
VERTEX
8
0
10
597.000000
20
305.000000
0
VERTEX
8
0
10
600.594595
20
286.932432
0
VERTEX
8
0
10
606.405405
20
254.067568
0
VERTEX
8
0
10
608.000000
20
248.000000
0
VERTEX
8
0
10
608.000000
20
175.000000
0
VERTEX
8
0
10
606.535398
20
160.030973
0
VERTEX
8
0
10
604.000000
20
144.000000
0
VERTEX
8
0
10
605.000000
20
143.000000
0
VERTEX
8
0
10
612.000000
20
150.000000
0
VERTEX
8
0
10
637.760000
20
179.180000
0
VERTEX
8
0
10
658.760000
20
208.180000
0
VERTEX
8
0
10
670.800000
20
230.100000
0
VERTEX
8
0
10
679.800000
20
247.100000
0
VERTEX
8
0
10
692.700000
20
284.100000
0
VERTEX
8
0
10
693.700000
20
287.100000
0
VERTEX
8
0
10
703.554455
20
332.044554
0
VERTEX
8
0
10
704.445545
20
340.955446
0
VERTEX
8
0
10
707.000000
20
370.000000
0
VERTEX
8
0
10
707.000000
20
384.000000
0
VERTEX
8
0
10
703.554455
20
423.955446
0
VERTEX
8
0
10
698.615385
20
447.923077
0
VERTEX
8
0
10
695.000000
20
463.000000
0
SEQEND
0
POLYLINE
8
0
6
CONTINUOUS
66
1
62
7
10
0.0
20
0.0
30
0.000000
0
VERTEX
8
0
10
398.000000
20
58.000000
0
VERTEX
8
0
10
431.964706
20
60.458824
0
VERTEX
8
0
10
459.923077
20
66.384615
0
VERTEX
8
0
10
465.076923
20
67.615385
0
VERTEX
8
0
10
478.900000
20
71.300000
0
VERTEX
8
0
10
506.900000
20
81.300000
0
VERTEX
8
0
10
529.900000
20
92.200000
0
VERTEX
8
0
10
551.000000
20
103.000000
0
VERTEX
8
0
10
543.180000
20
109.240000
0
VERTEX
8
0
10
508.783186
20
139.752212
0
VERTEX
8
0
10
491.153846
20
154.230769
0
VERTEX
8
0
10
488.846154
20
155.769231
0
VERTEX
8
0
10
483.000000
20
159.000000
0
VERTEX
8
0
10
476.000000
20
166.000000
0
VERTEX
8
0
10
468.200000
20
177.100000
0
VERTEX
8
0
10
465.800000
20
181.900000
0
VERTEX
8
0
10
458.300000
20
200.100000
0
VERTEX
8
0
10
457.700000
20
201.900000
0
VERTEX
8
0
10
456.000000
20
210.000000
0
VERTEX
8
0
10
456.000000
20
233.000000
0
VERTEX
8
0
10
459.352941
20
248.911765
0
VERTEX
8
0
10
465.000000
20
263.000000
0
VERTEX
8
0
10
465.000000
20
264.000000
0
VERTEX
8
0
10
463.000000
20
266.000000
0
VERTEX
8
0
10
461.100000
20
264.800000
0
VERTEX
8
0
10
444.000000
20
251.000000
0
VERTEX
8
0
10
417.000000
20
223.000000
0
VERTEX
8
0
10
404.795082
20
213.245902
0
VERTEX
8
0
10
399.100000
20
209.800000
0
VERTEX
8
0
10
385.911765
20
203.352941
0
VERTEX
8
0
10
374.076923
20
200.615385
0
VERTEX
8
0
10
360.000000
20
197.000000
0
VERTEX
8
0
10
349.000000
20
197.000000
0
VERTEX
8
0
10
307.044554
20
200.445545
0
VERTEX
8
0
10
279.076923
20
205.384615
0
VERTEX
8
0
10
264.923077
20
208.615385
0
VERTEX
8
0
10
204.000000
20
226.000000
0
VERTEX
8
0
10
202.000000
20
228.000000
0
VERTEX
8
0
10
201.000000
20
233.000000
0
VERTEX
8
0
10
201.800000
20
234.100000
0
VERTEX
8
0
10
220.200000
20
251.900000
0
VERTEX
8
0
10
223.000000
20
257.000000
0
VERTEX
8
0
10
222.000000
20
258.000000
0
VERTEX
8
0
10
216.900000
20
256.300000
0
VERTEX
8
0
10
190.100000
20
247.700000
0
VERTEX
8
0
10
127.911765
20
230.352941
0
VERTEX
8
0
10
109.000000
20
227.000000
0
VERTEX
8
0
10
107.000000
20
225.000000
0
VERTEX
8
0
10
126.769231
20
192.846154
0
VERTEX
8
0
10
127.200000
20
192.100000
0
VERTEX
8
0
10
135.248276
20
181.220690
0
VERTEX
8
0
10
167.000000
20
146.000000
0
VERTEX
8
0
10
198.204918
20
120.245902
0
VERTEX
8
0
10
226.900000
20
101.800000
0
VERTEX
8
0
10
241.153846
20
93.230769
0
VERTEX
8
0
10
276.100000
20
78.300000
0
VERTEX
8
0
10
289.100000
20
73.200000
0
VERTEX
8
0
10
334.088235
20
62.352941
0
VERTEX
8
0
10
336.911765
20
61.647059
0
VERTEX
8
0
10
381.026154
20
58.470769
0
VERTEX
8
0
10
398.000000
20
58.000000
0
SEQEND
0
POLYLINE
8
0
6
CONTINUOUS
66
1
62
7
10
0.0
20
0.0
30
0.000000
0
VERTEX
8
0
10
395.000000
20
26.000000
0
VERTEX
8
0
10
435.955446
20
29.445545
0
VERTEX
8
0
10
461.923077
20
34.384615
0
VERTEX
8
0
10
477.923077
20
37.384615
0
VERTEX
8
0
10
492.900000
20
42.300000
0
VERTEX
8
0
10
523.900000
20
53.300000
0
VERTEX
8
0
10
540.900000
20
61.200000
0
VERTEX
8
0
10
563.100000
20
72.800000
0
VERTEX
8
0
10
573.820000
20
78.240000
0
VERTEX
8
0
10
577.180000
20
80.760000
0
VERTEX
8
0
10
615.000000
20
109.000000
0
VERTEX
8
0
10
656.000000
20
150.000000
0
VERTEX
8
0
10
664.760000
20
162.180000
0
VERTEX
8
0
10
684.240000
20
187.820000
0
VERTEX
8
0
10
701.200000
20
218.900000
0
VERTEX
8
0
10
707.800000
20
232.100000
0
VERTEX
8
0
10
715.700000
20
252.100000
0
VERTEX
8
0
10
725.300000
20
278.900000
0
VERTEX
8
0
10
733.384615
20
316.923077
0
VERTEX
8
0
10
736.445545
20
337.955446
0
VERTEX
8
0
10
739.000000
20
370.000000
0
VERTEX
8
0
10
739.000000
20
385.000000
0
VERTEX
8
0
10
735.549180
20
427.959016
0
VERTEX
8
0
10
727.615385
20
466.923077
0
VERTEX
8
0
10
726.615385
20
471.923077
0
VERTEX
8
0
10
709.700000
20
516.900000
0
VERTEX
8
0
10
708.700000
20
519.900000
0
VERTEX
8
0
10
685.230769
20
563.153846
0
VERTEX
8
0
10
684.200000
20
565.100000
0
VERTEX
8
0
10
678.756098
20
573.804878
0
VERTEX
8
0
10
672.240000
20
582.180000
0
VERTEX
8
0
10
650.000000
20
611.000000
0
VERTEX
8
0
10
607.762188
20
651.750297
0
VERTEX
8
0
10
594.846154
20
660.769231
0
VERTEX
8
0
10
591.846154
20
662.769231
0
VERTEX
8
0
10
562.100000
20
682.200000
0
VERTEX
8
0
10
520.100000
20
703.200000
0
VERTEX
8
0
10
468.088235
20
719.352941
0
VERTEX
8
0
10
424.000000
20
727.000000
0
VERTEX
8
0
10
419.200000
20
744.100000
0
VERTEX
8
0
10
417.000000
20
749.000000
0
VERTEX
8
0
10
407.000000
20
759.000000
0
VERTEX
8
0
10
402.900000
20
760.800000
0
VERTEX
8
0
10
395.000000
20
764.000000
0
VERTEX
8
0
10
381.000000
20
764.000000
0
VERTEX
8
0
10
373.900000
20
761.300000
0
VERTEX
8
0
10
367.000000
20
758.000000
0
VERTEX
8
0
10
359.000000
20
750.000000
0
VERTEX
8
0
10
356.200000
20
744.900000
0
VERTEX
8
0
10
351.000000
20
727.000000
0
VERTEX
8
0
10
308.067568
20
719.594595
0
VERTEX
8
0
10
254.900000
20
703.200000
0
VERTEX
8
0
10
212.900000
20
682.200000
0
VERTEX
8
0
10
180.846154
20
661.230769
0
VERTEX
8
0
10
177.846154
20
659.230769
0
VERTEX
8
0
10
167.237812
20
651.750297
0
VERTEX
8
0
10
125.000000
20
611.000000
0
VERTEX
8
0
10
96.240000
20
573.820000
0
VERTEX
8
0
10
87.800000
20
560.100000
0
VERTEX
8
0
10
66.300000
20
519.900000
0
VERTEX
8
0
10
64.200000
20
513.900000
0
VERTEX
8
0
10
48.647059
20
473.088235
0
VERTEX
8
0
10
46.615385
20
463.076923
0
VERTEX
8
0
10
39.450820
20
427.959016
0
VERTEX
8
0
10
38.549180
20
418.040984
0
VERTEX
8
0
10
36.000000
20
370.000000
0
VERTEX
8
0
10
39.445545
20
329.044554
0
VERTEX
8
0
10
42.384615
20
313.076923
0
VERTEX
8
0
10
49.700000
20
278.900000
0
VERTEX
8
0
10
59.700000
20
250.900000
0
VERTEX
8
0
10
67.200000
20
232.100000
0
VERTEX
8
0
10
74.200000
20
218.100000
0
VERTEX
8
0
10
91.240000
20
187.180000
0
VERTEX
8
0
10
112.760000
20
158.820000
0
VERTEX
8
0
10
119.000000
20
150.000000
0
VERTEX
8
0
10
160.000000
20
109.000000
0
VERTEX
8
0
10
201.180000
20
78.240000
0
VERTEX
8
0
10
213.100000
20
72.200000
0
VERTEX
8
0
10
234.900000
20
60.800000
0
VERTEX
8
0
10
251.100000
20
53.300000
0
VERTEX
8
0
10
283.900000
20
41.700000
0
VERTEX
8
0
10
297.076923
20
37.384615
0
VERTEX
8
0
10
316.923077
20
33.615385
0
VERTEX
8
0
10
339.044554
20
29.445545
0
VERTEX
8
0
10
347.955446
20
28.554455
0
VERTEX
8
0
10
395.000000
20
26.000000
0
SEQEND
0
ENDSEC
0
EOF
