0
SECTION
2
HEADER
9
$ACADVER
1
AC1003
9
$INSBASE
10
0.0
20
0.0
30
0.0
9
$EXTMIN
10
0.000
20
0.000
30
0.0
9
$EXTMAX
10
726.000
20
752.000
30
0.0
9
$LIMMIN
10
0.000
20
0.000
9
$LIMMAX
10
726.000
20
752.000
9
$LTSCALE
40
1.0
9
$LUNITS
70
2
9
$LUPREC
70
3
9
$LIMCHECK
70
0
9
$UCSNAME
2

9
$UCSORG
10
0.0
20
0.0
30
0.0
9
$UCSXDIR
10
1.0
20
0.0
30
0.0
9
$UCSYDIR
10
0.0
20
1.0
30
0.0
9
$WORLDVIEW
70
1
9
$UNITMODE
70
0
0
ENDSEC
0
SECTION
2
TABLES
0
TABLE
2
VPORT
70
1
0
VPORT
2
*ACTIVE
70
0
10
0.0
20
0.0
11
1.0
21
1.0
12
363.000
22
376.000
13
0.0
23
0.0
14
1.0
24
1.0
15
0.0
25
0.0
16
0.0
26
0.0
36
1.0
17
0.0
27
0.0
37
0.0
40
500.0
41
1.036
42
50.0
43
0.0
44
0.0
50
0.0
51
0.0
71
0
72
100
73
1
74
1
75
0
76
0
77
0
78
0
0
ENDTAB
0
TABLE
2
LTYPE
70
1
0
LTYPE
2
CONTINUOUS
70
64
3
Solid line
72
65
73
0
40
0.000
0
ENDTAB
0
TABLE
2
LAYER
70
1
0
LAYER
2
0
70
64
62
7
6
CONTINUOUS
0
ENDTAB
0
ENDSEC
0
SECTION
2
BLOCKS
0
ENDSEC
0
SECTION
2
ENTITIES
0
POLYLINE
8
0
6
CONTINUOUS
66
1
62
7
10
0.0
20
0.0
30
0.000000
0
VERTEX
8
0
10
356.000000
20
656.000000
0
VERTEX
8
0
10
359.000000
20
657.000000
0
VERTEX
8
0
10
364.000000
20
662.000000
0
VERTEX
8
0
10
365.000000
20
665.000000
0
VERTEX
8
0
10
363.000000
20
673.000000
0
VERTEX
8
0
10
360.000000
20
676.000000
0
VERTEX
8
0
10
355.000000
20
678.000000
0
VERTEX
8
0
10
352.000000
20
678.000000
0
VERTEX
8
0
10
349.100000
20
676.700000
0
VERTEX
8
0
10
347.000000
20
676.000000
0
VERTEX
8
0
10
343.000000
20
672.000000
0
VERTEX
8
0
10
342.000000
20
665.000000
0
VERTEX
8
0
10
345.000000
20
659.000000
0
VERTEX
8
0
10
346.000000
20
658.000000
0
VERTEX
8
0
10
351.067568
20
656.405405
0
VERTEX
8
0
10
356.000000
20
656.000000
0
SEQEND
0
POLYLINE
8
0
6
CONTINUOUS
66
1
62
7
10
0.0
20
0.0
30
0.000000
0
VERTEX
8
0
10
380.000000
20
634.000000
0
VERTEX
8
0
10
378.000000
20
635.000000
0
SEQEND
0
POLYLINE
8
0
6
CONTINUOUS
66
1
62
7
10
0.0
20
0.0
30
0.000000
0
VERTEX
8
0
10
382.000000
20
634.000000
0
VERTEX
8
0
10
381.000000
20
635.000000
0
VERTEX
8
0
10
380.000000
20
634.000000
0
SEQEND
0
POLYLINE
8
0
6
CONTINUOUS
66
1
62
7
10
0.0
20
0.0
30
0.000000
0
VERTEX
8
0
10
381.000000
20
633.000000
0
VERTEX
8
0
10
380.000000
20
634.000000
0
SEQEND
0
POLYLINE
8
0
6
CONTINUOUS
66
1
62
7
10
0.0
20
0.0
30
0.000000
0
VERTEX
8
0
10
381.000000
20
633.000000
0
VERTEX
8
0
10
382.000000
20
634.000000
0
SEQEND
0
POLYLINE
8
0
6
CONTINUOUS
66
1
62
7
10
0.0
20
0.0
30
0.000000
0
VERTEX
8
0
10
296.000000
20
629.000000
0
VERTEX
8
0
10
298.000000
20
630.000000
0
SEQEND
0
POLYLINE
8
0
6
CONTINUOUS
66
1
62
7
10
0.0
20
0.0
30
0.000000
0
VERTEX
8
0
10
304.000000
20
500.000000
0
VERTEX
8
0
10
307.000000
20
501.000000
0
VERTEX
8
0
10
310.000000
20
504.000000
0
VERTEX
8
0
10
311.000000
20
507.000000
0
VERTEX
8
0
10
309.200000
20
511.100000
0
VERTEX
8
0
10
309.000000
20
512.000000
0
VERTEX
8
0
10
307.100000
20
513.200000
0
VERTEX
8
0
10
306.000000
20
514.000000
0
VERTEX
8
0
10
299.000000
20
514.000000
0
VERTEX
8
0
10
294.000000
20
511.000000
0
VERTEX
8
0
10
293.000000
20
504.000000
0
VERTEX
8
0
10
294.000000
20
502.000000
0
VERTEX
8
0
10
295.900000
20
500.800000
0
VERTEX
8
0
10
304.000000
20
500.000000
0
SEQEND
0
POLYLINE
8
0
6
CONTINUOUS
66
1
62
7
10
0.0
20
0.0
30
0.000000
0
VERTEX
8
0
10
345.000000
20
477.000000
0
VERTEX
8
0
10
346.900000
20
478.200000
0
VERTEX
8
0
10
350.035294
20
479.541176
0
VERTEX
8
0
10
363.088235
20
480.647059
0
VERTEX
8
0
10
372.000000
20
484.000000
0
VERTEX
8
0
10
379.000000
20
494.000000
0
VERTEX
8
0
10
382.000000
20
489.000000
0
VERTEX
8
0
10
384.000000
20
487.000000
0
VERTEX
8
0
10
397.000000
20
489.000000
0
VERTEX
8
0
10
399.000000
20
491.000000
0
VERTEX
8
0
10
399.000000
20
499.000000
0
VERTEX
8
0
10
403.900000
20
502.200000
0
VERTEX
8
0
10
410.000000
20
504.000000
0
VERTEX
8
0
10
421.000000
20
504.000000
0
VERTEX
8
0
10
422.000000
20
503.000000
0
VERTEX
8
0
10
425.100000
20
503.700000
0
VERTEX
8
0
10
427.000000
20
504.000000
0
VERTEX
8
0
10
430.000000
20
510.000000
0
VERTEX
8
0
10
427.000000
20
516.000000
0
VERTEX
8
0
10
397.911765
20
520.647059
0
VERTEX
8
0
10
392.846154
20
522.769231
0
VERTEX
8
0
10
390.000000
20
525.000000
0
VERTEX
8
0
10
389.000000
20
527.000000
0
VERTEX
8
0
10
390.900000
20
528.200000
0
VERTEX
8
0
10
404.153846
20
537.769231
0
VERTEX
8
0
10
417.100000
20
541.800000
0
VERTEX
8
0
10
420.000000
20
544.000000
0
VERTEX
8
0
10
421.000000
20
549.000000
0
VERTEX
8
0
10
420.000000
20
551.000000
0
VERTEX
8
0
10
416.911765
20
552.647059
0
VERTEX
8
0
10
413.000000
20
554.000000
0
VERTEX
8
0
10
405.940000
20
553.420000
0
VERTEX
8
0
10
400.060000
20
552.580000
0
VERTEX
8
0
10
381.100000
20
546.700000
0
VERTEX
8
0
10
376.000000
20
545.000000
0
VERTEX
8
0
10
369.000000
20
550.000000
0
VERTEX
8
0
10
373.000000
20
561.000000
0
VERTEX
8
0
10
377.000000
20
565.000000
0
VERTEX
8
0
10
379.100000
20
565.800000
0
VERTEX
8
0
10
389.100000
20
570.800000
0
VERTEX
8
0
10
398.000000
20
579.000000
0
VERTEX
8
0
10
400.000000
20
582.000000
0
VERTEX
8
0
10
399.200000
20
584.100000
0
VERTEX
8
0
10
397.000000
20
587.000000
0
VERTEX
8
0
10
391.932432
20
586.405405
0
VERTEX
8
0
10
387.067568
20
585.594595
0
VERTEX
8
0
10
383.100000
20
583.800000
0
VERTEX
8
0
10
381.900000
20
583.200000
0
VERTEX
8
0
10
353.846154
20
565.230769
0
VERTEX
8
0
10
347.000000
20
561.000000
0
VERTEX
8
0
10
346.000000
20
563.000000
0
VERTEX
8
0
10
348.700000
20
570.100000
0
VERTEX
8
0
10
354.800000
20
584.100000
0
VERTEX
8
0
10
362.800000
20
600.100000
0
VERTEX
8
0
10
364.000000
20
604.000000
0
VERTEX
8
0
10
363.000000
20
606.000000
0
VERTEX
8
0
10
362.000000
20
607.000000
0
VERTEX
8
0
10
360.000000
20
608.000000
0
VERTEX
8
0
10
356.100000
20
606.800000
0
VERTEX
8
0
10
351.846154
20
604.230769
0
VERTEX
8
0
10
345.000000
20
598.000000
0
VERTEX
8
0
10
340.245902
20
591.795082
0
VERTEX
8
0
10
328.200000
20
566.900000
0
VERTEX
8
0
10
326.000000
20
563.000000
0
VERTEX
8
0
10
324.000000
20
562.000000
0
VERTEX
8
0
10
322.000000
20
564.000000
0
VERTEX
8
0
10
322.000000
20
579.000000
0
VERTEX
8
0
10
324.200000
20
591.900000
0
VERTEX
8
0
10
327.200000
20
597.900000
0
VERTEX
8
0
10
328.000000
20
599.000000
0
VERTEX
8
0
10
327.000000
20
606.000000
0
VERTEX
8
0
10
325.100000
20
607.200000
0
VERTEX
8
0
10
324.000000
20
608.000000
0
VERTEX
8
0
10
320.900000
20
607.300000
0
VERTEX
8
0
10
319.000000
20
607.000000
0
VERTEX
8
0
10
316.000000
20
604.000000
0
VERTEX
8
0
10
311.700000
20
596.100000
0
VERTEX
8
0
10
310.700000
20
593.100000
0
VERTEX
8
0
10
307.405405
20
579.932432
0
VERTEX
8
0
10
304.000000
20
558.000000
0
VERTEX
8
0
10
302.000000
20
556.000000
0
VERTEX
8
0
10
298.700000
20
562.900000
0
VERTEX
8
0
10
295.300000
20
576.100000
0
VERTEX
8
0
10
294.000000
20
580.000000
0
VERTEX
8
0
10
292.000000
20
582.000000
0
VERTEX
8
0
10
289.900000
20
581.200000
0
VERTEX
8
0
10
289.000000
20
581.000000
0
VERTEX
8
0
10
287.800000
20
579.100000
0
VERTEX
8
0
10
286.000000
20
576.000000
0
VERTEX
8
0
10
286.000000
20
558.000000
0
VERTEX
8
0
10
287.405405
20
552.067568
0
VERTEX
8
0
10
288.405405
20
546.067568
0
VERTEX
8
0
10
289.750000
20
533.250000
0
VERTEX
8
0
10
288.100000
20
532.800000
0
VERTEX
8
0
10
280.250000
20
530.750000
0
VERTEX
8
0
10
280.384615
20
526.076923
0
VERTEX
8
0
10
282.000000
20
523.000000
0
VERTEX
8
0
10
282.846154
20
522.769231
0
VERTEX
8
0
10
285.000000
20
521.000000
0
VERTEX
8
0
10
294.000000
20
521.000000
0
VERTEX
8
0
10
303.911765
20
523.352941
0
VERTEX
8
0
10
308.000000
20
524.000000
0
VERTEX
8
0
10
313.000000
20
520.000000
0
VERTEX
8
0
10
317.200000
20
514.100000
0
VERTEX
8
0
10
321.000000
20
508.000000
0
VERTEX
8
0
10
336.000000
20
505.000000
0
VERTEX
8
0
10
339.647059
20
490.911765
0
VERTEX
8
0
10
342.600000
20
480.300000
0
VERTEX
8
0
10
345.000000
20
477.000000
0
SEQEND
0
POLYLINE
8
0
6
CONTINUOUS
66
1
62
7
10
0.0
20
0.0
30
0.000000
0
VERTEX
8
0
10
372.000000
20
466.000000
0
VERTEX
8
0
10
374.750000
20
467.250000
0
VERTEX
8
0
10
375.200000
20
468.900000
0
VERTEX
8
0
10
375.750000
20
477.750000
0
VERTEX
8
0
10
367.000000
20
476.000000
0
VERTEX
8
0
10
364.000000
20
472.000000
0
VERTEX
8
0
10
364.000000
20
469.000000
0
VERTEX
8
0
10
366.000000
20
466.000000
0
VERTEX
8
0
10
372.000000
20
466.000000
0
SEQEND
0
POLYLINE
8
0
6
CONTINUOUS
66
1
62
7
10
0.0
20
0.0
30
0.000000
0
VERTEX
8
0
10
316.000000
20
465.000000
0
VERTEX
8
0
10
324.211765
20
471.752941
0
VERTEX
8
0
10
329.088235
20
473.647059
0
VERTEX
8
0
10
332.000000
20
474.000000
0
VERTEX
8
0
10
334.000000
20
476.000000
0
VERTEX
8
0
10
334.000000
20
487.000000
0
VERTEX
8
0
10
332.000000
20
495.000000
0
VERTEX
8
0
10
329.100000
20
497.200000
0
VERTEX
8
0
10
323.000000
20
499.000000
0
VERTEX
8
0
10
319.756098
20
495.195122
0
VERTEX
8
0
10
316.243902
20
490.804878
0
VERTEX
8
0
10
313.200000
20
484.900000
0
VERTEX
8
0
10
312.800000
20
484.100000
0
VERTEX
8
0
10
311.000000
20
479.000000
0
VERTEX
8
0
10
311.000000
20
474.000000
0
VERTEX
8
0
10
315.000000
20
465.000000
0
VERTEX
8
0
10
316.000000
20
465.000000
0
SEQEND
0
POLYLINE
8
0
6
CONTINUOUS
66
1
62
7
10
0.0
20
0.0
30
0.000000
0
VERTEX
8
0
10
409.000000
20
458.000000
0
VERTEX
8
0
10
411.000000
20
462.000000
0
VERTEX
8
0
10
411.000000
20
464.000000
0
VERTEX
8
0
10
408.000000
20
469.000000
0
VERTEX
8
0
10
403.000000
20
473.000000
0
VERTEX
8
0
10
404.000000
20
475.000000
0
VERTEX
8
0
10
415.000000
20
476.000000
0
VERTEX
8
0
10
417.000000
20
478.000000
0
VERTEX
8
0
10
417.000000
20
480.000000
0
VERTEX
8
0
10
411.000000
20
484.000000
0
VERTEX
8
0
10
393.932432
20
482.405405
0
VERTEX
8
0
10
386.000000
20
481.000000
0
VERTEX
8
0
10
382.800000
20
476.100000
0
VERTEX
8
0
10
382.000000
20
475.000000
0
VERTEX
8
0
10
382.000000
20
468.000000
0
VERTEX
8
0
10
386.000000
20
463.000000
0
VERTEX
8
0
10
397.964706
20
462.541176
0
VERTEX
8
0
10
407.900000
20
458.800000
0
VERTEX
8
0
10
409.000000
20
458.000000
0
SEQEND
0
POLYLINE
8
0
6
CONTINUOUS
66
1
62
7
10
0.0
20
0.0
30
0.000000
0
VERTEX
8
0
10
368.000000
20
443.000000
0
VERTEX
8
0
10
370.400000
20
447.200000
0
VERTEX
8
0
10
371.384615
20
450.923077
0
VERTEX
8
0
10
372.000000
20
456.000000
0
VERTEX
8
0
10
368.000000
20
459.000000
0
VERTEX
8
0
10
363.000000
20
459.000000
0
VERTEX
8
0
10
358.800000
20
454.100000
0
VERTEX
8
0
10
357.000000
20
451.000000
0
VERTEX
8
0
10
358.000000
20
445.000000
0
VERTEX
8
0
10
362.060000
20
443.420000
0
VERTEX
8
0
10
368.000000
20
443.000000
0
SEQEND
0
POLYLINE
8
0
6
CONTINUOUS
66
1
62
7
10
0.0
20
0.0
30
0.000000
0
VERTEX
8
0
10
261.000000
20
439.000000
0
VERTEX
8
0
10
263.640000
20
440.480000
0
VERTEX
8
0
10
300.000000
20
467.000000
0
VERTEX
8
0
10
302.000000
20
469.000000
0
VERTEX
8
0
10
305.700000
20
483.100000
0
VERTEX
8
0
10
307.352941
20
488.911765
0
VERTEX
8
0
10
309.000000
20
493.000000
0
VERTEX
8
0
10
308.000000
20
494.000000
0
VERTEX
8
0
10
299.000000
20
494.000000
0
VERTEX
8
0
10
297.900000
20
493.300000
0
VERTEX
8
0
10
293.000000
20
492.000000
0
VERTEX
8
0
10
291.000000
20
494.000000
0
VERTEX
8
0
10
287.300000
20
508.100000
0
VERTEX
8
0
10
285.000000
20
514.000000
0
VERTEX
8
0
10
282.100000
20
516.200000
0
VERTEX
8
0
10
281.000000
20
517.000000
0
VERTEX
8
0
10
278.800000
20
514.100000
0
VERTEX
8
0
10
272.200000
20
490.900000
0
VERTEX
8
0
10
268.752212
20
485.216814
0
VERTEX
8
0
10
262.247788
20
477.783186
0
VERTEX
8
0
10
255.180000
20
470.760000
0
VERTEX
8
0
10
248.180000
20
465.760000
0
VERTEX
8
0
10
241.000000
20
460.000000
0
VERTEX
8
0
10
238.000000
20
454.000000
0
VERTEX
8
0
10
238.647059
20
448.911765
0
VERTEX
8
0
10
239.000000
20
446.000000
0
VERTEX
8
0
10
242.900000
20
442.800000
0
VERTEX
8
0
10
248.060000
20
440.420000
0
VERTEX
8
0
10
261.000000
20
439.000000
0
SEQEND
0
POLYLINE
8
0
6
CONTINUOUS
66
1
62
7
10
0.0
20
0.0
30
0.000000
0
VERTEX
8
0
10
394.000000
20
439.000000
0
VERTEX
8
0
10
394.000000
20
440.000000
0
VERTEX
8
0
10
394.000000
20
445.000000
0
VERTEX
8
0
10
397.000000
20
448.000000
0
VERTEX
8
0
10
401.100000
20
448.800000
0
VERTEX
8
0
10
404.000000
20
451.000000
0
VERTEX
8
0
10
398.100000
20
454.200000
0
VERTEX
8
0
10
390.900000
20
457.800000
0
VERTEX
8
0
10
384.000000
20
461.000000
0
VERTEX
8
0
10
383.000000
20
460.000000
0
VERTEX
8
0
10
379.384615
20
449.923077
0
VERTEX
8
0
10
378.000000
20
444.000000
0
VERTEX
8
0
10
380.900000
20
441.800000
0
VERTEX
8
0
10
390.088235
20
439.352941
0
VERTEX
8
0
10
394.000000
20
439.000000
0
SEQEND
0
POLYLINE
8
0
6
CONTINUOUS
66
1
62
7
10
0.0
20
0.0
30
0.000000
0
VERTEX
8
0
10
351.000000
20
417.000000
0
VERTEX
8
0
10
357.000000
20
418.000000
0
VERTEX
8
0
10
360.240000
20
421.820000
0
VERTEX
8
0
10
362.760000
20
425.180000
0
VERTEX
8
0
10
366.000000
20
434.000000
0
VERTEX
8
0
10
360.000000
20
437.000000
0
VERTEX
8
0
10
352.000000
20
437.000000
0
VERTEX
8
0
10
350.000000
20
436.000000
0
VERTEX
8
0
10
347.200000
20
431.900000
0
VERTEX
8
0
10
340.000000
20
419.000000
0
VERTEX
8
0
10
344.053846
20
417.430769
0
VERTEX
8
0
10
351.000000
20
417.000000
0
SEQEND
0
POLYLINE
8
0
6
CONTINUOUS
66
1
62
7
10
0.0
20
0.0
30
0.000000
0
VERTEX
8
0
10
389.000000
20
416.000000
0
VERTEX
8
0
10
390.769231
20
418.153846
0
VERTEX
8
0
10
392.000000
20
424.000000
0
VERTEX
8
0
10
395.000000
20
427.000000
0
VERTEX
8
0
10
396.000000
20
427.000000
0
VERTEX
8
0
10
397.000000
20
429.000000
0
VERTEX
8
0
10
396.000000
20
431.000000
0
VERTEX
8
0
10
394.100000
20
432.200000
0
VERTEX
8
0
10
392.100000
20
433.200000
0
VERTEX
8
0
10
388.000000
20
435.000000
0
VERTEX
8
0
10
379.000000
20
435.000000
0
VERTEX
8
0
10
377.000000
20
434.000000
0
VERTEX
8
0
10
374.800000
20
431.100000
0
VERTEX
8
0
10
373.700000
20
428.100000
0
VERTEX
8
0
10
373.000000
20
427.000000
0
VERTEX
8
0
10
373.000000
20
420.000000
0
VERTEX
8
0
10
375.000000
20
418.000000
0
VERTEX
8
0
10
386.088235
20
416.352941
0
VERTEX
8
0
10
389.000000
20
416.000000
0
SEQEND
0
POLYLINE
8
0
6
CONTINUOUS
66
1
62
7
10
0.0
20
0.0
30
0.000000
0
VERTEX
8
0
10
382.000000
20
388.000000
0
VERTEX
8
0
10
394.750000
20
391.250000
0
VERTEX
8
0
10
393.594595
20
399.932432
0
VERTEX
8
0
10
393.300000
20
401.100000
0
VERTEX
8
0
10
392.000000
20
405.000000
0
VERTEX
8
0
10
388.100000
20
408.200000
0
VERTEX
8
0
10
379.000000
20
411.000000
0
VERTEX
8
0
10
371.000000
20
410.000000
0
VERTEX
8
0
10
368.800000
20
407.100000
0
VERTEX
8
0
10
367.800000
20
405.100000
0
VERTEX
8
0
10
366.000000
20
398.000000
0
VERTEX
8
0
10
366.000000
20
392.000000
0
VERTEX
8
0
10
367.000000
20
390.000000
0
VERTEX
8
0
10
368.000000
20
389.000000
0
VERTEX
8
0
10
382.000000
20
388.000000
0
SEQEND
0
POLYLINE
8
0
6
CONTINUOUS
66
1
62
7
10
0.0
20
0.0
30
0.000000
0
VERTEX
8
0
10
339.000000
20
386.000000
0
VERTEX
8
0
10
353.000000
20
389.000000
0
VERTEX
8
0
10
357.000000
20
394.000000
0
VERTEX
8
0
10
357.000000
20
405.000000
0
VERTEX
8
0
10
354.000000
20
410.000000
0
VERTEX
8
0
10
349.940000
20
410.580000
0
VERTEX
8
0
10
338.000000
20
412.000000
0
VERTEX
8
0
10
331.000000
20
406.000000
0
VERTEX
8
0
10
318.000000
20
388.000000
0
VERTEX
8
0
10
318.000000
20
387.000000
0
VERTEX
8
0
10
319.000000
20
386.000000
0
VERTEX
8
0
10
339.000000
20
386.000000
0
SEQEND
0
POLYLINE
8
0
6
CONTINUOUS
66
1
62
7
10
0.0
20
0.0
30
0.000000
0
VERTEX
8
0
10
388.000000
20
360.000000
0
VERTEX
8
0
10
401.100000
20
363.800000
0
VERTEX
8
0
10
405.000000
20
367.000000
0
VERTEX
8
0
10
405.000000
20
369.000000
0
VERTEX
8
0
10
401.000000
20
378.000000
0
VERTEX
8
0
10
398.100000
20
380.200000
0
VERTEX
8
0
10
397.000000
20
381.000000
0
VERTEX
8
0
10
381.000000
20
381.000000
0
VERTEX
8
0
10
372.088235
20
378.647059
0
VERTEX
8
0
10
370.900000
20
378.300000
0
VERTEX
8
0
10
369.000000
20
378.000000
0
VERTEX
8
0
10
367.000000
20
376.000000
0
VERTEX
8
0
10
367.000000
20
365.000000
0
VERTEX
8
0
10
370.000000
20
361.000000
0
VERTEX
8
0
10
388.000000
20
360.000000
0
SEQEND
0
POLYLINE
8
0
6
CONTINUOUS
66
1
62
7
10
0.0
20
0.0
30
0.000000
0
VERTEX
8
0
10
320.000000
20
349.000000
0
VERTEX
8
0
10
338.067568
20
352.594595
0
VERTEX
8
0
10
352.000000
20
356.000000
0
VERTEX
8
0
10
356.000000
20
361.000000
0
VERTEX
8
0
10
355.420000
20
365.060000
0
VERTEX
8
0
10
354.352941
20
372.088235
0
VERTEX
8
0
10
354.000000
20
375.000000
0
VERTEX
8
0
10
351.000000
20
378.000000
0
VERTEX
8
0
10
323.955446
20
377.445545
0
VERTEX
8
0
10
315.000000
20
377.000000
0
VERTEX
8
0
10
312.800000
20
373.100000
0
VERTEX
8
0
10
310.000000
20
364.000000
0
VERTEX
8
0
10
310.000000
20
353.000000
0
VERTEX
8
0
10
311.000000
20
351.000000
0
VERTEX
8
0
10
312.000000
20
350.000000
0
VERTEX
8
0
10
320.000000
20
349.000000
0
SEQEND
0
POLYLINE
8
0
6
CONTINUOUS
66
1
62
7
10
0.0
20
0.0
30
0.000000
0
VERTEX
8
0
10
385.000000
20
328.000000
0
VERTEX
8
0
10
399.100000
20
331.700000
0
VERTEX
8
0
10
405.000000
20
334.000000
0
VERTEX
8
0
10
409.000000
20
339.000000
0
VERTEX
8
0
10
408.420000
20
342.060000
0
VERTEX
8
0
10
406.615385
20
352.923077
0
VERTEX
8
0
10
405.000000
20
356.000000
0
VERTEX
8
0
10
378.000000
20
352.000000
0
VERTEX
8
0
10
375.000000
20
349.000000
0
VERTEX
8
0
10
375.000000
20
339.000000
0
VERTEX
8
0
10
376.384615
20
334.076923
0
VERTEX
8
0
10
379.000000
20
329.000000
0
VERTEX
8
0
10
385.000000
20
328.000000
0
SEQEND
0
POLYLINE
8
0
6
CONTINUOUS
66
1
62
7
10
0.0
20
0.0
30
0.000000
0
VERTEX
8
0
10
442.000000
20
313.000000
0
VERTEX
8
0
10
446.200000
20
319.900000
0
VERTEX
8
0
10
450.647059
20
329.088235
0
VERTEX
8
0
10
454.000000
20
341.000000
0
VERTEX
8
0
10
449.000000
20
398.000000
0
VERTEX
8
0
10
452.700000
20
413.100000
0
VERTEX
8
0
10
456.000000
20
426.000000
0
VERTEX
8
0
10
454.000000
20
428.000000
0
VERTEX
8
0
10
449.000000
20
428.000000
0
VERTEX
8
0
10
442.100000
20
425.700000
0
VERTEX
8
0
10
440.900000
20
425.200000
0
VERTEX
8
0
10
431.195122
20
419.756098
0
VERTEX
8
0
10
420.000000
20
411.000000
0
VERTEX
8
0
10
407.000000
20
397.000000
0
VERTEX
8
0
10
407.000000
20
382.000000
0
VERTEX
8
0
10
408.405405
20
376.067568
0
VERTEX
8
0
10
408.700000
20
374.900000
0
VERTEX
8
0
10
413.760000
20
366.820000
0
VERTEX
8
0
10
416.000000
20
364.000000
0
VERTEX
8
0
10
412.000000
20
352.000000
0
VERTEX
8
0
10
412.000000
20
348.000000
0
VERTEX
8
0
10
413.300000
20
345.100000
0
VERTEX
8
0
10
420.000000
20
333.000000
0
VERTEX
8
0
10
418.000000
20
325.000000
0
VERTEX
8
0
10
418.000000
20
322.000000
0
VERTEX
8
0
10
421.900000
20
319.800000
0
VERTEX
8
0
10
436.000000
20
319.000000
0
VERTEX
8
0
10
441.000000
20
313.000000
0
VERTEX
8
0
10
442.000000
20
313.000000
0
SEQEND
0
POLYLINE
8
0
6
CONTINUOUS
66
1
62
7
10
0.0
20
0.0
30
0.000000
0
VERTEX
8
0
10
329.000000
20
308.000000
0
VERTEX
8
0
10
337.100000
20
311.700000
0
VERTEX
8
0
10
364.000000
20
324.000000
0
VERTEX
8
0
10
366.000000
20
326.000000
0
VERTEX
8
0
10
366.000000
20
331.000000
0
VERTEX
8
0
10
363.647059
20
338.911765
0
VERTEX
8
0
10
363.300000
20
340.100000
0
VERTEX
8
0
10
360.000000
20
347.000000
0
VERTEX
8
0
10
358.000000
20
348.000000
0
VERTEX
8
0
10
351.951220
20
347.439024
0
VERTEX
8
0
10
344.048780
20
346.560976
0
VERTEX
8
0
10
318.000000
20
342.000000
0
VERTEX
8
0
10
315.700000
20
337.100000
0
VERTEX
8
0
10
315.000000
20
336.000000
0
VERTEX
8
0
10
316.647059
20
326.911765
0
VERTEX
8
0
10
322.000000
20
310.000000
0
VERTEX
8
0
10
325.076923
20
308.384615
0
VERTEX
8
0
10
329.000000
20
308.000000
0
SEQEND
0
POLYLINE
8
0
6
CONTINUOUS
66
1
62
7
10
0.0
20
0.0
30
0.000000
0
VERTEX
8
0
10
396.000000
20
301.000000
0
VERTEX
8
0
10
411.000000
20
306.000000
0
VERTEX
8
0
10
414.000000
20
310.000000
0
VERTEX
8
0
10
412.594595
20
318.932432
0
VERTEX
8
0
10
410.750000
20
325.750000
0
VERTEX
8
0
10
408.000000
20
327.000000
0
VERTEX
8
0
10
397.923077
20
325.384615
0
VERTEX
8
0
10
394.076923
20
324.615385
0
VERTEX
8
0
10
385.000000
20
321.000000
0
VERTEX
8
0
10
384.000000
20
320.000000
0
VERTEX
8
0
10
385.647059
20
310.911765
0
VERTEX
8
0
10
387.200000
20
306.100000
0
VERTEX
8
0
10
390.000000
20
302.000000
0
VERTEX
8
0
10
396.000000
20
301.000000
0
SEQEND
0
POLYLINE
8
0
6
CONTINUOUS
66
1
62
7
10
0.0
20
0.0
30
0.000000
0
VERTEX
8
0
10
353.000000
20
276.000000
0
VERTEX
8
0
10
370.153846
20
283.769231
0
VERTEX
8
0
10
370.846154
20
284.230769
0
VERTEX
8
0
10
378.000000
20
289.000000
0
VERTEX
8
0
10
378.200000
20
289.900000
0
VERTEX
8
0
10
380.000000
20
293.000000
0
VERTEX
8
0
10
380.000000
20
301.000000
0
VERTEX
8
0
10
377.000000
20
310.000000
0
VERTEX
8
0
10
373.000000
20
314.000000
0
VERTEX
8
0
10
370.000000
20
315.000000
0
VERTEX
8
0
10
367.000000
20
315.000000
0
VERTEX
8
0
10
352.100000
20
309.700000
0
VERTEX
8
0
10
350.900000
20
309.300000
0
VERTEX
8
0
10
336.000000
20
303.000000
0
VERTEX
8
0
10
330.000000
20
297.000000
0
VERTEX
8
0
10
328.200000
20
292.900000
0
VERTEX
8
0
10
327.000000
20
291.000000
0
VERTEX
8
0
10
328.384615
20
282.076923
0
VERTEX
8
0
10
329.000000
20
280.000000
0
VERTEX
8
0
10
330.900000
20
278.800000
0
VERTEX
8
0
10
332.100000
20
278.200000
0
VERTEX
8
0
10
344.044554
20
276.445545
0
VERTEX
8
0
10
353.000000
20
276.000000
0
SEQEND
0
POLYLINE
8
0
6
CONTINUOUS
66
1
62
7
10
0.0
20
0.0
30
0.000000
0
VERTEX
8
0
10
407.000000
20
267.000000
0
VERTEX
8
0
10
412.100000
20
268.800000
0
VERTEX
8
0
10
416.000000
20
272.000000
0
VERTEX
8
0
10
416.200000
20
272.900000
0
VERTEX
8
0
10
417.000000
20
274.000000
0
VERTEX
8
0
10
417.000000
20
290.000000
0
VERTEX
8
0
10
415.594595
20
295.932432
0
VERTEX
8
0
10
415.200000
20
297.100000
0
VERTEX
8
0
10
413.000000
20
300.000000
0
VERTEX
8
0
10
410.911765
20
299.352941
0
VERTEX
8
0
10
406.100000
20
297.800000
0
VERTEX
8
0
10
396.000000
20
292.000000
0
VERTEX
8
0
10
397.647059
20
282.911765
0
VERTEX
8
0
10
403.000000
20
269.000000
0
VERTEX
8
0
10
407.000000
20
267.000000
0
SEQEND
0
POLYLINE
8
0
6
CONTINUOUS
66
1
62
7
10
0.0
20
0.0
30
0.000000
0
VERTEX
8
0
10
390.000000
20
261.000000
0
VERTEX
8
0
10
392.000000
20
262.000000
0
VERTEX
8
0
10
394.000000
20
264.000000
0
VERTEX
8
0
10
392.594595
20
270.932432
0
VERTEX
8
0
10
389.769231
20
278.846154
0
VERTEX
8
0
10
386.000000
20
285.000000
0
VERTEX
8
0
10
377.153846
20
281.769231
0
VERTEX
8
0
10
374.180000
20
279.760000
0
VERTEX
8
0
10
368.000000
20
275.000000
0
VERTEX
8
0
10
367.000000
20
271.000000
0
VERTEX
8
0
10
370.000000
20
268.000000
0
VERTEX
8
0
10
371.900000
20
267.700000
0
VERTEX
8
0
10
390.000000
20
261.000000
0
SEQEND
0
POLYLINE
8
0
6
CONTINUOUS
66
1
62
7
10
0.0
20
0.0
30
0.000000
0
VERTEX
8
0
10
412.000000
20
239.000000
0
VERTEX
8
0
10
416.200000
20
244.900000
0
VERTEX
8
0
10
418.000000
20
250.000000
0
VERTEX
8
0
10
418.000000
20
259.000000
0
VERTEX
8
0
10
417.000000
20
261.000000
0
VERTEX
8
0
10
415.000000
20
263.000000
0
VERTEX
8
0
10
408.000000
20
262.000000
0
VERTEX
8
0
10
406.000000
20
259.000000
0
VERTEX
8
0
10
406.000000
20
248.000000
0
VERTEX
8
0
10
408.000000
20
241.000000
0
VERTEX
8
0
10
412.000000
20
239.000000
0
SEQEND
0
POLYLINE
8
0
6
CONTINUOUS
66
1
62
7
10
0.0
20
0.0
30
0.000000
0
VERTEX
8
0
10
396.000000
20
237.000000
0
VERTEX
8
0
10
399.000000
20
239.000000
0
VERTEX
8
0
10
399.000000
20
247.000000
0
VERTEX
8
0
10
397.000000
20
252.000000
0
VERTEX
8
0
10
394.000000
20
254.000000
0
VERTEX
8
0
10
391.000000
20
254.000000
0
VERTEX
8
0
10
388.000000
20
251.000000
0
VERTEX
8
0
10
389.700000
20
244.900000
0
VERTEX
8
0
10
393.000000
20
238.000000
0
VERTEX
8
0
10
396.000000
20
237.000000
0
SEQEND
0
POLYLINE
8
0
6
CONTINUOUS
66
1
62
7
10
0.0
20
0.0
30
0.000000
0
VERTEX
8
0
10
398.000000
20
211.000000
0
VERTEX
8
0
10
401.000000
20
217.000000
0
VERTEX
8
0
10
400.405405
20
225.067568
0
VERTEX
8
0
10
400.000000
20
230.000000
0
VERTEX
8
0
10
397.100000
20
232.200000
0
VERTEX
8
0
10
396.000000
20
233.000000
0
VERTEX
8
0
10
394.000000
20
232.000000
0
VERTEX
8
0
10
393.800000
20
231.100000
0
VERTEX
8
0
10
393.000000
20
230.000000
0
VERTEX
8
0
10
393.000000
20
220.000000
0
VERTEX
8
0
10
395.000000
20
213.000000
0
VERTEX
8
0
10
398.000000
20
211.000000
0
SEQEND
0
POLYLINE
8
0
6
CONTINUOUS
66
1
62
7
10
0.0
20
0.0
30
0.000000
0
VERTEX
8
0
10
410.000000
20
211.000000
0
VERTEX
8
0
10
412.769231
20
215.153846
0
VERTEX
8
0
10
415.647059
20
224.088235
0
VERTEX
8
0
10
416.647059
20
228.088235
0
VERTEX
8
0
10
418.000000
20
233.000000
0
VERTEX
8
0
10
416.000000
20
235.000000
0
VERTEX
8
0
10
411.000000
20
234.000000
0
VERTEX
8
0
10
408.000000
20
231.000000
0
VERTEX
8
0
10
407.384615
20
227.923077
0
VERTEX
8
0
10
406.000000
20
223.000000
0
VERTEX
8
0
10
406.000000
20
213.000000
0
VERTEX
8
0
10
408.000000
20
211.000000
0
VERTEX
8
0
10
410.000000
20
211.000000
0
SEQEND
0
POLYLINE
8
0
6
CONTINUOUS
66
1
62
7
10
0.0
20
0.0
30
0.000000
0
VERTEX
8
0
10
338.000000
20
190.000000
0
VERTEX
8
0
10
339.088235
20
190.647059
0
VERTEX
8
0
10
348.000000
20
193.000000
0
VERTEX
8
0
10
351.000000
20
196.000000
0
VERTEX
8
0
10
355.800000
20
203.100000
0
VERTEX
8
0
10
359.000000
20
210.000000
0
VERTEX
8
0
10
356.300000
20
227.100000
0
VERTEX
8
0
10
354.000000
20
234.000000
0
VERTEX
8
0
10
350.000000
20
238.000000
0
VERTEX
8
0
10
338.900000
20
245.800000
0
VERTEX
8
0
10
334.100000
20
248.200000
0
VERTEX
8
0
10
333.000000
20
249.000000
0
VERTEX
8
0
10
328.000000
20
249.000000
0
VERTEX
8
0
10
326.800000
20
247.100000
0
VERTEX
8
0
10
326.000000
20
246.000000
0
VERTEX
8
0
10
326.000000
20
237.000000
0
VERTEX
8
0
10
329.900000
20
233.800000
0
VERTEX
8
0
10
331.100000
20
233.200000
0
VERTEX
8
0
10
341.000000
20
224.000000
0
VERTEX
8
0
10
344.800000
20
215.900000
0
VERTEX
8
0
10
346.000000
20
212.000000
0
VERTEX
8
0
10
345.200000
20
210.900000
0
VERTEX
8
0
10
342.000000
20
204.000000
0
VERTEX
8
0
10
338.000000
20
200.000000
0
VERTEX
8
0
10
335.900000
20
199.200000
0
VERTEX
8
0
10
331.000000
20
196.000000
0
VERTEX
8
0
10
328.000000
20
193.000000
0
VERTEX
8
0
10
328.000000
20
191.000000
0
VERTEX
8
0
10
329.000000
20
190.000000
0
VERTEX
8
0
10
338.000000
20
190.000000
0
SEQEND
0
POLYLINE
8
0
6
CONTINUOUS
66
1
62
7
10
0.0
20
0.0
30
0.000000
0
VERTEX
8
0
10
289.000000
20
166.000000
0
VERTEX
8
0
10
290.769231
20
168.153846
0
VERTEX
8
0
10
299.000000
20
181.000000
0
VERTEX
8
0
10
297.200000
20
185.100000
0
VERTEX
8
0
10
292.000000
20
196.000000
0
VERTEX
8
0
10
294.647059
20
214.088235
0
VERTEX
8
0
10
300.000000
20
227.000000
0
VERTEX
8
0
10
303.900000
20
229.200000
0
VERTEX
8
0
10
314.000000
20
234.000000
0
VERTEX
8
0
10
316.615385
20
239.076923
0
VERTEX
8
0
10
318.000000
20
248.000000
0
VERTEX
8
0
10
316.000000
20
250.000000
0
VERTEX
8
0
10
311.000000
20
250.000000
0
VERTEX
8
0
10
309.100000
20
248.800000
0
VERTEX
8
0
10
307.900000
20
248.300000
0
VERTEX
8
0
10
300.204918
20
244.754098
0
VERTEX
8
0
10
288.000000
20
234.000000
0
VERTEX
8
0
10
283.240000
20
226.820000
0
VERTEX
8
0
10
281.230769
20
223.846154
0
VERTEX
8
0
10
277.300000
20
213.900000
0
VERTEX
8
0
10
275.700000
20
209.100000
0
VERTEX
8
0
10
275.000000
20
208.000000
0
VERTEX
8
0
10
275.000000
20
192.000000
0
VERTEX
8
0
10
276.405405
20
186.067568
0
VERTEX
8
0
10
281.200000
20
175.100000
0
VERTEX
8
0
10
282.800000
20
171.900000
0
VERTEX
8
0
10
286.000000
20
168.000000
0
VERTEX
8
0
10
289.000000
20
166.000000
0
SEQEND
0
POLYLINE
8
0
6
CONTINUOUS
66
1
62
7
10
0.0
20
0.0
30
0.000000
0
VERTEX
8
0
10
380.000000
20
153.000000
0
VERTEX
8
0
10
395.240000
20
169.820000
0
VERTEX
8
0
10
403.400000
20
181.200000
0
VERTEX
8
0
10
405.700000
20
190.100000
0
VERTEX
8
0
10
409.000000
20
197.000000
0
VERTEX
8
0
10
409.000000
20
202.000000
0
VERTEX
8
0
10
404.000000
20
206.000000
0
VERTEX
8
0
10
398.000000
20
206.000000
0
VERTEX
8
0
10
392.000000
20
204.000000
0
VERTEX
8
0
10
389.700000
20
196.100000
0
VERTEX
8
0
10
382.800000
20
184.100000
0
VERTEX
8
0
10
380.000000
20
178.000000
0
VERTEX
8
0
10
378.153846
20
176.769231
0
VERTEX
8
0
10
370.000000
20
172.000000
0
VERTEX
8
0
10
368.000000
20
168.000000
0
VERTEX
8
0
10
368.000000
20
166.000000
0
VERTEX
8
0
10
370.200000
20
162.100000
0
VERTEX
8
0
10
374.000000
20
156.000000
0
VERTEX
8
0
10
380.000000
20
153.000000
0
SEQEND
0
POLYLINE
8
0
6
CONTINUOUS
66
1
62
7
10
0.0
20
0.0
30
0.000000
0
VERTEX
8
0
10
342.000000
20
141.000000
0
VERTEX
8
0
10
343.088235
20
141.647059
0
VERTEX
8
0
10
366.000000
20
147.000000
0
VERTEX
8
0
10
367.000000
20
148.000000
0
VERTEX
8
0
10
359.200000
20
160.100000
0
VERTEX
8
0
10
356.000000
20
165.000000
0
VERTEX
8
0
10
349.932432
20
163.405405
0
VERTEX
8
0
10
338.000000
20
161.000000
0
VERTEX
8
0
10
327.000000
20
161.000000
0
VERTEX
8
0
10
321.900000
20
163.800000
0
VERTEX
8
0
10
313.500000
20
167.000000
0
VERTEX
8
0
10
308.000000
20
171.000000
0
VERTEX
8
0
10
306.000000
20
171.000000
0
VERTEX
8
0
10
299.800000
20
164.100000
0
VERTEX
8
0
10
299.000000
20
163.000000
0
VERTEX
8
0
10
299.000000
20
159.000000
0
VERTEX
8
0
10
300.240000
20
157.180000
0
VERTEX
8
0
10
303.000000
20
153.000000
0
VERTEX
8
0
10
306.820000
20
149.760000
0
VERTEX
8
0
10
310.846154
20
146.769231
0
VERTEX
8
0
10
317.040984
20
144.450820
0
VERTEX
8
0
10
342.000000
20
141.000000
0
SEQEND
0
POLYLINE
8
0
6
CONTINUOUS
66
1
62
7
10
0.0
20
0.0
30
0.000000
0
VERTEX
8
0
10
284.000000
20
128.000000
0
VERTEX
8
0
10
274.000000
20
139.000000
0
VERTEX
8
0
10
268.000000
20
142.000000
0
VERTEX
8
0
10
259.000000
20
151.000000
0
VERTEX
8
0
10
256.240000
20
155.180000
0
VERTEX
8
0
10
255.769231
20
155.846154
0
VERTEX
8
0
10
249.300000
20
168.100000
0
VERTEX
8
0
10
247.700000
20
172.900000
0
VERTEX
8
0
10
245.430769
20
183.053846
0
VERTEX
8
0
10
243.000000
20
199.000000
0
VERTEX
8
0
10
243.594595
20
208.067568
0
VERTEX
8
0
10
248.200000
20
226.900000
0
VERTEX
8
0
10
248.800000
20
228.100000
0
VERTEX
8
0
10
257.240000
20
244.820000
0
VERTEX
8
0
10
262.760000
20
252.180000
0
VERTEX
8
0
10
267.000000
20
258.000000
0
VERTEX
8
0
10
275.000000
20
266.000000
0
VERTEX
8
0
10
279.180000
20
268.760000
0
VERTEX
8
0
10
279.900000
20
269.200000
0
VERTEX
8
0
10
297.000000
20
279.000000
0
VERTEX
8
0
10
295.000000
20
286.000000
0
VERTEX
8
0
10
295.000000
20
290.000000
0
VERTEX
8
0
10
296.000000
20
291.000000
0
VERTEX
8
0
10
296.000000
20
294.000000
0
VERTEX
8
0
10
294.800000
20
295.900000
0
VERTEX
8
0
10
286.352941
20
318.088235
0
VERTEX
8
0
10
282.300000
20
337.100000
0
VERTEX
8
0
10
279.420000
20
348.060000
0
VERTEX
8
0
10
278.000000
20
355.000000
0
VERTEX
8
0
10
279.615385
20
374.076923
0
VERTEX
8
0
10
280.700000
20
379.100000
0
VERTEX
8
0
10
291.800000
20
405.100000
0
VERTEX
8
0
10
300.243902
20
416.804878
0
VERTEX
8
0
10
311.800000
20
432.100000
0
VERTEX
8
0
10
311.750000
20
433.750000
0
VERTEX
8
0
10
307.900000
20
433.200000
0
VERTEX
8
0
10
302.804878
20
429.243902
0
VERTEX
8
0
10
274.100000
20
410.800000
0
VERTEX
8
0
10
264.000000
20
407.000000
0
VERTEX
8
0
10
254.000000
20
407.000000
0
VERTEX
8
0
10
240.088235
20
410.352941
0
VERTEX
8
0
10
235.900000
20
411.700000
0
VERTEX
8
0
10
225.195122
20
416.243902
0
VERTEX
8
0
10
215.000000
20
425.000000
0
VERTEX
8
0
10
210.352941
20
433.088235
0
VERTEX
8
0
10
207.000000
20
447.000000
0
VERTEX
8
0
10
207.000000
20
462.000000
0
VERTEX
8
0
10
210.800000
20
472.100000
0
VERTEX
8
0
10
215.000000
20
478.000000
0
VERTEX
8
0
10
222.000000
20
485.000000
0
VERTEX
8
0
10
233.195122
20
493.756098
0
VERTEX
8
0
10
233.804878
20
494.243902
0
VERTEX
8
0
10
241.000000
20
500.000000
0
VERTEX
8
0
10
242.769231
20
503.153846
0
VERTEX
8
0
10
244.615385
20
512.076923
0
VERTEX
8
0
10
245.384615
20
515.923077
0
VERTEX
8
0
10
248.200000
20
523.900000
0
VERTEX
8
0
10
249.000000
20
525.000000
0
VERTEX
8
0
10
248.000000
20
527.000000
0
VERTEX
8
0
10
248.000000
20
533.000000
0
VERTEX
8
0
10
252.240000
20
544.820000
0
VERTEX
8
0
10
256.000000
20
550.000000
0
VERTEX
8
0
10
254.000000
20
556.000000
0
VERTEX
8
0
10
254.000000
20
580.000000
0
VERTEX
8
0
10
256.352941
20
587.911765
0
VERTEX
8
0
10
259.240000
20
593.820000
0
VERTEX
8
0
10
269.000000
20
606.000000
0
VERTEX
8
0
10
278.100000
20
610.800000
0
VERTEX
8
0
10
285.000000
20
613.000000
0
VERTEX
8
0
10
290.240000
20
620.820000
0
VERTEX
8
0
10
296.000000
20
629.000000
0
SEQEND
0
POLYLINE
8
0
6
CONTINUOUS
66
1
62
7
10
0.0
20
0.0
30
0.000000
0
VERTEX
8
0
10
284.000000
20
127.000000
0
VERTEX
8
0
10
256.900000
20
136.800000
0
VERTEX
8
0
10
218.153846
20
156.230769
0
VERTEX
8
0
10
211.820000
20
160.760000
0
VERTEX
8
0
10
186.233888
20
179.249480
0
VERTEX
8
0
10
155.000000
20
209.000000
0
VERTEX
8
0
10
134.230769
20
239.153846
0
VERTEX
8
0
10
118.200000
20
270.100000
0
VERTEX
8
0
10
108.300000
20
294.100000
0
VERTEX
8
0
10
103.300000
20
308.100000
0
VERTEX
8
0
10
98.405405
20
334.067568
0
VERTEX
8
0
10
97.594595
20
338.932432
0
VERTEX
8
0
10
94.000000
20
376.000000
0
VERTEX
8
0
10
94.000000
20
388.000000
0
VERTEX
8
0
10
95.439024
20
396.951220
0
VERTEX
8
0
10
98.420000
20
422.940000
0
VERTEX
8
0
10
104.352941
20
446.911765
0
VERTEX
8
0
10
107.352941
20
458.911765
0
VERTEX
8
0
10
124.230769
20
497.846154
0
VERTEX
8
0
10
145.243902
20
530.804878
0
VERTEX
8
0
10
171.000000
20
562.000000
0
VERTEX
8
0
10
195.204918
20
581.754098
0
VERTEX
8
0
10
216.100000
20
595.800000
0
VERTEX
8
0
10
228.153846
20
603.769231
0
VERTEX
8
0
10
252.100000
20
614.800000
0
VERTEX
8
0
10
259.900000
20
618.200000
0
VERTEX
8
0
10
283.088235
20
625.647059
0
VERTEX
8
0
10
296.000000
20
629.000000
0
SEQEND
0
POLYLINE
8
0
6
CONTINUOUS
66
1
62
7
10
0.0
20
0.0
30
0.000000
0
VERTEX
8
0
10
284.000000
20
127.000000
0
VERTEX
8
0
10
284.000000
20
128.000000
0
SEQEND
0
POLYLINE
8
0
6
CONTINUOUS
66
1
62
7
10
0.0
20
0.0
30
0.000000
0
VERTEX
8
0
10
286.000000
20
126.000000
0
VERTEX
8
0
10
284.000000
20
127.000000
0
SEQEND
0
POLYLINE
8
0
6
CONTINUOUS
66
1
62
7
10
0.0
20
0.0
30
0.000000
0
VERTEX
8
0
10
384.000000
20
121.000000
0
VERTEX
8
0
10
396.804878
20
126.243902
0
VERTEX
8
0
10
405.000000
20
133.000000
0
VERTEX
8
0
10
431.200000
20
164.900000
0
VERTEX
8
0
10
438.615385
20
190.076923
0
VERTEX
8
0
10
441.200000
20
200.900000
0
VERTEX
8
0
10
447.594595
20
221.067568
0
VERTEX
8
0
10
449.000000
20
227.000000
0
VERTEX
8
0
10
449.000000
20
238.000000
0
VERTEX
8
0
10
448.000000
20
239.000000
0
VERTEX
8
0
10
448.000000
20
250.000000
0
VERTEX
8
0
10
449.000000
20
251.000000
0
VERTEX
8
0
10
448.000000
20
281.000000
0
VERTEX
8
0
10
450.000000
20
283.000000
0
VERTEX
8
0
10
459.900000
20
287.200000
0
VERTEX
8
0
10
461.100000
20
287.800000
0
VERTEX
8
0
10
464.000000
20
289.000000
0
VERTEX
8
0
10
468.000000
20
293.000000
0
VERTEX
8
0
10
474.800000
20
305.100000
0
VERTEX
8
0
10
475.200000
20
305.900000
0
VERTEX
8
0
10
480.647059
20
319.088235
0
VERTEX
8
0
10
481.352941
20
321.911765
0
VERTEX
8
0
10
485.000000
20
337.000000
0
VERTEX
8
0
10
485.000000
20
355.000000
0
VERTEX
8
0
10
480.000000
20
388.000000
0
VERTEX
8
0
10
480.000000
20
397.000000
0
VERTEX
8
0
10
480.800000
20
398.100000
0
VERTEX
8
0
10
483.647059
20
405.088235
0
VERTEX
8
0
10
484.352941
20
407.911765
0
VERTEX
8
0
10
487.000000
20
419.000000
0
VERTEX
8
0
10
487.000000
20
430.000000
0
VERTEX
8
0
10
485.700000
20
432.900000
0
VERTEX
8
0
10
485.352941
20
434.088235
0
VERTEX
8
0
10
482.760000
20
440.820000
0
VERTEX
8
0
10
478.000000
20
448.000000
0
VERTEX
8
0
10
472.153846
20
452.230769
0
VERTEX
8
0
10
469.100000
20
454.200000
0
VERTEX
8
0
10
459.923077
20
458.615385
0
VERTEX
8
0
10
455.000000
20
460.000000
0
VERTEX
8
0
10
448.000000
20
460.000000
0
VERTEX
8
0
10
447.000000
20
459.000000
0
VERTEX
8
0
10
444.000000
20
459.000000
0
VERTEX
8
0
10
443.000000
20
460.000000
0
VERTEX
8
0
10
447.549180
20
471.040984
0
VERTEX
8
0
10
448.000000
20
481.000000
0
VERTEX
8
0
10
453.752941
20
487.211765
0
VERTEX
8
0
10
457.800000
20
494.100000
0
VERTEX
8
0
10
460.384615
20
502.923077
0
VERTEX
8
0
10
461.000000
20
504.000000
0
VERTEX
8
0
10
461.000000
20
517.000000
0
VERTEX
8
0
10
458.647059
20
523.911765
0
VERTEX
8
0
10
458.200000
20
525.100000
0
VERTEX
8
0
10
452.240000
20
534.180000
0
VERTEX
8
0
10
451.800000
20
534.900000
0
VERTEX
8
0
10
451.000000
20
538.000000
0
VERTEX
8
0
10
452.000000
20
539.000000
0
VERTEX
8
0
10
452.000000
20
554.000000
0
VERTEX
8
0
10
449.700000
20
560.900000
0
VERTEX
8
0
10
442.000000
20
573.000000
0
VERTEX
8
0
10
437.000000
20
578.000000
0
VERTEX
8
0
10
433.846154
20
579.769231
0
VERTEX
8
0
10
433.000000
20
580.000000
0
VERTEX
8
0
10
431.000000
20
582.000000
0
VERTEX
8
0
10
429.352941
20
593.088235
0
VERTEX
8
0
10
424.000000
20
605.000000
0
VERTEX
8
0
10
421.000000
20
608.000000
0
VERTEX
8
0
10
407.900000
20
615.800000
0
VERTEX
8
0
10
392.000000
20
619.000000
0
VERTEX
8
0
10
390.230769
20
622.153846
0
VERTEX
8
0
10
386.000000
20
629.000000
0
VERTEX
8
0
10
381.000000
20
633.000000
0
SEQEND
0
POLYLINE
8
0
6
CONTINUOUS
66
1
62
7
10
0.0
20
0.0
30
0.000000
0
VERTEX
8
0
10
384.000000
20
120.000000
0
VERTEX
8
0
10
384.000000
20
121.000000
0
SEQEND
0
POLYLINE
8
0
6
CONTINUOUS
66
1
62
7
10
0.0
20
0.0
30
0.000000
0
VERTEX
8
0
10
384.000000
20
120.000000
0
VERTEX
8
0
10
411.932432
20
124.405405
0
VERTEX
8
0
10
430.900000
20
130.300000
0
VERTEX
8
0
10
446.900000
20
135.300000
0
VERTEX
8
0
10
471.900000
20
147.200000
0
VERTEX
8
0
10
477.100000
20
149.800000
0
VERTEX
8
0
10
503.846154
20
166.230769
0
VERTEX
8
0
10
512.795082
20
172.245902
0
VERTEX
8
0
10
545.000000
20
201.000000
0
VERTEX
8
0
10
564.760000
20
227.180000
0
VERTEX
8
0
10
574.800000
20
243.100000
0
VERTEX
8
0
10
584.769231
20
259.153846
0
VERTEX
8
0
10
593.700000
20
280.100000
0
VERTEX
8
0
10
599.800000
20
296.100000
0
VERTEX
8
0
10
605.647059
20
320.088235
0
VERTEX
8
0
10
607.384615
20
327.923077
0
VERTEX
8
0
10
610.439024
20
347.951220
0
VERTEX
8
0
10
611.430769
20
355.946154
0
VERTEX
8
0
10
613.000000
20
366.000000
0
VERTEX
8
0
10
611.529231
20
395.973846
0
VERTEX
8
0
10
607.405405
20
426.067568
0
VERTEX
8
0
10
605.594595
20
436.932432
0
VERTEX
8
0
10
602.700000
20
447.900000
0
VERTEX
8
0
10
595.700000
20
467.900000
0
VERTEX
8
0
10
585.800000
20
489.900000
0
VERTEX
8
0
10
581.200000
20
499.100000
0
VERTEX
8
0
10
571.760000
20
516.820000
0
VERTEX
8
0
10
557.240000
20
536.180000
0
VERTEX
8
0
10
551.000000
20
545.000000
0
VERTEX
8
0
10
535.000000
20
561.000000
0
VERTEX
8
0
10
510.820000
20
581.760000
0
VERTEX
8
0
10
483.100000
20
601.200000
0
VERTEX
8
0
10
475.100000
20
605.200000
0
VERTEX
8
0
10
448.900000
20
617.700000
0
VERTEX
8
0
10
435.100000
20
622.300000
0
VERTEX
8
0
10
410.932432
20
629.594595
0
VERTEX
8
0
10
382.000000
20
634.000000
0
SEQEND
0
POLYLINE
8
0
6
CONTINUOUS
66
1
62
7
10
0.0
20
0.0
30
0.000000
0
VERTEX
8
0
10
382.000000
20
119.000000
0
VERTEX
8
0
10
380.000000
20
119.000000
0
SEQEND
0
POLYLINE
8
0
6
CONTINUOUS
66
1
62
7
10
0.0
20
0.0
30
0.000000
0
VERTEX
8
0
10
382.000000
20
119.000000
0
VERTEX
8
0
10
382.000000
20
120.000000
0
VERTEX
8
0
10
384.000000
20
121.000000
0
SEQEND
0
POLYLINE
8
0
6
CONTINUOUS
66
1
62
7
10
0.0
20
0.0
30
0.000000
0
VERTEX
8
0
10
382.000000
20
119.000000
0
VERTEX
8
0
10
384.000000
20
120.000000
0
SEQEND
0
POLYLINE
8
0
6
CONTINUOUS
66
1
62
7
10
0.0
20
0.0
30
0.000000
0
VERTEX
8
0
10
360.000000
20
85.000000
0
VERTEX
8
0
10
384.964706
20
87.458824
0
VERTEX
8
0
10
410.088235
20
91.647059
0
VERTEX
8
0
10
422.923077
20
94.384615
0
VERTEX
8
0
10
436.100000
20
97.800000
0
VERTEX
8
0
10
461.100000
20
106.700000
0
VERTEX
8
0
10
481.900000
20
116.200000
0
VERTEX
8
0
10
500.100000
20
125.800000
0
VERTEX
8
0
10
509.820000
20
131.240000
0
VERTEX
8
0
10
513.180000
20
133.760000
0
VERTEX
8
0
10
541.765138
20
155.249541
0
VERTEX
8
0
10
558.234862
20
170.750459
0
VERTEX
8
0
10
575.240000
20
187.820000
0
VERTEX
8
0
10
598.760000
20
219.180000
0
VERTEX
8
0
10
607.800000
20
236.100000
0
VERTEX
8
0
10
615.800000
20
251.100000
0
VERTEX
8
0
10
623.700000
20
269.100000
0
VERTEX
8
0
10
632.700000
20
294.100000
0
VERTEX
8
0
10
637.615385
20
316.076923
0
VERTEX
8
0
10
640.384615
20
329.923077
0
VERTEX
8
0
10
644.000000
20
367.000000
0
VERTEX
8
0
10
644.000000
20
385.000000
0
VERTEX
8
0
10
641.544828
20
416.962069
0
VERTEX
8
0
10
633.647059
20
452.911765
0
VERTEX
8
0
10
633.352941
20
454.088235
0
VERTEX
8
0
10
617.800000
20
495.900000
0
VERTEX
8
0
10
617.200000
20
497.100000
0
VERTEX
8
0
10
598.760000
20
532.820000
0
VERTEX
8
0
10
573.240000
20
566.180000
0
VERTEX
8
0
10
554.234862
20
585.249541
0
VERTEX
8
0
10
537.765138
20
600.750459
0
VERTEX
8
0
10
512.820000
20
618.760000
0
VERTEX
8
0
10
498.100000
20
628.200000
0
VERTEX
8
0
10
490.100000
20
632.200000
0
VERTEX
8
0
10
463.900000
20
644.700000
0
VERTEX
8
0
10
450.100000
20
649.300000
0
VERTEX
8
0
10
423.923077
20
657.615385
0
VERTEX
8
0
10
420.076923
20
658.384615
0
VERTEX
8
0
10
388.250000
20
665.250000
0
VERTEX
8
0
10
387.569231
20
672.946154
0
VERTEX
8
0
10
384.800000
20
680.900000
0
VERTEX
8
0
10
384.200000
20
682.100000
0
VERTEX
8
0
10
381.000000
20
688.000000
0
VERTEX
8
0
10
374.000000
20
695.000000
0
VERTEX
8
0
10
369.900000
20
696.800000
0
VERTEX
8
0
10
361.088235
20
700.352941
0
VERTEX
8
0
10
360.000000
20
701.000000
0
VERTEX
8
0
10
347.000000
20
701.000000
0
VERTEX
8
0
10
343.088235
20
699.647059
0
VERTEX
8
0
10
341.900000
20
699.200000
0
VERTEX
8
0
10
333.000000
20
695.000000
0
VERTEX
8
0
10
325.000000
20
687.000000
0
VERTEX
8
0
10
323.230769
20
683.846154
0
VERTEX
8
0
10
322.800000
20
683.100000
0
VERTEX
8
0
10
319.430769
20
672.946154
0
VERTEX
8
0
10
318.750000
20
665.250000
0
VERTEX
8
0
10
288.076923
20
658.615385
0
VERTEX
8
0
10
283.076923
20
657.615385
0
VERTEX
8
0
10
255.100000
20
648.700000
0
VERTEX
8
0
10
243.100000
20
644.700000
0
VERTEX
8
0
10
216.100000
20
631.800000
0
VERTEX
8
0
10
208.900000
20
628.200000
0
VERTEX
8
0
10
194.180000
20
618.760000
0
VERTEX
8
0
10
190.820000
20
616.240000
0
VERTEX
8
0
10
169.234862
20
600.750459
0
VERTEX
8
0
10
152.765138
20
585.249541
0
VERTEX
8
0
10
133.760000
20
566.180000
0
VERTEX
8
0
10
108.240000
20
532.820000
0
VERTEX
8
0
10
89.200000
20
495.900000
0
VERTEX
8
0
10
88.200000
20
493.900000
0
VERTEX
8
0
10
73.352941
20
452.911765
0
VERTEX
8
0
10
72.647059
20
450.088235
0
VERTEX
8
0
10
65.455172
20
416.962069
0
VERTEX
8
0
10
64.544828
20
406.037931
0
VERTEX
8
0
10
63.000000
20
367.000000
0
VERTEX
8
0
10
66.615385
20
329.923077
0
VERTEX
8
0
10
69.615385
20
314.923077
0
VERTEX
8
0
10
74.300000
20
294.100000
0
VERTEX
8
0
10
83.300000
20
269.100000
0
VERTEX
8
0
10
91.200000
20
251.100000
0
VERTEX
8
0
10
99.800000
20
234.900000
0
VERTEX
8
0
10
108.240000
20
219.180000
0
VERTEX
8
0
10
131.760000
20
187.820000
0
VERTEX
8
0
10
148.765138
20
170.750459
0
VERTEX
8
0
10
165.234862
20
155.249541
0
VERTEX
8
0
10
197.180000
20
131.240000
0
VERTEX
8
0
10
208.100000
20
125.200000
0
VERTEX
8
0
10
225.100000
20
116.200000
0
VERTEX
8
0
10
245.900000
20
106.700000
0
VERTEX
8
0
10
270.900000
20
97.800000
0
VERTEX
8
0
10
284.076923
20
94.384615
0
VERTEX
8
0
10
296.911765
20
91.647059
0
VERTEX
8
0
10
322.035294
20
87.458824
0
VERTEX
8
0
10
360.000000
20
85.000000
0
SEQEND
0
ENDSEC
0
EOF
