0
SECTION
2
HEADER
9
$ACADVER
1
AC1003
9
$INSBASE
10
0.0
20
0.0
30
0.0
9
$EXTMIN
10
0.000
20
0.000
30
0.0
9
$EXTMAX
10
698.000
20
742.000
30
0.0
9
$LIMMIN
10
0.000
20
0.000
9
$LIMMAX
10
698.000
20
742.000
9
$LTSCALE
40
1.0
9
$LUNITS
70
2
9
$LUPREC
70
3
9
$LIMCHECK
70
0
9
$UCSNAME
2

9
$UCSORG
10
0.0
20
0.0
30
0.0
9
$UCSXDIR
10
1.0
20
0.0
30
0.0
9
$UCSYDIR
10
0.0
20
1.0
30
0.0
9
$WORLDVIEW
70
1
9
$UNITMODE
70
0
0
ENDSEC
0
SECTION
2
TABLES
0
TABLE
2
VPORT
70
1
0
VPORT
2
*ACTIVE
70
0
10
0.0
20
0.0
11
1.0
21
1.0
12
349.000
22
371.000
13
0.0
23
0.0
14
1.0
24
1.0
15
0.0
25
0.0
16
0.0
26
0.0
36
1.0
17
0.0
27
0.0
37
0.0
40
500.0
41
1.063
42
50.0
43
0.0
44
0.0
50
0.0
51
0.0
71
0
72
100
73
1
74
1
75
0
76
0
77
0
78
0
0
ENDTAB
0
TABLE
2
LTYPE
70
1
0
LTYPE
2
CONTINUOUS
70
64
3
Solid line
72
65
73
0
40
0.000
0
ENDTAB
0
TABLE
2
LAYER
70
1
0
LAYER
2
0
70
64
62
7
6
CONTINUOUS
0
ENDTAB
0
ENDSEC
0
SECTION
2
BLOCKS
0
ENDSEC
0
SECTION
2
ENTITIES
0
POLYLINE
8
0
6
CONTINUOUS
66
1
62
7
10
0.0
20
0.0
30
0.000000
0
VERTEX
8
0
10
346.000000
20
672.000000
0
VERTEX
8
0
10
352.000000
20
677.000000
0
VERTEX
8
0
10
352.000000
20
685.000000
0
VERTEX
8
0
10
348.000000
20
689.000000
0
VERTEX
8
0
10
345.000000
20
690.000000
0
VERTEX
8
0
10
342.000000
20
690.000000
0
VERTEX
8
0
10
340.100000
20
688.800000
0
VERTEX
8
0
10
338.900000
20
688.200000
0
VERTEX
8
0
10
335.000000
20
685.000000
0
VERTEX
8
0
10
335.000000
20
677.000000
0
VERTEX
8
0
10
339.000000
20
673.000000
0
VERTEX
8
0
10
341.067568
20
672.405405
0
VERTEX
8
0
10
346.000000
20
672.000000
0
SEQEND
0
POLYLINE
8
0
6
CONTINUOUS
66
1
62
7
10
0.0
20
0.0
30
0.000000
0
VERTEX
8
0
10
351.000000
20
604.000000
0
VERTEX
8
0
10
356.000000
20
606.000000
0
VERTEX
8
0
10
358.240000
20
608.820000
0
VERTEX
8
0
10
361.800000
20
614.100000
0
VERTEX
8
0
10
363.500000
20
621.000000
0
VERTEX
8
0
10
362.615385
20
625.923077
0
VERTEX
8
0
10
360.760000
20
629.820000
0
VERTEX
8
0
10
358.000000
20
634.000000
0
VERTEX
8
0
10
353.100000
20
637.200000
0
VERTEX
8
0
10
352.000000
20
638.000000
0
VERTEX
8
0
10
341.000000
20
638.000000
0
VERTEX
8
0
10
338.000000
20
637.000000
0
VERTEX
8
0
10
331.769231
20
630.153846
0
VERTEX
8
0
10
329.000000
20
624.000000
0
VERTEX
8
0
10
329.000000
20
618.000000
0
VERTEX
8
0
10
332.000000
20
611.000000
0
VERTEX
8
0
10
337.900000
20
605.800000
0
VERTEX
8
0
10
341.040984
20
604.450820
0
VERTEX
8
0
10
351.000000
20
604.000000
0
SEQEND
0
POLYLINE
8
0
6
CONTINUOUS
66
1
62
7
10
0.0
20
0.0
30
0.000000
0
VERTEX
8
0
10
348.000000
20
550.000000
0
VERTEX
8
0
10
363.000000
20
556.000000
0
VERTEX
8
0
10
365.240000
20
558.820000
0
VERTEX
8
0
10
370.000000
20
565.000000
0
VERTEX
8
0
10
370.000000
20
571.000000
0
VERTEX
8
0
10
365.100000
20
574.200000
0
VERTEX
8
0
10
364.000000
20
575.000000
0
VERTEX
8
0
10
350.000000
20
575.000000
0
VERTEX
8
0
10
349.000000
20
574.000000
0
VERTEX
8
0
10
342.000000
20
574.000000
0
VERTEX
8
0
10
334.100000
20
576.300000
0
VERTEX
8
0
10
331.000000
20
578.000000
0
VERTEX
8
0
10
326.000000
20
578.000000
0
VERTEX
8
0
10
322.000000
20
573.000000
0
VERTEX
8
0
10
322.000000
20
564.000000
0
VERTEX
8
0
10
326.000000
20
558.000000
0
VERTEX
8
0
10
328.900000
20
555.800000
0
VERTEX
8
0
10
330.900000
20
554.800000
0
VERTEX
8
0
10
339.076923
20
551.384615
0
VERTEX
8
0
10
348.000000
20
550.000000
0
SEQEND
0
POLYLINE
8
0
6
CONTINUOUS
66
1
62
7
10
0.0
20
0.0
30
0.000000
0
VERTEX
8
0
10
344.000000
20
507.000000
0
VERTEX
8
0
10
351.900000
20
510.300000
0
VERTEX
8
0
10
372.820000
20
521.240000
0
VERTEX
8
0
10
385.000000
20
531.000000
0
VERTEX
8
0
10
389.000000
20
538.000000
0
VERTEX
8
0
10
387.000000
20
544.000000
0
VERTEX
8
0
10
384.100000
20
546.200000
0
VERTEX
8
0
10
383.000000
20
547.000000
0
VERTEX
8
0
10
378.911765
20
546.352941
0
VERTEX
8
0
10
376.088235
20
545.647059
0
VERTEX
8
0
10
361.100000
20
536.800000
0
VERTEX
8
0
10
351.911765
20
532.352941
0
VERTEX
8
0
10
346.000000
20
531.000000
0
VERTEX
8
0
10
340.100000
20
533.200000
0
VERTEX
8
0
10
314.000000
20
546.000000
0
VERTEX
8
0
10
306.000000
20
544.000000
0
VERTEX
8
0
10
302.800000
20
539.100000
0
VERTEX
8
0
10
302.000000
20
538.000000
0
VERTEX
8
0
10
302.800000
20
534.900000
0
VERTEX
8
0
10
303.000000
20
534.000000
0
VERTEX
8
0
10
306.804878
20
530.756098
0
VERTEX
8
0
10
316.195122
20
523.243902
0
VERTEX
8
0
10
335.153846
20
511.230769
0
VERTEX
8
0
10
344.000000
20
507.000000
0
SEQEND
0
POLYLINE
8
0
6
CONTINUOUS
66
1
62
7
10
0.0
20
0.0
30
0.000000
0
VERTEX
8
0
10
121.000000
20
476.000000
0
VERTEX
8
0
10
129.000000
20
478.000000
0
VERTEX
8
0
10
135.200000
20
484.900000
0
VERTEX
8
0
10
137.300000
20
489.900000
0
VERTEX
8
0
10
138.000000
20
491.000000
0
VERTEX
8
0
10
138.000000
20
499.000000
0
VERTEX
8
0
10
136.800000
20
500.900000
0
VERTEX
8
0
10
136.200000
20
502.100000
0
VERTEX
8
0
10
131.000000
20
508.000000
0
VERTEX
8
0
10
124.000000
20
511.000000
0
VERTEX
8
0
10
117.000000
20
511.000000
0
VERTEX
8
0
10
113.900000
20
509.300000
0
VERTEX
8
0
10
112.000000
20
509.000000
0
VERTEX
8
0
10
104.000000
20
500.000000
0
VERTEX
8
0
10
104.000000
20
488.000000
0
VERTEX
8
0
10
108.000000
20
482.000000
0
VERTEX
8
0
10
112.180000
20
479.240000
0
VERTEX
8
0
10
116.076923
20
477.384615
0
VERTEX
8
0
10
121.000000
20
476.000000
0
SEQEND
0
POLYLINE
8
0
6
CONTINUOUS
66
1
62
7
10
0.0
20
0.0
30
0.000000
0
VERTEX
8
0
10
568.000000
20
470.000000
0
VERTEX
8
0
10
576.100000
20
472.800000
0
VERTEX
8
0
10
582.000000
20
478.000000
0
VERTEX
8
0
10
585.000000
20
485.000000
0
VERTEX
8
0
10
585.000000
20
491.000000
0
VERTEX
8
0
10
582.200000
20
497.100000
0
VERTEX
8
0
10
578.000000
20
502.000000
0
VERTEX
8
0
10
572.100000
20
504.300000
0
VERTEX
8
0
10
571.000000
20
505.000000
0
VERTEX
8
0
10
565.000000
20
505.000000
0
VERTEX
8
0
10
561.206897
20
503.482759
0
VERTEX
8
0
10
558.846154
20
502.230769
0
VERTEX
8
0
10
552.000000
20
496.000000
0
VERTEX
8
0
10
550.000000
20
489.000000
0
VERTEX
8
0
10
552.240000
20
480.180000
0
VERTEX
8
0
10
555.000000
20
476.000000
0
VERTEX
8
0
10
562.076923
20
471.384615
0
VERTEX
8
0
10
568.000000
20
470.000000
0
SEQEND
0
POLYLINE
8
0
6
CONTINUOUS
66
1
62
7
10
0.0
20
0.0
30
0.000000
0
VERTEX
8
0
10
346.000000
20
469.000000
0
VERTEX
8
0
10
358.100000
20
472.800000
0
VERTEX
8
0
10
388.153846
20
489.769231
0
VERTEX
8
0
10
398.000000
20
497.000000
0
VERTEX
8
0
10
403.000000
20
502.000000
0
VERTEX
8
0
10
406.000000
20
510.000000
0
VERTEX
8
0
10
401.000000
20
516.000000
0
VERTEX
8
0
10
392.900000
20
514.300000
0
VERTEX
8
0
10
389.900000
20
513.200000
0
VERTEX
8
0
10
365.900000
20
500.200000
0
VERTEX
8
0
10
356.900000
20
495.300000
0
VERTEX
8
0
10
344.000000
20
492.000000
0
VERTEX
8
0
10
330.153846
20
497.230769
0
VERTEX
8
0
10
304.900000
20
511.700000
0
VERTEX
8
0
10
296.000000
20
514.000000
0
VERTEX
8
0
10
290.000000
20
514.000000
0
VERTEX
8
0
10
286.000000
20
513.000000
0
VERTEX
8
0
10
284.800000
20
511.100000
0
VERTEX
8
0
10
284.200000
20
509.900000
0
VERTEX
8
0
10
283.000000
20
506.000000
0
VERTEX
8
0
10
293.000000
20
496.000000
0
VERTEX
8
0
10
304.153846
20
489.230769
0
VERTEX
8
0
10
304.846154
20
488.769231
0
VERTEX
8
0
10
330.100000
20
474.200000
0
VERTEX
8
0
10
330.900000
20
473.800000
0
VERTEX
8
0
10
343.088235
20
469.352941
0
VERTEX
8
0
10
346.000000
20
469.000000
0
SEQEND
0
POLYLINE
8
0
6
CONTINUOUS
66
1
62
7
10
0.0
20
0.0
30
0.000000
0
VERTEX
8
0
10
162.000000
20
442.000000
0
VERTEX
8
0
10
165.804878
20
444.243902
0
VERTEX
8
0
10
180.000000
20
456.000000
0
VERTEX
8
0
10
182.230769
20
460.846154
0
VERTEX
8
0
10
185.647059
20
467.088235
0
VERTEX
8
0
10
186.352941
20
469.911765
0
VERTEX
8
0
10
187.000000
20
471.000000
0
VERTEX
8
0
10
187.000000
20
481.000000
0
VERTEX
8
0
10
185.800000
20
482.900000
0
VERTEX
8
0
10
185.000000
20
485.000000
0
VERTEX
8
0
10
182.100000
20
487.200000
0
VERTEX
8
0
10
176.000000
20
490.000000
0
VERTEX
8
0
10
173.000000
20
490.000000
0
VERTEX
8
0
10
169.000000
20
488.000000
0
VERTEX
8
0
10
168.200000
20
485.900000
0
VERTEX
8
0
10
164.000000
20
469.000000
0
VERTEX
8
0
10
162.180000
20
467.760000
0
VERTEX
8
0
10
150.000000
20
460.000000
0
VERTEX
8
0
10
149.000000
20
453.000000
0
VERTEX
8
0
10
149.800000
20
451.900000
0
VERTEX
8
0
10
153.000000
20
446.000000
0
VERTEX
8
0
10
156.000000
20
443.000000
0
VERTEX
8
0
10
158.076923
20
442.384615
0
VERTEX
8
0
10
162.000000
20
442.000000
0
SEQEND
0
POLYLINE
8
0
6
CONTINUOUS
66
1
62
7
10
0.0
20
0.0
30
0.000000
0
VERTEX
8
0
10
531.000000
20
437.000000
0
VERTEX
8
0
10
536.000000
20
440.000000
0
VERTEX
8
0
10
539.000000
20
447.000000
0
VERTEX
8
0
10
535.230769
20
456.153846
0
VERTEX
8
0
10
526.000000
20
465.000000
0
VERTEX
8
0
10
523.300000
20
477.100000
0
VERTEX
8
0
10
522.000000
20
481.000000
0
VERTEX
8
0
10
518.000000
20
484.000000
0
VERTEX
8
0
10
511.000000
20
484.000000
0
VERTEX
8
0
10
506.900000
20
482.200000
0
VERTEX
8
0
10
504.000000
20
480.000000
0
VERTEX
8
0
10
503.800000
20
479.100000
0
VERTEX
8
0
10
502.000000
20
476.000000
0
VERTEX
8
0
10
502.000000
20
468.000000
0
VERTEX
8
0
10
506.300000
20
455.100000
0
VERTEX
8
0
10
508.000000
20
451.000000
0
VERTEX
8
0
10
511.820000
20
447.760000
0
VERTEX
8
0
10
531.000000
20
437.000000
0
SEQEND
0
POLYLINE
8
0
6
CONTINUOUS
66
1
62
7
10
0.0
20
0.0
30
0.000000
0
VERTEX
8
0
10
175.000000
20
413.000000
0
VERTEX
8
0
10
183.100000
20
415.800000
0
VERTEX
8
0
10
211.000000
20
430.000000
0
VERTEX
8
0
10
215.000000
20
434.000000
0
VERTEX
8
0
10
218.647059
20
441.088235
0
VERTEX
8
0
10
219.352941
20
443.911765
0
VERTEX
8
0
10
220.000000
20
445.000000
0
VERTEX
8
0
10
220.000000
20
468.000000
0
VERTEX
8
0
10
218.549180
20
478.959016
0
VERTEX
8
0
10
218.384615
20
480.076923
0
VERTEX
8
0
10
218.000000
20
484.000000
0
VERTEX
8
0
10
215.000000
20
487.000000
0
VERTEX
8
0
10
210.000000
20
487.000000
0
VERTEX
8
0
10
208.000000
20
486.000000
0
VERTEX
8
0
10
203.800000
20
481.100000
0
VERTEX
8
0
10
202.700000
20
478.100000
0
VERTEX
8
0
10
201.450820
20
473.959016
0
VERTEX
8
0
10
199.554455
20
454.044554
0
VERTEX
8
0
10
198.760000
20
452.180000
0
VERTEX
8
0
10
196.000000
20
448.000000
0
VERTEX
8
0
10
189.180000
20
442.760000
0
VERTEX
8
0
10
185.820000
20
440.240000
0
VERTEX
8
0
10
172.000000
20
428.000000
0
VERTEX
8
0
10
168.800000
20
423.100000
0
VERTEX
8
0
10
168.000000
20
422.000000
0
VERTEX
8
0
10
168.000000
20
415.000000
0
VERTEX
8
0
10
170.000000
20
413.000000
0
VERTEX
8
0
10
175.000000
20
413.000000
0
SEQEND
0
POLYLINE
8
0
6
CONTINUOUS
66
1
62
7
10
0.0
20
0.0
30
0.000000
0
VERTEX
8
0
10
511.000000
20
409.000000
0
VERTEX
8
0
10
512.100000
20
409.700000
0
VERTEX
8
0
10
514.000000
20
410.000000
0
VERTEX
8
0
10
519.000000
20
415.000000
0
VERTEX
8
0
10
519.800000
20
417.100000
0
VERTEX
8
0
10
521.000000
20
419.000000
0
VERTEX
8
0
10
520.000000
20
423.000000
0
VERTEX
8
0
10
513.000000
20
430.000000
0
VERTEX
8
0
10
500.820000
20
438.760000
0
VERTEX
8
0
10
497.000000
20
441.000000
0
VERTEX
8
0
10
490.000000
20
448.000000
0
VERTEX
8
0
10
488.477358
20
454.020755
0
VERTEX
8
0
10
487.522642
20
475.979245
0
VERTEX
8
0
10
485.000000
20
484.000000
0
VERTEX
8
0
10
480.000000
20
487.000000
0
VERTEX
8
0
10
477.000000
20
487.000000
0
VERTEX
8
0
10
475.100000
20
485.800000
0
VERTEX
8
0
10
473.000000
20
485.000000
0
VERTEX
8
0
10
471.700000
20
482.100000
0
VERTEX
8
0
10
470.594595
20
476.067568
0
VERTEX
8
0
10
468.000000
20
455.000000
0
VERTEX
8
0
10
468.000000
20
446.000000
0
VERTEX
8
0
10
470.200000
20
440.100000
0
VERTEX
8
0
10
470.800000
20
438.900000
0
VERTEX
8
0
10
472.000000
20
436.000000
0
VERTEX
8
0
10
482.000000
20
426.000000
0
VERTEX
8
0
10
486.180000
20
423.240000
0
VERTEX
8
0
10
503.900000
20
410.800000
0
VERTEX
8
0
10
511.000000
20
409.000000
0
SEQEND
0
POLYLINE
8
0
6
CONTINUOUS
66
1
62
7
10
0.0
20
0.0
30
0.000000
0
VERTEX
8
0
10
327.000000
20
390.000000
0
VERTEX
8
0
10
330.000000
20
396.000000
0
VERTEX
8
0
10
330.000000
20
405.000000
0
VERTEX
8
0
10
324.615385
20
439.923077
0
VERTEX
8
0
10
323.300000
20
443.100000
0
VERTEX
8
0
10
322.000000
20
447.000000
0
VERTEX
8
0
10
316.000000
20
453.000000
0
VERTEX
8
0
10
288.900000
20
471.800000
0
VERTEX
8
0
10
288.100000
20
472.200000
0
VERTEX
8
0
10
283.000000
20
475.000000
0
VERTEX
8
0
10
281.000000
20
475.000000
0
VERTEX
8
0
10
279.800000
20
473.100000
0
VERTEX
8
0
10
279.000000
20
472.000000
0
VERTEX
8
0
10
279.000000
20
449.000000
0
VERTEX
8
0
10
280.445545
20
439.044554
0
VERTEX
8
0
10
283.352941
20
426.088235
0
VERTEX
8
0
10
283.700000
20
424.900000
0
VERTEX
8
0
10
285.243902
20
421.195122
0
VERTEX
8
0
10
289.000000
20
416.000000
0
VERTEX
8
0
10
295.820000
20
409.760000
0
VERTEX
8
0
10
299.820000
20
406.760000
0
VERTEX
8
0
10
322.100000
20
391.300000
0
VERTEX
8
0
10
327.000000
20
390.000000
0
SEQEND
0
POLYLINE
8
0
6
CONTINUOUS
66
1
62
7
10
0.0
20
0.0
30
0.000000
0
VERTEX
8
0
10
360.000000
20
386.000000
0
VERTEX
8
0
10
382.804878
20
400.243902
0
VERTEX
8
0
10
399.000000
20
414.000000
0
VERTEX
8
0
10
402.756098
20
419.195122
0
VERTEX
8
0
10
404.800000
20
424.100000
0
VERTEX
8
0
10
405.200000
20
424.900000
0
VERTEX
8
0
10
407.569231
20
434.053846
0
VERTEX
8
0
10
409.461929
20
454.967005
0
VERTEX
8
0
10
410.000000
20
470.000000
0
VERTEX
8
0
10
409.000000
20
474.000000
0
VERTEX
8
0
10
408.000000
20
475.000000
0
VERTEX
8
0
10
403.100000
20
472.800000
0
VERTEX
8
0
10
386.195122
20
461.756098
0
VERTEX
8
0
10
373.783186
20
451.247788
0
VERTEX
8
0
10
367.756098
20
445.195122
0
VERTEX
8
0
10
362.517241
20
437.793103
0
VERTEX
8
0
10
361.647059
20
435.088235
0
VERTEX
8
0
10
356.000000
20
398.000000
0
VERTEX
8
0
10
356.000000
20
390.000000
0
VERTEX
8
0
10
358.000000
20
386.000000
0
VERTEX
8
0
10
360.000000
20
386.000000
0
SEQEND
0
POLYLINE
8
0
6
CONTINUOUS
66
1
62
7
10
0.0
20
0.0
30
0.000000
0
VERTEX
8
0
10
195.000000
20
381.000000
0
VERTEX
8
0
10
212.846154
20
390.230769
0
VERTEX
8
0
10
242.153846
20
408.769231
0
VERTEX
8
0
10
251.000000
20
415.000000
0
VERTEX
8
0
10
254.569231
20
429.053846
0
VERTEX
8
0
10
255.430769
20
435.946154
0
VERTEX
8
0
10
257.000000
20
450.000000
0
VERTEX
8
0
10
257.000000
20
478.000000
0
VERTEX
8
0
10
254.000000
20
487.000000
0
VERTEX
8
0
10
250.000000
20
489.000000
0
VERTEX
8
0
10
244.000000
20
489.000000
0
VERTEX
8
0
10
242.900000
20
488.300000
0
VERTEX
8
0
10
241.000000
20
488.000000
0
VERTEX
8
0
10
237.000000
20
484.000000
0
VERTEX
8
0
10
235.405405
20
436.932432
0
VERTEX
8
0
10
234.300000
20
430.900000
0
VERTEX
8
0
10
234.000000
20
429.000000
0
VERTEX
8
0
10
224.795082
20
421.245902
0
VERTEX
8
0
10
195.900000
20
404.200000
0
VERTEX
8
0
10
193.000000
20
403.000000
0
VERTEX
8
0
10
184.000000
20
394.000000
0
VERTEX
8
0
10
188.000000
20
385.000000
0
VERTEX
8
0
10
191.000000
20
382.000000
0
VERTEX
8
0
10
193.100000
20
381.300000
0
VERTEX
8
0
10
195.000000
20
381.000000
0
SEQEND
0
POLYLINE
8
0
6
CONTINUOUS
66
1
62
7
10
0.0
20
0.0
30
0.000000
0
VERTEX
8
0
10
496.000000
20
379.000000
0
VERTEX
8
0
10
497.846154
20
380.230769
0
VERTEX
8
0
10
502.000000
20
383.000000
0
VERTEX
8
0
10
503.000000
20
385.000000
0
VERTEX
8
0
10
502.200000
20
387.100000
0
VERTEX
8
0
10
497.000000
20
395.000000
0
VERTEX
8
0
10
493.000000
20
399.000000
0
VERTEX
8
0
10
457.846154
20
421.769231
0
VERTEX
8
0
10
457.000000
20
422.000000
0
VERTEX
8
0
10
455.384615
20
426.076923
0
VERTEX
8
0
10
454.489371
20
431.010195
0
VERTEX
8
0
10
453.000000
20
483.000000
0
VERTEX
8
0
10
449.000000
20
487.000000
0
VERTEX
8
0
10
441.000000
20
488.000000
0
VERTEX
8
0
10
438.000000
20
487.000000
0
VERTEX
8
0
10
435.800000
20
483.100000
0
VERTEX
8
0
10
434.000000
20
465.000000
0
VERTEX
8
0
10
434.000000
20
438.000000
0
VERTEX
8
0
10
437.352941
20
416.088235
0
VERTEX
8
0
10
437.700000
20
414.900000
0
VERTEX
8
0
10
438.000000
20
413.000000
0
VERTEX
8
0
10
448.000000
20
403.000000
0
VERTEX
8
0
10
480.100000
20
385.200000
0
VERTEX
8
0
10
480.900000
20
384.800000
0
VERTEX
8
0
10
496.000000
20
379.000000
0
SEQEND
0
POLYLINE
8
0
6
CONTINUOUS
66
1
62
7
10
0.0
20
0.0
30
0.000000
0
VERTEX
8
0
10
426.000000
20
341.000000
0
VERTEX
8
0
10
439.900000
20
345.300000
0
VERTEX
8
0
10
465.846154
20
355.230769
0
VERTEX
8
0
10
475.000000
20
361.000000
0
VERTEX
8
0
10
475.000000
20
362.000000
0
VERTEX
8
0
10
473.180000
20
363.240000
0
VERTEX
8
0
10
465.100000
20
368.200000
0
VERTEX
8
0
10
435.100000
20
380.300000
0
VERTEX
8
0
10
422.000000
20
383.000000
0
VERTEX
8
0
10
410.923077
20
381.384615
0
VERTEX
8
0
10
403.088235
20
379.647059
0
VERTEX
8
0
10
372.000000
20
366.000000
0
VERTEX
8
0
10
370.000000
20
364.000000
0
VERTEX
8
0
10
370.000000
20
362.000000
0
VERTEX
8
0
10
378.900000
20
356.800000
0
VERTEX
8
0
10
384.900000
20
353.800000
0
VERTEX
8
0
10
411.900000
20
343.700000
0
VERTEX
8
0
10
421.067568
20
341.405405
0
VERTEX
8
0
10
426.000000
20
341.000000
0
SEQEND
0
POLYLINE
8
0
6
CONTINUOUS
66
1
62
7
10
0.0
20
0.0
30
0.000000
0
VERTEX
8
0
10
265.000000
20
340.000000
0
VERTEX
8
0
10
273.900000
20
343.300000
0
VERTEX
8
0
10
303.900000
20
356.200000
0
VERTEX
8
0
10
309.100000
20
358.800000
0
VERTEX
8
0
10
313.000000
20
362.000000
0
VERTEX
8
0
10
314.000000
20
364.000000
0
VERTEX
8
0
10
308.100000
20
369.200000
0
VERTEX
8
0
10
306.900000
20
369.800000
0
VERTEX
8
0
10
277.923077
20
382.615385
0
VERTEX
8
0
10
274.076923
20
383.384615
0
VERTEX
8
0
10
261.000000
20
385.000000
0
VERTEX
8
0
10
251.076923
20
382.615385
0
VERTEX
8
0
10
245.900000
20
381.200000
0
VERTEX
8
0
10
218.000000
20
369.000000
0
VERTEX
8
0
10
214.000000
20
365.000000
0
VERTEX
8
0
10
215.000000
20
363.000000
0
VERTEX
8
0
10
229.100000
20
355.200000
0
VERTEX
8
0
10
235.900000
20
351.800000
0
VERTEX
8
0
10
254.100000
20
343.300000
0
VERTEX
8
0
10
265.000000
20
340.000000
0
SEQEND
0
POLYLINE
8
0
6
CONTINUOUS
66
1
62
7
10
0.0
20
0.0
30
0.000000
0
VERTEX
8
0
10
278.000000
20
250.000000
0
VERTEX
8
0
10
281.900000
20
252.200000
0
VERTEX
8
0
10
301.783186
20
265.247788
0
VERTEX
8
0
10
317.000000
20
279.000000
0
VERTEX
8
0
10
320.769231
20
286.153846
0
VERTEX
8
0
10
323.200000
20
290.900000
0
VERTEX
8
0
10
328.544828
20
307.037931
0
VERTEX
8
0
10
330.000000
20
319.000000
0
VERTEX
8
0
10
330.000000
20
332.000000
0
VERTEX
8
0
10
329.000000
20
336.000000
0
VERTEX
8
0
10
327.000000
20
338.000000
0
VERTEX
8
0
10
326.000000
20
338.000000
0
VERTEX
8
0
10
296.000000
20
318.000000
0
VERTEX
8
0
10
290.000000
20
312.000000
0
VERTEX
8
0
10
285.200000
20
304.900000
0
VERTEX
8
0
10
281.700000
20
297.100000
0
VERTEX
8
0
10
277.580000
20
271.060000
0
VERTEX
8
0
10
276.000000
20
262.000000
0
VERTEX
8
0
10
276.000000
20
253.000000
0
VERTEX
8
0
10
278.000000
20
250.000000
0
SEQEND
0
POLYLINE
8
0
6
CONTINUOUS
66
1
62
7
10
0.0
20
0.0
30
0.000000
0
VERTEX
8
0
10
407.000000
20
248.000000
0
VERTEX
8
0
10
409.000000
20
250.000000
0
VERTEX
8
0
10
409.000000
20
265.000000
0
VERTEX
8
0
10
405.352941
20
289.088235
0
VERTEX
8
0
10
403.700000
20
294.900000
0
VERTEX
8
0
10
398.756098
20
304.804878
0
VERTEX
8
0
10
395.243902
20
309.195122
0
VERTEX
8
0
10
387.000000
20
318.000000
0
VERTEX
8
0
10
366.804878
20
334.756098
0
VERTEX
8
0
10
364.900000
20
335.700000
0
VERTEX
8
0
10
361.000000
20
337.000000
0
VERTEX
8
0
10
360.000000
20
336.000000
0
VERTEX
8
0
10
358.000000
20
323.000000
0
VERTEX
8
0
10
358.000000
20
297.000000
0
VERTEX
8
0
10
359.384615
20
292.076923
0
VERTEX
8
0
10
365.000000
20
282.000000
0
VERTEX
8
0
10
384.783186
20
263.752212
0
VERTEX
8
0
10
397.195122
20
253.243902
0
VERTEX
8
0
10
405.100000
20
249.200000
0
VERTEX
8
0
10
407.000000
20
248.000000
0
SEQEND
0
POLYLINE
8
0
6
CONTINUOUS
66
1
62
7
10
0.0
20
0.0
30
0.000000
0
VERTEX
8
0
10
176.000000
20
239.000000
0
VERTEX
8
0
10
179.000000
20
240.000000
0
VERTEX
8
0
10
181.294118
20
244.176471
0
VERTEX
8
0
10
182.420000
20
249.940000
0
VERTEX
8
0
10
183.000000
20
258.000000
0
VERTEX
8
0
10
175.000000
20
276.000000
0
VERTEX
8
0
10
172.000000
20
279.000000
0
VERTEX
8
0
10
163.900000
20
283.800000
0
VERTEX
8
0
10
163.100000
20
284.200000
0
VERTEX
8
0
10
158.000000
20
287.000000
0
VERTEX
8
0
10
156.000000
20
287.000000
0
VERTEX
8
0
10
148.000000
20
280.000000
0
VERTEX
8
0
10
147.300000
20
277.900000
0
VERTEX
8
0
10
146.000000
20
273.000000
0
VERTEX
8
0
10
147.000000
20
271.000000
0
VERTEX
8
0
10
150.795082
20
267.754098
0
VERTEX
8
0
10
157.000000
20
263.000000
0
VERTEX
8
0
10
161.200000
20
258.100000
0
VERTEX
8
0
10
162.800000
20
254.900000
0
VERTEX
8
0
10
166.000000
20
243.000000
0
VERTEX
8
0
10
169.000000
20
240.000000
0
VERTEX
8
0
10
173.088235
20
239.352941
0
VERTEX
8
0
10
176.000000
20
239.000000
0
SEQEND
0
POLYLINE
8
0
6
CONTINUOUS
66
1
62
7
10
0.0
20
0.0
30
0.000000
0
VERTEX
8
0
10
246.000000
20
239.000000
0
VERTEX
8
0
10
251.000000
20
241.000000
0
VERTEX
8
0
10
252.529231
20
253.026154
0
VERTEX
8
0
10
254.000000
20
271.000000
0
VERTEX
8
0
10
254.000000
20
306.000000
0
VERTEX
8
0
10
252.000000
20
311.000000
0
VERTEX
8
0
10
246.204918
20
316.245902
0
VERTEX
8
0
10
237.153846
20
323.230769
0
VERTEX
8
0
10
215.900000
20
335.800000
0
VERTEX
8
0
10
211.100000
20
338.200000
0
VERTEX
8
0
10
199.000000
20
344.000000
0
VERTEX
8
0
10
191.000000
20
344.000000
0
VERTEX
8
0
10
187.000000
20
342.000000
0
VERTEX
8
0
10
183.800000
20
338.100000
0
VERTEX
8
0
10
183.000000
20
337.000000
0
VERTEX
8
0
10
184.800000
20
332.900000
0
VERTEX
8
0
10
185.000000
20
332.000000
0
VERTEX
8
0
10
200.900000
20
321.800000
0
VERTEX
8
0
10
208.153846
20
317.230769
0
VERTEX
8
0
10
222.000000
20
309.000000
0
VERTEX
8
0
10
227.000000
20
304.000000
0
VERTEX
8
0
10
231.647059
20
296.911765
0
VERTEX
8
0
10
232.352941
20
294.088235
0
VERTEX
8
0
10
238.200000
20
243.100000
0
VERTEX
8
0
10
239.000000
20
241.000000
0
VERTEX
8
0
10
241.900000
20
239.700000
0
VERTEX
8
0
10
246.000000
20
239.000000
0
SEQEND
0
POLYLINE
8
0
6
CONTINUOUS
66
1
62
7
10
0.0
20
0.0
30
0.000000
0
VERTEX
8
0
10
211.000000
20
238.000000
0
VERTEX
8
0
10
215.000000
20
239.000000
0
VERTEX
8
0
10
217.173410
20
243.127168
0
VERTEX
8
0
10
219.000000
20
255.000000
0
VERTEX
8
0
10
218.450820
20
275.040984
0
VERTEX
8
0
10
216.000000
20
292.000000
0
VERTEX
8
0
10
208.000000
20
300.000000
0
VERTEX
8
0
10
194.900000
20
306.800000
0
VERTEX
8
0
10
194.100000
20
307.200000
0
VERTEX
8
0
10
178.000000
20
314.000000
0
VERTEX
8
0
10
169.000000
20
314.000000
0
VERTEX
8
0
10
167.000000
20
313.000000
0
VERTEX
8
0
10
164.000000
20
309.000000
0
VERTEX
8
0
10
164.800000
20
306.900000
0
VERTEX
8
0
10
166.000000
20
304.000000
0
VERTEX
8
0
10
174.820000
20
296.760000
0
VERTEX
8
0
10
178.180000
20
294.240000
0
VERTEX
8
0
10
186.100000
20
289.200000
0
VERTEX
8
0
10
189.000000
20
288.000000
0
VERTEX
8
0
10
192.000000
20
285.000000
0
VERTEX
8
0
10
195.647059
20
277.911765
0
VERTEX
8
0
10
200.000000
20
242.000000
0
VERTEX
8
0
10
201.000000
20
241.000000
0
VERTEX
8
0
10
207.076923
20
238.384615
0
VERTEX
8
0
10
211.000000
20
238.000000
0
SEQEND
0
POLYLINE
8
0
6
CONTINUOUS
66
1
62
7
10
0.0
20
0.0
30
0.000000
0
VERTEX
8
0
10
443.000000
20
238.000000
0
VERTEX
8
0
10
446.000000
20
239.000000
0
VERTEX
8
0
10
448.200000
20
241.900000
0
VERTEX
8
0
10
448.569231
20
243.053846
0
VERTEX
8
0
10
453.200000
20
292.900000
0
VERTEX
8
0
10
453.800000
20
294.100000
0
VERTEX
8
0
10
456.000000
20
298.000000
0
VERTEX
8
0
10
460.000000
20
302.000000
0
VERTEX
8
0
10
489.900000
20
320.200000
0
VERTEX
8
0
10
498.000000
20
326.000000
0
VERTEX
8
0
10
501.200000
20
329.900000
0
VERTEX
8
0
10
503.000000
20
333.000000
0
VERTEX
8
0
10
502.200000
20
335.100000
0
VERTEX
8
0
10
500.800000
20
337.900000
0
VERTEX
8
0
10
499.000000
20
341.000000
0
VERTEX
8
0
10
494.000000
20
342.000000
0
VERTEX
8
0
10
485.100000
20
338.800000
0
VERTEX
8
0
10
462.900000
20
328.200000
0
VERTEX
8
0
10
442.000000
20
317.000000
0
VERTEX
8
0
10
437.000000
20
312.000000
0
VERTEX
8
0
10
432.000000
20
298.000000
0
VERTEX
8
0
10
432.000000
20
268.000000
0
VERTEX
8
0
10
433.464602
20
253.030973
0
VERTEX
8
0
10
434.439024
20
244.048780
0
VERTEX
8
0
10
437.000000
20
239.000000
0
VERTEX
8
0
10
443.000000
20
238.000000
0
SEQEND
0
POLYLINE
8
0
6
CONTINUOUS
66
1
62
7
10
0.0
20
0.0
30
0.000000
0
VERTEX
8
0
10
479.000000
20
235.000000
0
VERTEX
8
0
10
483.000000
20
238.000000
0
VERTEX
8
0
10
483.615385
20
240.076923
0
VERTEX
8
0
10
484.569231
20
245.053846
0
VERTEX
8
0
10
487.300000
20
270.900000
0
VERTEX
8
0
10
487.800000
20
272.100000
0
VERTEX
8
0
10
491.000000
20
278.000000
0
VERTEX
8
0
10
495.000000
20
282.000000
0
VERTEX
8
0
10
505.153846
20
288.769231
0
VERTEX
8
0
10
516.000000
20
296.000000
0
VERTEX
8
0
10
521.200000
20
302.900000
0
VERTEX
8
0
10
522.000000
20
305.000000
0
VERTEX
8
0
10
519.000000
20
310.000000
0
VERTEX
8
0
10
515.000000
20
311.000000
0
VERTEX
8
0
10
508.911765
20
310.352941
0
VERTEX
8
0
10
502.088235
20
308.647059
0
VERTEX
8
0
10
488.153846
20
301.769231
0
VERTEX
8
0
10
485.180000
20
299.760000
0
VERTEX
8
0
10
473.000000
20
290.000000
0
VERTEX
8
0
10
470.240000
20
285.820000
0
VERTEX
8
0
10
467.420000
20
278.940000
0
VERTEX
8
0
10
466.580000
20
273.060000
0
VERTEX
8
0
10
466.000000
20
272.000000
0
VERTEX
8
0
10
466.000000
20
246.000000
0
VERTEX
8
0
10
467.600000
20
241.200000
0
VERTEX
8
0
10
468.769231
20
238.846154
0
VERTEX
8
0
10
471.000000
20
236.000000
0
VERTEX
8
0
10
479.000000
20
235.000000
0
SEQEND
0
POLYLINE
8
0
6
CONTINUOUS
66
1
62
7
10
0.0
20
0.0
30
0.000000
0
VERTEX
8
0
10
513.000000
20
234.000000
0
VERTEX
8
0
10
516.756098
20
238.195122
0
VERTEX
8
0
10
521.800000
20
248.100000
0
VERTEX
8
0
10
527.760000
20
258.180000
0
VERTEX
8
0
10
528.240000
20
258.820000
0
VERTEX
8
0
10
535.000000
20
267.000000
0
VERTEX
8
0
10
536.000000
20
267.000000
0
VERTEX
8
0
10
537.200000
20
268.900000
0
VERTEX
8
0
10
538.000000
20
270.000000
0
VERTEX
8
0
10
538.000000
20
274.000000
0
VERTEX
8
0
10
536.000000
20
277.000000
0
VERTEX
8
0
10
532.100000
20
279.200000
0
VERTEX
8
0
10
527.000000
20
281.000000
0
VERTEX
8
0
10
522.000000
20
281.000000
0
VERTEX
8
0
10
515.000000
20
278.000000
0
VERTEX
8
0
10
509.000000
20
272.000000
0
VERTEX
8
0
10
505.243902
20
266.804878
0
VERTEX
8
0
10
503.352941
20
261.911765
0
VERTEX
8
0
10
502.647059
20
259.088235
0
VERTEX
8
0
10
502.000000
20
258.000000
0
VERTEX
8
0
10
502.594595
20
249.932432
0
VERTEX
8
0
10
505.000000
20
239.000000
0
VERTEX
8
0
10
509.000000
20
235.000000
0
VERTEX
8
0
10
512.100000
20
234.200000
0
VERTEX
8
0
10
513.000000
20
234.000000
0
SEQEND
0
POLYLINE
8
0
6
CONTINUOUS
66
1
62
7
10
0.0
20
0.0
30
0.000000
0
VERTEX
8
0
10
125.000000
20
220.000000
0
VERTEX
8
0
10
130.000000
20
222.000000
0
VERTEX
8
0
10
134.200000
20
226.900000
0
VERTEX
8
0
10
136.200000
20
230.900000
0
VERTEX
8
0
10
138.000000
20
235.000000
0
VERTEX
8
0
10
138.000000
20
240.000000
0
VERTEX
8
0
10
137.200000
20
241.100000
0
VERTEX
8
0
10
134.000000
20
248.000000
0
VERTEX
8
0
10
129.100000
20
252.200000
0
VERTEX
8
0
10
126.000000
20
254.000000
0
VERTEX
8
0
10
115.000000
20
254.000000
0
VERTEX
8
0
10
111.000000
20
252.000000
0
VERTEX
8
0
10
105.800000
20
246.100000
0
VERTEX
8
0
10
103.000000
20
240.000000
0
VERTEX
8
0
10
103.000000
20
234.000000
0
VERTEX
8
0
10
105.800000
20
227.900000
0
VERTEX
8
0
10
111.000000
20
222.000000
0
VERTEX
8
0
10
111.900000
20
221.800000
0
VERTEX
8
0
10
116.044554
20
220.445545
0
VERTEX
8
0
10
125.000000
20
220.000000
0
SEQEND
0
POLYLINE
8
0
6
CONTINUOUS
66
1
62
7
10
0.0
20
0.0
30
0.000000
0
VERTEX
8
0
10
568.000000
20
215.000000
0
VERTEX
8
0
10
569.100000
20
215.700000
0
VERTEX
8
0
10
575.000000
20
218.000000
0
VERTEX
8
0
10
580.000000
20
223.000000
0
VERTEX
8
0
10
582.500000
20
232.000000
0
VERTEX
8
0
10
580.000000
20
241.000000
0
VERTEX
8
0
10
571.000000
20
249.000000
0
VERTEX
8
0
10
559.000000
20
249.000000
0
VERTEX
8
0
10
556.000000
20
247.000000
0
VERTEX
8
0
10
550.000000
20
241.000000
0
VERTEX
8
0
10
549.200000
20
237.900000
0
VERTEX
8
0
10
548.800000
20
237.100000
0
VERTEX
8
0
10
548.000000
20
236.000000
0
VERTEX
8
0
10
548.000000
20
229.000000
0
VERTEX
8
0
10
549.517241
20
225.206897
0
VERTEX
8
0
10
550.769231
20
222.846154
0
VERTEX
8
0
10
556.000000
20
217.000000
0
VERTEX
8
0
10
558.100000
20
216.200000
0
VERTEX
8
0
10
558.900000
20
215.800000
0
VERTEX
8
0
10
568.000000
20
215.000000
0
SEQEND
0
POLYLINE
8
0
6
CONTINUOUS
66
1
62
7
10
0.0
20
0.0
30
0.000000
0
VERTEX
8
0
10
396.000000
20
210.000000
0
VERTEX
8
0
10
402.000000
20
218.000000
0
VERTEX
8
0
10
401.200000
20
220.100000
0
VERTEX
8
0
10
398.000000
20
225.000000
0
VERTEX
8
0
10
360.846154
20
249.769231
0
VERTEX
8
0
10
360.100000
20
250.200000
0
VERTEX
8
0
10
350.911765
20
254.647059
0
VERTEX
8
0
10
348.088235
20
255.352941
0
VERTEX
8
0
10
342.000000
20
256.000000
0
VERTEX
8
0
10
334.088235
20
253.647059
0
VERTEX
8
0
10
295.100000
20
234.800000
0
VERTEX
8
0
10
290.153846
20
231.769231
0
VERTEX
8
0
10
281.000000
20
225.000000
0
VERTEX
8
0
10
280.000000
20
223.000000
0
VERTEX
8
0
10
283.000000
20
215.000000
0
VERTEX
8
0
10
287.000000
20
211.000000
0
VERTEX
8
0
10
293.000000
20
211.000000
0
VERTEX
8
0
10
316.900000
20
223.200000
0
VERTEX
8
0
10
327.900000
20
229.200000
0
VERTEX
8
0
10
334.067568
20
231.594595
0
VERTEX
8
0
10
343.000000
20
233.000000
0
VERTEX
8
0
10
349.900000
20
230.700000
0
VERTEX
8
0
10
352.900000
20
229.700000
0
VERTEX
8
0
10
382.900000
20
213.800000
0
VERTEX
8
0
10
390.060000
20
210.420000
0
VERTEX
8
0
10
396.000000
20
210.000000
0
SEQEND
0
POLYLINE
8
0
6
CONTINUOUS
66
1
62
7
10
0.0
20
0.0
30
0.000000
0
VERTEX
8
0
10
306.000000
20
176.000000
0
VERTEX
8
0
10
339.000000
20
195.000000
0
VERTEX
8
0
10
341.000000
20
195.000000
0
VERTEX
8
0
10
356.900000
20
187.800000
0
VERTEX
8
0
10
368.088235
20
182.352941
0
VERTEX
8
0
10
378.000000
20
180.000000
0
VERTEX
8
0
10
385.000000
20
185.000000
0
VERTEX
8
0
10
386.000000
20
188.000000
0
VERTEX
8
0
10
383.000000
20
193.000000
0
VERTEX
8
0
10
379.000000
20
197.000000
0
VERTEX
8
0
10
359.100000
20
210.200000
0
VERTEX
8
0
10
355.100000
20
212.200000
0
VERTEX
8
0
10
345.000000
20
217.000000
0
VERTEX
8
0
10
335.900000
20
215.300000
0
VERTEX
8
0
10
298.000000
20
196.000000
0
VERTEX
8
0
10
296.000000
20
193.000000
0
VERTEX
8
0
10
296.000000
20
190.000000
0
VERTEX
8
0
10
301.000000
20
180.000000
0
VERTEX
8
0
10
306.000000
20
176.000000
0
SEQEND
0
POLYLINE
8
0
6
CONTINUOUS
66
1
62
7
10
0.0
20
0.0
30
0.000000
0
VERTEX
8
0
10
358.000000
20
149.000000
0
VERTEX
8
0
10
359.900000
20
150.200000
0
VERTEX
8
0
10
366.000000
20
154.000000
0
VERTEX
8
0
10
366.230769
20
154.846154
0
VERTEX
8
0
10
368.000000
20
157.000000
0
VERTEX
8
0
10
368.000000
20
161.000000
0
VERTEX
8
0
10
353.100000
20
172.200000
0
VERTEX
8
0
10
347.088235
20
174.352941
0
VERTEX
8
0
10
346.000000
20
175.000000
0
VERTEX
8
0
10
340.000000
20
175.000000
0
VERTEX
8
0
10
336.088235
20
173.647059
0
VERTEX
8
0
10
334.900000
20
173.300000
0
VERTEX
8
0
10
326.153846
20
169.769231
0
VERTEX
8
0
10
319.000000
20
165.000000
0
VERTEX
8
0
10
316.000000
20
161.000000
0
VERTEX
8
0
10
317.000000
20
154.000000
0
VERTEX
8
0
10
318.000000
20
153.000000
0
VERTEX
8
0
10
326.000000
20
151.000000
0
VERTEX
8
0
10
336.000000
20
153.000000
0
VERTEX
8
0
10
342.000000
20
153.000000
0
VERTEX
8
0
10
347.900000
20
150.700000
0
VERTEX
8
0
10
358.000000
20
149.000000
0
SEQEND
0
POLYLINE
8
0
6
CONTINUOUS
66
1
62
7
10
0.0
20
0.0
30
0.000000
0
VERTEX
8
0
10
342.000000
20
88.000000
0
VERTEX
8
0
10
347.100000
20
89.700000
0
VERTEX
8
0
10
351.000000
20
91.000000
0
VERTEX
8
0
10
355.000000
20
95.000000
0
VERTEX
8
0
10
355.800000
20
97.100000
0
VERTEX
8
0
10
356.200000
20
97.900000
0
VERTEX
8
0
10
359.000000
20
103.000000
0
VERTEX
8
0
10
359.000000
20
108.000000
0
VERTEX
8
0
10
357.700000
20
110.900000
0
VERTEX
8
0
10
353.000000
20
119.000000
0
VERTEX
8
0
10
351.100000
20
120.200000
0
VERTEX
8
0
10
345.000000
20
123.000000
0
VERTEX
8
0
10
338.000000
20
123.000000
0
VERTEX
8
0
10
331.000000
20
120.000000
0
VERTEX
8
0
10
327.000000
20
116.000000
0
VERTEX
8
0
10
326.300000
20
113.900000
0
VERTEX
8
0
10
325.700000
20
112.100000
0
VERTEX
8
0
10
324.000000
20
109.000000
0
VERTEX
8
0
10
324.000000
20
102.000000
0
VERTEX
8
0
10
325.200000
20
100.100000
0
VERTEX
8
0
10
325.800000
20
98.900000
0
VERTEX
8
0
10
327.000000
20
96.000000
0
VERTEX
8
0
10
332.000000
20
91.000000
0
VERTEX
8
0
10
334.100000
20
90.200000
0
VERTEX
8
0
10
342.000000
20
88.000000
0
SEQEND
0
POLYLINE
8
0
6
CONTINUOUS
66
1
62
7
10
0.0
20
0.0
30
0.000000
0
VERTEX
8
0
10
350.000000
20
47.000000
0
VERTEX
8
0
10
386.951220
20
50.439024
0
VERTEX
8
0
10
410.923077
20
55.384615
0
VERTEX
8
0
10
424.923077
20
58.384615
0
VERTEX
8
0
10
433.900000
20
61.200000
0
VERTEX
8
0
10
464.900000
20
72.300000
0
VERTEX
8
0
10
479.900000
20
79.200000
0
VERTEX
8
0
10
501.100000
20
90.800000
0
VERTEX
8
0
10
512.820000
20
97.240000
0
VERTEX
8
0
10
516.180000
20
99.760000
0
VERTEX
8
0
10
547.763504
20
123.249635
0
VERTEX
8
0
10
566.236496
20
140.750365
0
VERTEX
8
0
10
584.240000
20
158.820000
0
VERTEX
8
0
10
609.760000
20
193.180000
0
VERTEX
8
0
10
620.800000
20
213.100000
0
VERTEX
8
0
10
629.800000
20
230.100000
0
VERTEX
8
0
10
635.700000
20
244.100000
0
VERTEX
8
0
10
646.700000
20
275.100000
0
VERTEX
8
0
10
650.615385
20
293.076923
0
VERTEX
8
0
10
655.384615
20
317.923077
0
VERTEX
8
0
10
657.461929
20
341.967005
0
VERTEX
8
0
10
659.000000
20
357.000000
0
VERTEX
8
0
10
658.461929
20
371.032995
0
VERTEX
8
0
10
656.535398
20
398.969027
0
VERTEX
8
0
10
653.615385
20
417.923077
0
VERTEX
8
0
10
646.647059
20
448.911765
0
VERTEX
8
0
10
638.700000
20
471.900000
0
VERTEX
8
0
10
632.200000
20
490.100000
0
VERTEX
8
0
10
621.200000
20
512.100000
0
VERTEX
8
0
10
610.230769
20
531.153846
0
VERTEX
8
0
10
603.754098
20
541.795082
0
VERTEX
8
0
10
590.245902
20
558.204918
0
VERTEX
8
0
10
577.000000
20
575.000000
0
VERTEX
8
0
10
537.776243
20
611.751381
0
VERTEX
8
0
10
506.846154
20
632.769231
0
VERTEX
8
0
10
500.846154
20
636.769231
0
VERTEX
8
0
10
462.900000
20
654.800000
0
VERTEX
8
0
10
460.100000
20
656.200000
0
VERTEX
8
0
10
428.100000
20
666.300000
0
VERTEX
8
0
10
418.100000
20
669.300000
0
VERTEX
8
0
10
400.946154
20
672.569231
0
VERTEX
8
0
10
378.946154
20
675.569231
0
VERTEX
8
0
10
369.000000
20
677.000000
0
VERTEX
8
0
10
368.000000
20
678.000000
0
VERTEX
8
0
10
369.000000
20
679.000000
0
VERTEX
8
0
10
369.000000
20
687.000000
0
VERTEX
8
0
10
367.700000
20
689.900000
0
VERTEX
8
0
10
366.200000
20
694.100000
0
VERTEX
8
0
10
364.000000
20
698.000000
0
VERTEX
8
0
10
359.000000
20
703.000000
0
VERTEX
8
0
10
348.000000
20
708.000000
0
VERTEX
8
0
10
339.000000
20
708.000000
0
VERTEX
8
0
10
335.088235
20
706.647059
0
VERTEX
8
0
10
328.000000
20
703.000000
0
VERTEX
8
0
10
323.000000
20
698.000000
0
VERTEX
8
0
10
321.230769
20
694.846154
0
VERTEX
8
0
10
319.800000
20
692.100000
0
VERTEX
8
0
10
318.000000
20
687.000000
0
VERTEX
8
0
10
318.000000
20
679.000000
0
VERTEX
8
0
10
319.000000
20
678.000000
0
VERTEX
8
0
10
318.000000
20
677.000000
0
VERTEX
8
0
10
306.940000
20
675.420000
0
VERTEX
8
0
10
279.060000
20
671.580000
0
VERTEX
8
0
10
267.100000
20
668.700000
0
VERTEX
8
0
10
257.100000
20
665.700000
0
VERTEX
8
0
10
226.900000
20
656.200000
0
VERTEX
8
0
10
222.900000
20
654.200000
0
VERTEX
8
0
10
186.153846
20
636.769231
0
VERTEX
8
0
10
177.846154
20
631.230769
0
VERTEX
8
0
10
149.223757
20
611.751381
0
VERTEX
8
0
10
110.000000
20
575.000000
0
VERTEX
8
0
10
92.243902
20
552.804878
0
VERTEX
8
0
10
83.245902
20
541.795082
0
VERTEX
8
0
10
75.230769
20
528.846154
0
VERTEX
8
0
10
65.200000
20
510.900000
0
VERTEX
8
0
10
54.800000
20
490.100000
0
VERTEX
8
0
10
47.700000
20
470.100000
0
VERTEX
8
0
10
40.352941
20
448.911765
0
VERTEX
8
0
10
32.615385
20
414.076923
0
VERTEX
8
0
10
30.461929
20
398.967005
0
VERTEX
8
0
10
28.000000
20
370.000000
0
VERTEX
8
0
10
28.538071
20
354.967005
0
VERTEX
8
0
10
30.461929
20
328.032995
0
VERTEX
8
0
10
32.384615
20
314.076923
0
VERTEX
8
0
10
36.594595
20
291.932432
0
VERTEX
8
0
10
40.300000
20
275.100000
0
VERTEX
8
0
10
51.300000
20
244.100000
0
VERTEX
8
0
10
57.200000
20
230.100000
0
VERTEX
8
0
10
66.800000
20
211.900000
0
VERTEX
8
0
10
77.240000
20
193.180000
0
VERTEX
8
0
10
102.760000
20
158.820000
0
VERTEX
8
0
10
120.763504
20
140.750365
0
VERTEX
8
0
10
139.236496
20
123.249635
0
VERTEX
8
0
10
174.180000
20
97.240000
0
VERTEX
8
0
10
185.100000
20
91.200000
0
VERTEX
8
0
10
205.900000
20
79.800000
0
VERTEX
8
0
10
225.900000
20
70.800000
0
VERTEX
8
0
10
253.100000
20
61.200000
0
VERTEX
8
0
10
271.076923
20
56.384615
0
VERTEX
8
0
10
289.923077
20
52.615385
0
VERTEX
8
0
10
300.044554
20
50.445545
0
VERTEX
8
0
10
308.955446
20
49.554455
0
VERTEX
8
0
10
350.000000
20
47.000000
0
SEQEND
0
ENDSEC
0
EOF
