0
SECTION
2
HEADER
9
$ACADVER
1
AC1003
9
$INSBASE
10
0.0
20
0.0
30
0.0
9
$EXTMIN
10
0.000
20
0.000
30
0.0
9
$EXTMAX
10
888.000
20
890.000
30
0.0
9
$LIMMIN
10
0.000
20
0.000
9
$LIMMAX
10
888.000
20
890.000
9
$LTSCALE
40
1.0
9
$LUNITS
70
2
9
$LUPREC
70
3
9
$LIMCHECK
70
0
9
$UCSNAME
2

9
$UCSORG
10
0.0
20
0.0
30
0.0
9
$UCSXDIR
10
1.0
20
0.0
30
0.0
9
$UCSYDIR
10
0.0
20
1.0
30
0.0
9
$WORLDVIEW
70
1
9
$UNITMODE
70
0
0
ENDSEC
0
SECTION
2
TABLES
0
TABLE
2
VPORT
70
1
0
VPORT
2
*ACTIVE
70
0
10
0.0
20
0.0
11
1.0
21
1.0
12
444.000
22
445.000
13
0.0
23
0.0
14
1.0
24
1.0
15
0.0
25
0.0
16
0.0
26
0.0
36
1.0
17
0.0
27
0.0
37
0.0
40
500.0
41
1.002
42
50.0
43
0.0
44
0.0
50
0.0
51
0.0
71
0
72
100
73
1
74
1
75
0
76
0
77
0
78
0
0
ENDTAB
0
TABLE
2
LTYPE
70
1
0
LTYPE
2
CONTINUOUS
70
64
3
Solid line
72
65
73
0
40
0.000
0
ENDTAB
0
TABLE
2
LAYER
70
1
0
LAYER
2
0
70
64
62
7
6
CONTINUOUS
0
ENDTAB
0
ENDSEC
0
SECTION
2
BLOCKS
0
ENDSEC
0
SECTION
2
ENTITIES
0
POLYLINE
8
0
6
CONTINUOUS
66
1
62
7
10
0.0
20
0.0
30
0.000000
0
VERTEX
8
0
10
436.000000
20
778.000000
0
VERTEX
8
0
10
442.000000
20
781.000000
0
VERTEX
8
0
10
445.000000
20
786.000000
0
VERTEX
8
0
10
445.000000
20
791.000000
0
VERTEX
8
0
10
444.300000
20
792.100000
0
VERTEX
8
0
10
444.000000
20
794.000000
0
VERTEX
8
0
10
440.153846
20
797.230769
0
VERTEX
8
0
10
438.000000
20
799.000000
0
VERTEX
8
0
10
432.000000
20
799.000000
0
VERTEX
8
0
10
426.000000
20
794.000000
0
VERTEX
8
0
10
425.000000
20
792.000000
0
VERTEX
8
0
10
425.000000
20
785.000000
0
VERTEX
8
0
10
427.000000
20
782.000000
0
VERTEX
8
0
10
430.000000
20
779.000000
0
VERTEX
8
0
10
436.000000
20
778.000000
0
SEQEND
0
POLYLINE
8
0
6
CONTINUOUS
66
1
62
7
10
0.0
20
0.0
30
0.000000
0
VERTEX
8
0
10
544.000000
20
616.000000
0
VERTEX
8
0
10
542.000000
20
616.000000
0
SEQEND
0
POLYLINE
8
0
6
CONTINUOUS
66
1
62
7
10
0.0
20
0.0
30
0.000000
0
VERTEX
8
0
10
255.000000
20
538.000000
0
VERTEX
8
0
10
256.000000
20
545.000000
0
SEQEND
0
POLYLINE
8
0
6
CONTINUOUS
66
1
62
7
10
0.0
20
0.0
30
0.000000
0
VERTEX
8
0
10
255.000000
20
538.000000
0
VERTEX
8
0
10
253.000000
20
537.000000
0
VERTEX
8
0
10
248.300000
20
522.900000
0
VERTEX
8
0
10
248.000000
20
521.000000
0
VERTEX
8
0
10
246.000000
20
519.000000
0
VERTEX
8
0
10
245.000000
20
519.000000
0
VERTEX
8
0
10
240.240000
20
525.180000
0
VERTEX
8
0
10
236.300000
20
533.100000
0
VERTEX
8
0
10
234.700000
20
537.900000
0
VERTEX
8
0
10
233.000000
20
543.000000
0
VERTEX
8
0
10
232.000000
20
542.000000
0
VERTEX
8
0
10
232.000000
20
527.000000
0
VERTEX
8
0
10
233.405405
20
521.067568
0
VERTEX
8
0
10
236.230769
20
513.153846
0
VERTEX
8
0
10
237.769231
20
510.846154
0
VERTEX
8
0
10
245.000000
20
503.000000
0
VERTEX
8
0
10
249.000000
20
501.000000
0
VERTEX
8
0
10
251.000000
20
502.000000
0
VERTEX
8
0
10
254.700000
20
535.100000
0
VERTEX
8
0
10
255.000000
20
538.000000
0
SEQEND
0
POLYLINE
8
0
6
CONTINUOUS
66
1
62
7
10
0.0
20
0.0
30
0.000000
0
VERTEX
8
0
10
329.000000
20
267.000000
0
VERTEX
8
0
10
328.000000
20
268.000000
0
SEQEND
0
POLYLINE
8
0
6
CONTINUOUS
66
1
62
7
10
0.0
20
0.0
30
0.000000
0
VERTEX
8
0
10
329.000000
20
267.000000
0
VERTEX
8
0
10
330.000000
20
268.000000
0
VERTEX
8
0
10
329.000000
20
269.000000
0
VERTEX
8
0
10
328.000000
20
268.000000
0
SEQEND
0
POLYLINE
8
0
6
CONTINUOUS
66
1
62
7
10
0.0
20
0.0
30
0.000000
0
VERTEX
8
0
10
350.000000
20
245.000000
0
VERTEX
8
0
10
351.000000
20
246.000000
0
SEQEND
0
POLYLINE
8
0
6
CONTINUOUS
66
1
62
7
10
0.0
20
0.0
30
0.000000
0
VERTEX
8
0
10
348.000000
20
244.000000
0
VERTEX
8
0
10
350.000000
20
245.000000
0
SEQEND
0
POLYLINE
8
0
6
CONTINUOUS
66
1
62
7
10
0.0
20
0.0
30
0.000000
0
VERTEX
8
0
10
349.000000
20
243.000000
0
VERTEX
8
0
10
348.000000
20
244.000000
0
SEQEND
0
POLYLINE
8
0
6
CONTINUOUS
66
1
62
7
10
0.0
20
0.0
30
0.000000
0
VERTEX
8
0
10
349.000000
20
243.000000
0
VERTEX
8
0
10
350.000000
20
245.000000
0
SEQEND
0
POLYLINE
8
0
6
CONTINUOUS
66
1
62
7
10
0.0
20
0.0
30
0.000000
0
VERTEX
8
0
10
542.000000
20
616.000000
0
VERTEX
8
0
10
508.024862
20
617.472376
0
VERTEX
8
0
10
461.000000
20
618.000000
0
VERTEX
8
0
10
436.040984
20
615.549180
0
VERTEX
8
0
10
393.911765
20
609.352941
0
VERTEX
8
0
10
375.100000
20
603.700000
0
VERTEX
8
0
10
351.100000
20
593.800000
0
VERTEX
8
0
10
341.100000
20
588.800000
0
VERTEX
8
0
10
325.846154
20
580.230769
0
VERTEX
8
0
10
312.211765
20
570.752941
0
VERTEX
8
0
10
305.788235
20
565.247059
0
VERTEX
8
0
10
295.754098
20
555.204918
0
VERTEX
8
0
10
291.245902
20
549.795082
0
VERTEX
8
0
10
280.800000
20
535.100000
0
VERTEX
8
0
10
280.200000
20
533.900000
0
VERTEX
8
0
10
272.647059
20
512.088235
0
VERTEX
8
0
10
270.000000
20
497.000000
0
VERTEX
8
0
10
270.000000
20
474.000000
0
VERTEX
8
0
10
273.300000
20
458.100000
0
VERTEX
8
0
10
279.000000
20
439.000000
0
VERTEX
8
0
10
279.000000
20
432.000000
0
VERTEX
8
0
10
275.000000
20
428.000000
0
VERTEX
8
0
10
271.000000
20
427.000000
0
VERTEX
8
0
10
268.000000
20
427.000000
0
VERTEX
8
0
10
256.100000
20
431.200000
0
VERTEX
8
0
10
248.820000
20
435.760000
0
VERTEX
8
0
10
243.000000
20
441.000000
0
VERTEX
8
0
10
242.760000
20
441.820000
0
VERTEX
8
0
10
238.000000
20
448.000000
0
VERTEX
8
0
10
236.000000
20
447.000000
0
VERTEX
8
0
10
233.000000
20
436.000000
0
VERTEX
8
0
10
235.384615
20
421.076923
0
VERTEX
8
0
10
236.000000
20
420.000000
0
VERTEX
8
0
10
236.000000
20
409.000000
0
VERTEX
8
0
10
234.000000
20
407.000000
0
VERTEX
8
0
10
230.000000
20
406.000000
0
VERTEX
8
0
10
228.911765
20
406.647059
0
VERTEX
8
0
10
223.337838
20
408.472973
0
VERTEX
8
0
10
217.795082
20
412.754098
0
VERTEX
8
0
10
209.754098
20
420.795082
0
VERTEX
8
0
10
205.245902
20
426.204918
0
VERTEX
8
0
10
193.200000
20
446.100000
0
VERTEX
8
0
10
192.800000
20
446.900000
0
VERTEX
8
0
10
191.000000
20
450.000000
0
VERTEX
8
0
10
190.000000
20
449.000000
0
VERTEX
8
0
10
190.560976
20
442.951220
0
VERTEX
8
0
10
193.384615
20
422.076923
0
VERTEX
8
0
10
196.200000
20
416.100000
0
VERTEX
8
0
10
196.800000
20
414.900000
0
VERTEX
8
0
10
199.245902
20
410.204918
0
VERTEX
8
0
10
204.000000
20
404.000000
0
VERTEX
8
0
10
210.846154
20
397.769231
0
VERTEX
8
0
10
221.846154
20
390.769231
0
VERTEX
8
0
10
229.000000
20
386.000000
0
VERTEX
8
0
10
229.230769
20
385.153846
0
VERTEX
8
0
10
231.000000
20
383.000000
0
VERTEX
8
0
10
231.000000
20
372.000000
0
VERTEX
8
0
10
224.700000
20
355.100000
0
VERTEX
8
0
10
223.000000
20
349.000000
0
VERTEX
8
0
10
223.000000
20
344.000000
0
VERTEX
8
0
10
225.300000
20
338.100000
0
VERTEX
8
0
10
230.240000
20
330.180000
0
VERTEX
8
0
10
236.230769
20
322.153846
0
VERTEX
8
0
10
241.000000
20
314.000000
0
VERTEX
8
0
10
239.647059
20
308.088235
0
VERTEX
8
0
10
234.800000
20
298.100000
0
VERTEX
8
0
10
234.000000
20
297.000000
0
VERTEX
8
0
10
234.000000
20
291.000000
0
VERTEX
8
0
10
243.230769
20
274.153846
0
VERTEX
8
0
10
254.200000
20
256.100000
0
VERTEX
8
0
10
265.000000
20
241.000000
0
VERTEX
8
0
10
287.000000
20
219.000000
0
VERTEX
8
0
10
327.230769
20
262.846154
0
VERTEX
8
0
10
329.000000
20
267.000000
0
SEQEND
0
POLYLINE
8
0
6
CONTINUOUS
66
1
62
7
10
0.0
20
0.0
30
0.000000
0
VERTEX
8
0
10
348.000000
20
244.000000
0
VERTEX
8
0
10
328.900000
20
230.200000
0
VERTEX
8
0
10
328.000000
20
230.000000
0
VERTEX
8
0
10
321.752212
20
223.216814
0
VERTEX
8
0
10
307.000000
20
206.000000
0
VERTEX
8
0
10
307.000000
20
205.000000
0
VERTEX
8
0
10
310.000000
20
202.000000
0
VERTEX
8
0
10
314.100000
20
200.200000
0
VERTEX
8
0
10
314.900000
20
199.800000
0
VERTEX
8
0
10
316.000000
20
199.000000
0
VERTEX
8
0
10
328.760000
20
217.180000
0
VERTEX
8
0
10
331.000000
20
221.000000
0
VERTEX
8
0
10
344.000000
20
233.000000
0
VERTEX
8
0
10
347.800000
20
240.100000
0
VERTEX
8
0
10
349.000000
20
243.000000
0
SEQEND
0
POLYLINE
8
0
6
CONTINUOUS
66
1
62
7
10
0.0
20
0.0
30
0.000000
0
VERTEX
8
0
10
542.000000
20
616.000000
0
VERTEX
8
0
10
542.000000
20
617.000000
0
VERTEX
8
0
10
540.000000
20
619.000000
0
VERTEX
8
0
10
513.900000
20
631.800000
0
VERTEX
8
0
10
511.900000
20
632.800000
0
VERTEX
8
0
10
473.900000
20
643.700000
0
VERTEX
8
0
10
453.923077
20
648.615385
0
VERTEX
8
0
10
411.000000
20
653.000000
0
VERTEX
8
0
10
391.000000
20
653.000000
0
VERTEX
8
0
10
360.076923
20
648.615385
0
VERTEX
8
0
10
358.911765
20
648.352941
0
VERTEX
8
0
10
319.900000
20
637.300000
0
VERTEX
8
0
10
318.100000
20
636.700000
0
VERTEX
8
0
10
288.100000
20
622.800000
0
VERTEX
8
0
10
286.900000
20
622.200000
0
VERTEX
8
0
10
265.846154
20
610.230769
0
VERTEX
8
0
10
262.846154
20
608.230769
0
VERTEX
8
0
10
245.204918
20
594.754098
0
VERTEX
8
0
10
233.795082
20
585.245902
0
VERTEX
8
0
10
225.000000
20
577.000000
0
VERTEX
8
0
10
214.249057
20
564.771698
0
VERTEX
8
0
10
196.760000
20
543.180000
0
VERTEX
8
0
10
190.243902
20
534.804878
0
VERTEX
8
0
10
177.800000
20
517.100000
0
VERTEX
8
0
10
175.200000
20
511.900000
0
VERTEX
8
0
10
164.700000
20
488.100000
0
VERTEX
8
0
10
161.700000
20
479.100000
0
VERTEX
8
0
10
153.384615
20
450.923077
0
VERTEX
8
0
10
151.647059
20
443.088235
0
VERTEX
8
0
10
147.445545
20
421.955446
0
VERTEX
8
0
10
145.554455
20
403.044554
0
VERTEX
8
0
10
145.000000
20
402.000000
0
VERTEX
8
0
10
145.000000
20
366.000000
0
VERTEX
8
0
10
146.445545
20
356.044554
0
VERTEX
8
0
10
151.352941
20
327.088235
0
VERTEX
8
0
10
152.647059
20
320.911765
0
VERTEX
8
0
10
160.700000
20
296.900000
0
VERTEX
8
0
10
161.300000
20
295.100000
0
VERTEX
8
0
10
176.200000
20
263.100000
0
VERTEX
8
0
10
176.800000
20
261.900000
0
VERTEX
8
0
10
195.240000
20
235.180000
0
VERTEX
8
0
10
208.248869
20
219.226244
0
VERTEX
8
0
10
228.000000
20
198.000000
0
VERTEX
8
0
10
228.779310
20
197.751724
0
VERTEX
8
0
10
245.000000
20
183.000000
0
VERTEX
8
0
10
243.000000
20
181.000000
0
VERTEX
8
0
10
242.000000
20
181.000000
0
VERTEX
8
0
10
240.700000
20
178.100000
0
VERTEX
8
0
10
240.000000
20
177.000000
0
VERTEX
8
0
10
241.000000
20
172.000000
0
VERTEX
8
0
10
246.000000
20
167.000000
0
VERTEX
8
0
10
252.100000
20
164.200000
0
VERTEX
8
0
10
256.000000
20
162.000000
0
VERTEX
8
0
10
263.000000
20
162.000000
0
VERTEX
8
0
10
270.100000
20
165.800000
0
VERTEX
8
0
10
273.000000
20
167.000000
0
VERTEX
8
0
10
281.000000
20
163.000000
0
VERTEX
8
0
10
276.800000
20
156.100000
0
VERTEX
8
0
10
277.000000
20
153.000000
0
VERTEX
8
0
10
287.000000
20
147.000000
0
VERTEX
8
0
10
296.088235
20
148.647059
0
VERTEX
8
0
10
306.000000
20
151.000000
0
VERTEX
8
0
10
332.911765
20
142.647059
0
VERTEX
8
0
10
347.067568
20
139.405405
0
VERTEX
8
0
10
364.940000
20
136.580000
0
VERTEX
8
0
10
402.000000
20
133.000000
0
VERTEX
8
0
10
426.000000
20
133.000000
0
VERTEX
8
0
10
453.962069
20
135.455172
0
VERTEX
8
0
10
472.923077
20
138.384615
0
VERTEX
8
0
10
505.088235
20
145.647059
0
VERTEX
8
0
10
517.846154
20
149.230769
0
VERTEX
8
0
10
521.000000
20
151.000000
0
VERTEX
8
0
10
525.000000
20
155.000000
0
VERTEX
8
0
10
524.000000
20
156.000000
0
VERTEX
8
0
10
520.000000
20
156.000000
0
VERTEX
8
0
10
501.000000
20
153.000000
0
VERTEX
8
0
10
487.000000
20
153.000000
0
VERTEX
8
0
10
459.032995
20
155.461929
0
VERTEX
8
0
10
428.923077
20
159.615385
0
VERTEX
8
0
10
419.067568
20
161.405405
0
VERTEX
8
0
10
364.900000
20
176.700000
0
VERTEX
8
0
10
359.900000
20
178.700000
0
VERTEX
8
0
10
336.000000
20
188.000000
0
VERTEX
8
0
10
335.000000
20
189.000000
0
VERTEX
8
0
10
338.000000
20
194.000000
0
VERTEX
8
0
10
352.000000
20
208.000000
0
VERTEX
8
0
10
390.180000
20
236.760000
0
VERTEX
8
0
10
394.180000
20
239.760000
0
VERTEX
8
0
10
412.000000
20
257.000000
0
VERTEX
8
0
10
412.000000
20
258.000000
0
VERTEX
8
0
10
416.000000
20
262.000000
0
VERTEX
8
0
10
450.100000
20
275.800000
0
VERTEX
8
0
10
459.100000
20
280.800000
0
VERTEX
8
0
10
472.804878
20
288.243902
0
VERTEX
8
0
10
488.226244
20
301.751131
0
VERTEX
8
0
10
503.000000
20
316.000000
0
VERTEX
8
0
10
513.000000
20
328.000000
0
VERTEX
8
0
10
516.000000
20
331.000000
0
VERTEX
8
0
10
524.000000
20
331.000000
0
VERTEX
8
0
10
536.000000
20
328.000000
0
VERTEX
8
0
10
540.000000
20
321.000000
0
VERTEX
8
0
10
542.000000
20
319.000000
0
VERTEX
8
0
10
546.000000
20
319.000000
0
VERTEX
8
0
10
548.000000
20
321.000000
0
VERTEX
8
0
10
549.000000
20
332.000000
0
VERTEX
8
0
10
555.100000
20
335.700000
0
VERTEX
8
0
10
556.900000
20
336.300000
0
VERTEX
8
0
10
561.000000
20
337.000000
0
VERTEX
8
0
10
562.900000
20
335.800000
0
VERTEX
8
0
10
567.088235
20
334.352941
0
VERTEX
8
0
10
573.000000
20
333.000000
0
VERTEX
8
0
10
577.000000
20
336.000000
0
VERTEX
8
0
10
575.230769
20
339.153846
0
VERTEX
8
0
10
574.756098
20
339.804878
0
VERTEX
8
0
10
571.000000
20
344.000000
0
VERTEX
8
0
10
577.000000
20
350.000000
0
VERTEX
8
0
10
584.088235
20
350.647059
0
VERTEX
8
0
10
588.100000
20
351.800000
0
VERTEX
8
0
10
591.000000
20
353.000000
0
VERTEX
8
0
10
595.000000
20
357.000000
0
VERTEX
8
0
10
594.750000
20
359.750000
0
VERTEX
8
0
10
584.000000
20
361.000000
0
VERTEX
8
0
10
583.000000
20
362.000000
0
VERTEX
8
0
10
585.800000
20
373.100000
0
VERTEX
8
0
10
586.000000
20
374.000000
0
VERTEX
8
0
10
587.000000
20
375.000000
0
VERTEX
8
0
10
609.932432
20
378.405405
0
VERTEX
8
0
10
618.100000
20
380.800000
0
VERTEX
8
0
10
620.100000
20
381.800000
0
VERTEX
8
0
10
624.000000
20
383.000000
0
VERTEX
8
0
10
625.800000
20
379.900000
0
VERTEX
8
0
10
634.594595
20
353.932432
0
VERTEX
8
0
10
636.000000
20
348.000000
0
VERTEX
8
0
10
636.000000
20
338.000000
0
VERTEX
8
0
10
634.000000
20
331.000000
0
VERTEX
8
0
10
634.000000
20
327.000000
0
VERTEX
8
0
10
635.000000
20
324.000000
0
VERTEX
8
0
10
639.900000
20
320.800000
0
VERTEX
8
0
10
641.000000
20
320.000000
0
VERTEX
8
0
10
650.100000
20
321.800000
0
VERTEX
8
0
10
657.000000
20
326.000000
0
VERTEX
8
0
10
660.000000
20
329.000000
0
VERTEX
8
0
10
661.173410
20
332.127168
0
VERTEX
8
0
10
662.000000
20
343.000000
0
VERTEX
8
0
10
664.000000
20
345.000000
0
VERTEX
8
0
10
665.230769
20
343.153846
0
VERTEX
8
0
10
667.200000
20
340.100000
0
VERTEX
8
0
10
680.000000
20
318.000000
0
VERTEX
8
0
10
680.900000
20
317.800000
0
VERTEX
8
0
10
684.000000
20
316.000000
0
VERTEX
8
0
10
688.000000
20
316.000000
0
VERTEX
8
0
10
694.000000
20
322.000000
0
VERTEX
8
0
10
694.800000
20
324.100000
0
VERTEX
8
0
10
697.200000
20
328.900000
0
VERTEX
8
0
10
700.000000
20
339.000000
0
VERTEX
8
0
10
700.000000
20
343.000000
0
VERTEX
8
0
10
697.000000
20
348.000000
0
VERTEX
8
0
10
692.100000
20
351.200000
0
VERTEX
8
0
10
685.000000
20
356.000000
0
VERTEX
8
0
10
678.647059
20
372.911765
0
VERTEX
8
0
10
676.700000
20
378.900000
0
VERTEX
8
0
10
673.450820
20
391.040984
0
VERTEX
8
0
10
670.554455
20
427.955446
0
VERTEX
8
0
10
668.800000
20
433.900000
0
VERTEX
8
0
10
665.000000
20
440.000000
0
VERTEX
8
0
10
660.000000
20
442.000000
0
VERTEX
8
0
10
653.100000
20
438.800000
0
VERTEX
8
0
10
641.000000
20
433.000000
0
VERTEX
8
0
10
632.000000
20
433.000000
0
VERTEX
8
0
10
627.180000
20
435.240000
0
VERTEX
8
0
10
623.820000
20
437.760000
0
VERTEX
8
0
10
618.000000
20
443.000000
0
VERTEX
8
0
10
607.200000
20
457.100000
0
VERTEX
8
0
10
603.756098
20
463.804878
0
VERTEX
8
0
10
594.754098
20
474.795082
0
VERTEX
8
0
10
582.000000
20
491.000000
0
VERTEX
8
0
10
583.000000
20
492.000000
0
VERTEX
8
0
10
590.037931
20
492.544828
0
VERTEX
8
0
10
600.962069
20
493.455172
0
VERTEX
8
0
10
621.911765
20
496.352941
0
VERTEX
8
0
10
629.911765
20
498.352941
0
VERTEX
8
0
10
638.846154
20
503.230769
0
VERTEX
8
0
10
644.153846
20
506.769231
0
VERTEX
8
0
10
656.000000
20
516.000000
0
VERTEX
8
0
10
663.000000
20
523.000000
0
VERTEX
8
0
10
671.800000
20
539.100000
0
VERTEX
8
0
10
672.200000
20
539.900000
0
VERTEX
8
0
10
678.594595
20
563.067568
0
VERTEX
8
0
10
679.405405
20
567.932432
0
VERTEX
8
0
10
680.000000
20
569.000000
0
VERTEX
8
0
10
680.000000
20
585.000000
0
VERTEX
8
0
10
678.569231
20
592.946154
0
VERTEX
8
0
10
677.352941
20
599.088235
0
VERTEX
8
0
10
667.200000
20
632.100000
0
VERTEX
8
0
10
665.230769
20
635.153846
0
VERTEX
8
0
10
652.000000
20
650.000000
0
VERTEX
8
0
10
647.820000
20
652.760000
0
VERTEX
8
0
10
639.900000
20
656.700000
0
VERTEX
8
0
10
636.100000
20
658.200000
0
VERTEX
8
0
10
623.000000
20
666.000000
0
VERTEX
8
0
10
621.700000
20
669.900000
0
VERTEX
8
0
10
618.000000
20
680.000000
0
VERTEX
8
0
10
612.000000
20
674.000000
0
VERTEX
8
0
10
608.647059
20
685.911765
0
VERTEX
8
0
10
607.000000
20
689.000000
0
VERTEX
8
0
10
606.000000
20
688.000000
0
VERTEX
8
0
10
603.352941
20
680.911765
0
VERTEX
8
0
10
602.647059
20
678.088235
0
VERTEX
8
0
10
602.000000
20
677.000000
0
VERTEX
8
0
10
602.000000
20
663.000000
0
VERTEX
8
0
10
603.384615
20
658.076923
0
VERTEX
8
0
10
603.647059
20
656.911765
0
VERTEX
8
0
10
606.800000
20
648.900000
0
VERTEX
8
0
10
608.000000
20
646.000000
0
VERTEX
8
0
10
616.000000
20
638.000000
0
VERTEX
8
0
10
633.088235
20
631.352941
0
VERTEX
8
0
10
658.000000
20
625.000000
0
VERTEX
8
0
10
661.000000
20
622.000000
0
VERTEX
8
0
10
667.800000
20
609.900000
0
VERTEX
8
0
10
669.352941
20
605.088235
0
VERTEX
8
0
10
673.000000
20
587.000000
0
VERTEX
8
0
10
673.000000
20
575.000000
0
VERTEX
8
0
10
671.554455
20
565.044554
0
VERTEX
8
0
10
665.700000
20
542.100000
0
VERTEX
8
0
10
664.200000
20
538.900000
0
VERTEX
8
0
10
659.752941
20
531.211765
0
VERTEX
8
0
10
649.000000
20
519.000000
0
VERTEX
8
0
10
634.100000
20
509.800000
0
VERTEX
8
0
10
630.100000
20
507.800000
0
VERTEX
8
0
10
619.940000
20
504.420000
0
VERTEX
8
0
10
614.060000
20
503.580000
0
VERTEX
8
0
10
531.000000
20
504.000000
0
VERTEX
8
0
10
520.100000
20
499.800000
0
VERTEX
8
0
10
518.900000
20
499.200000
0
VERTEX
8
0
10
502.195122
20
488.756098
0
VERTEX
8
0
10
497.804878
20
485.243902
0
VERTEX
8
0
10
483.000000
20
472.000000
0
VERTEX
8
0
10
482.752212
20
471.216814
0
VERTEX
8
0
10
463.000000
20
449.000000
0
VERTEX
8
0
10
458.820000
20
446.240000
0
VERTEX
8
0
10
441.900000
20
437.200000
0
VERTEX
8
0
10
433.900000
20
433.200000
0
VERTEX
8
0
10
405.900000
20
421.300000
0
VERTEX
8
0
10
396.100000
20
417.700000
0
VERTEX
8
0
10
377.153846
20
407.769231
0
VERTEX
8
0
10
364.000000
20
398.000000
0
VERTEX
8
0
10
348.754098
20
381.204918
0
VERTEX
8
0
10
344.000000
20
375.000000
0
VERTEX
8
0
10
339.100000
20
371.800000
0
VERTEX
8
0
10
338.000000
20
371.000000
0
VERTEX
8
0
10
320.932432
20
373.594595
0
VERTEX
8
0
10
297.000000
20
377.000000
0
VERTEX
8
0
10
291.100000
20
374.800000
0
VERTEX
8
0
10
280.000000
20
370.000000
0
VERTEX
8
0
10
277.900000
20
370.800000
0
VERTEX
8
0
10
277.000000
20
371.000000
0
VERTEX
8
0
10
273.405405
20
378.067568
0
VERTEX
8
0
10
272.594595
20
382.932432
0
VERTEX
8
0
10
272.000000
20
384.000000
0
VERTEX
8
0
10
272.000000
20
394.000000
0
VERTEX
8
0
10
274.200000
20
401.900000
0
VERTEX
8
0
10
274.800000
20
403.100000
0
VERTEX
8
0
10
278.000000
20
412.000000
0
VERTEX
8
0
10
276.000000
20
415.000000
0
VERTEX
8
0
10
272.900000
20
414.200000
0
VERTEX
8
0
10
263.000000
20
405.000000
0
VERTEX
8
0
10
260.230769
20
399.846154
0
VERTEX
8
0
10
259.800000
20
399.100000
0
VERTEX
8
0
10
256.000000
20
389.000000
0
VERTEX
8
0
10
256.000000
20
377.000000
0
VERTEX
8
0
10
257.300000
20
374.100000
0
VERTEX
8
0
10
257.800000
20
372.900000
0
VERTEX
8
0
10
263.245902
20
364.204918
0
VERTEX
8
0
10
268.000000
20
359.000000
0
VERTEX
8
0
10
266.000000
20
358.000000
0
VERTEX
8
0
10
260.226244
20
363.248869
0
VERTEX
8
0
10
248.000000
20
374.000000
0
VERTEX
8
0
10
245.000000
20
374.000000
0
VERTEX
8
0
10
242.800000
20
371.100000
0
VERTEX
8
0
10
241.000000
20
363.000000
0
VERTEX
8
0
10
241.000000
20
355.000000
0
VERTEX
8
0
10
241.615385
20
353.923077
0
VERTEX
8
0
10
244.230769
20
345.153846
0
VERTEX
8
0
10
246.000000
20
342.000000
0
VERTEX
8
0
10
250.820000
20
337.760000
0
VERTEX
8
0
10
259.088235
20
332.352941
0
VERTEX
8
0
10
261.911765
20
331.647059
0
VERTEX
8
0
10
274.000000
20
328.000000
0
VERTEX
8
0
10
274.000000
20
318.000000
0
VERTEX
8
0
10
270.647059
20
279.088235
0
VERTEX
8
0
10
269.000000
20
274.000000
0
VERTEX
8
0
10
269.000000
20
267.000000
0
VERTEX
8
0
10
272.000000
20
264.000000
0
VERTEX
8
0
10
273.900000
20
263.700000
0
VERTEX
8
0
10
290.900000
20
255.800000
0
VERTEX
8
0
10
292.000000
20
255.000000
0
VERTEX
8
0
10
301.000000
20
255.000000
0
VERTEX
8
0
10
303.900000
20
256.300000
0
VERTEX
8
0
10
328.000000
20
268.000000
0
SEQEND
0
POLYLINE
8
0
6
CONTINUOUS
66
1
62
7
10
0.0
20
0.0
30
0.000000
0
VERTEX
8
0
10
441.000000
20
41.000000
0
VERTEX
8
0
10
476.962069
20
44.455172
0
VERTEX
8
0
10
516.923077
20
51.384615
0
VERTEX
8
0
10
531.923077
20
54.384615
0
VERTEX
8
0
10
540.900000
20
57.200000
0
VERTEX
8
0
10
577.900000
20
70.300000
0
VERTEX
8
0
10
598.900000
20
80.200000
0
VERTEX
8
0
10
624.100000
20
93.800000
0
VERTEX
8
0
10
635.820000
20
100.240000
0
VERTEX
8
0
10
639.180000
20
102.760000
0
VERTEX
8
0
10
678.000000
20
131.000000
0
VERTEX
8
0
10
719.000000
20
172.000000
0
VERTEX
8
0
10
727.760000
20
184.180000
0
VERTEX
8
0
10
749.760000
20
214.180000
0
VERTEX
8
0
10
766.800000
20
246.100000
0
VERTEX
8
0
10
775.200000
20
261.900000
0
VERTEX
8
0
10
781.700000
20
278.100000
0
VERTEX
8
0
10
794.300000
20
312.900000
0
VERTEX
8
0
10
800.405405
20
342.932432
0
VERTEX
8
0
10
803.384615
20
357.923077
0
VERTEX
8
0
10
809.000000
20
409.000000
0
VERTEX
8
0
10
809.000000
20
422.000000
0
VERTEX
8
0
10
805.554455
20
463.955446
0
VERTEX
8
0
10
796.615385
20
506.923077
0
VERTEX
8
0
10
792.700000
20
519.900000
0
VERTEX
8
0
10
777.200000
20
563.100000
0
VERTEX
8
0
10
773.300000
20
571.100000
0
VERTEX
8
0
10
756.769231
20
605.846154
0
VERTEX
8
0
10
731.240000
20
642.180000
0
VERTEX
8
0
10
723.751381
20
651.776243
0
VERTEX
8
0
10
697.000000
20
682.000000
0
VERTEX
8
0
10
669.195122
20
705.243902
0
VERTEX
8
0
10
654.804878
20
716.756098
0
VERTEX
8
0
10
624.846154
20
735.769231
0
VERTEX
8
0
10
611.100000
20
744.200000
0
VERTEX
8
0
10
577.100000
20
759.300000
0
VERTEX
8
0
10
566.100000
20
764.200000
0
VERTEX
8
0
10
524.100000
20
777.300000
0
VERTEX
8
0
10
517.088235
20
779.352941
0
VERTEX
8
0
10
479.060000
20
785.420000
0
VERTEX
8
0
10
470.000000
20
787.000000
0
VERTEX
8
0
10
465.800000
20
801.900000
0
VERTEX
8
0
10
465.200000
20
803.100000
0
VERTEX
8
0
10
461.000000
20
811.000000
0
VERTEX
8
0
10
457.000000
20
815.000000
0
VERTEX
8
0
10
451.900000
20
817.800000
0
VERTEX
8
0
10
443.088235
20
821.352941
0
VERTEX
8
0
10
441.923077
20
821.615385
0
VERTEX
8
0
10
433.000000
20
823.000000
0
VERTEX
8
0
10
420.900000
20
819.200000
0
VERTEX
8
0
10
413.000000
20
815.000000
0
VERTEX
8
0
10
409.000000
20
811.000000
0
VERTEX
8
0
10
404.200000
20
801.900000
0
VERTEX
8
0
10
400.000000
20
787.000000
0
VERTEX
8
0
10
385.060000
20
784.580000
0
VERTEX
8
0
10
350.088235
20
778.647059
0
VERTEX
8
0
10
342.911765
20
776.352941
0
VERTEX
8
0
10
305.100000
20
764.800000
0
VERTEX
8
0
10
291.100000
20
758.700000
0
VERTEX
8
0
10
258.153846
20
743.769231
0
VERTEX
8
0
10
242.846154
20
734.230769
0
VERTEX
8
0
10
215.195122
20
716.756098
0
VERTEX
8
0
10
200.204918
20
704.754098
0
VERTEX
8
0
10
173.000000
20
682.000000
0
VERTEX
8
0
10
146.248619
20
651.776243
0
VERTEX
8
0
10
136.240000
20
638.820000
0
VERTEX
8
0
10
113.230769
20
605.846154
0
VERTEX
8
0
10
96.200000
20
569.900000
0
VERTEX
8
0
10
92.200000
20
561.900000
0
VERTEX
8
0
10
76.300000
20
516.900000
0
VERTEX
8
0
10
72.615385
20
503.076923
0
VERTEX
8
0
10
64.445545
20
463.955446
0
VERTEX
8
0
10
63.554455
20
455.044554
0
VERTEX
8
0
10
61.000000
20
409.000000
0
VERTEX
8
0
10
66.615385
20
357.923077
0
VERTEX
8
0
10
70.405405
20
338.067568
0
VERTEX
8
0
10
76.300000
20
311.100000
0
VERTEX
8
0
10
88.300000
20
278.100000
0
VERTEX
8
0
10
95.200000
20
261.100000
0
VERTEX
8
0
10
104.800000
20
242.900000
0
VERTEX
8
0
10
120.240000
20
214.180000
0
VERTEX
8
0
10
144.760000
20
180.820000
0
VERTEX
8
0
10
151.000000
20
172.000000
0
VERTEX
8
0
10
192.000000
20
131.000000
0
VERTEX
8
0
10
234.180000
20
100.240000
0
VERTEX
8
0
10
247.100000
20
93.200000
0
VERTEX
8
0
10
271.900000
20
79.800000
0
VERTEX
8
0
10
292.100000
20
70.300000
0
VERTEX
8
0
10
329.900000
20
56.800000
0
VERTEX
8
0
10
341.923077
20
53.615385
0
VERTEX
8
0
10
356.923077
20
50.615385
0
VERTEX
8
0
10
393.037931
20
44.455172
0
VERTEX
8
0
10
441.000000
20
41.000000
0
SEQEND
0
ENDSEC
0
EOF
