0
SECTION
2
HEADER
9
$ACADVER
1
AC1003
9
$INSBASE
10
0.0
20
0.0
30
0.0
9
$EXTMIN
10
0.000
20
0.000
30
0.0
9
$EXTMAX
10
766.000
20
612.000
30
0.0
9
$LIMMIN
10
0.000
20
0.000
9
$LIMMAX
10
766.000
20
612.000
9
$LTSCALE
40
1.0
9
$LUNITS
70
2
9
$LUPREC
70
3
9
$LIMCHECK
70
0
9
$UCSNAME
2

9
$UCSORG
10
0.0
20
0.0
30
0.0
9
$UCSXDIR
10
1.0
20
0.0
30
0.0
9
$UCSYDIR
10
0.0
20
1.0
30
0.0
9
$WORLDVIEW
70
1
9
$UNITMODE
70
0
0
ENDSEC
0
SECTION
2
TABLES
0
TABLE
2
VPORT
70
1
0
VPORT
2
*ACTIVE
70
0
10
0.0
20
0.0
11
1.0
21
1.0
12
383.000
22
306.000
13
0.0
23
0.0
14
1.0
24
1.0
15
0.0
25
0.0
16
0.0
26
0.0
36
1.0
17
0.0
27
0.0
37
0.0
40
500.0
41
0.799
42
50.0
43
0.0
44
0.0
50
0.0
51
0.0
71
0
72
100
73
1
74
1
75
0
76
0
77
0
78
0
0
ENDTAB
0
TABLE
2
LTYPE
70
1
0
LTYPE
2
CONTINUOUS
70
64
3
Solid line
72
65
73
0
40
0.000
0
ENDTAB
0
TABLE
2
LAYER
70
1
0
LAYER
2
0
70
64
62
7
6
CONTINUOUS
0
ENDTAB
0
ENDSEC
0
SECTION
2
BLOCKS
0
ENDSEC
0
SECTION
2
ENTITIES
0
POLYLINE
8
0
6
CONTINUOUS
66
1
62
7
10
0.0
20
0.0
30
0.000000
0
VERTEX
8
0
10
373.000000
20
549.000000
0
VERTEX
8
0
10
376.911765
20
550.352941
0
VERTEX
8
0
10
382.000000
20
553.000000
0
VERTEX
8
0
10
383.600000
20
556.200000
0
VERTEX
8
0
10
385.000000
20
561.000000
0
VERTEX
8
0
10
382.000000
20
567.000000
0
VERTEX
8
0
10
379.100000
20
569.200000
0
VERTEX
8
0
10
374.000000
20
571.000000
0
VERTEX
8
0
10
367.911765
20
570.352941
0
VERTEX
8
0
10
363.000000
20
569.000000
0
VERTEX
8
0
10
360.000000
20
566.000000
0
VERTEX
8
0
10
359.200000
20
563.900000
0
VERTEX
8
0
10
358.800000
20
563.100000
0
VERTEX
8
0
10
358.000000
20
562.000000
0
VERTEX
8
0
10
358.000000
20
558.000000
0
VERTEX
8
0
10
360.000000
20
554.000000
0
VERTEX
8
0
10
362.000000
20
552.000000
0
VERTEX
8
0
10
369.076923
20
549.384615
0
VERTEX
8
0
10
373.000000
20
549.000000
0
SEQEND
0
POLYLINE
8
0
6
CONTINUOUS
66
1
62
7
10
0.0
20
0.0
30
0.000000
0
VERTEX
8
0
10
492.000000
20
468.000000
0
VERTEX
8
0
10
493.000000
20
469.000000
0
VERTEX
8
0
10
493.000000
20
480.000000
0
VERTEX
8
0
10
489.615385
20
495.923077
0
VERTEX
8
0
10
488.647059
20
499.911765
0
VERTEX
8
0
10
479.800000
20
517.900000
0
VERTEX
8
0
10
475.000000
20
528.000000
0
VERTEX
8
0
10
468.900000
20
530.700000
0
VERTEX
8
0
10
460.100000
20
533.300000
0
VERTEX
8
0
10
440.053846
20
536.430769
0
VERTEX
8
0
10
409.970817
20
538.533074
0
VERTEX
8
0
10
367.000000
20
541.000000
0
VERTEX
8
0
10
365.932432
20
540.405405
0
VERTEX
8
0
10
306.000000
20
533.000000
0
VERTEX
8
0
10
304.000000
20
531.000000
0
VERTEX
8
0
10
314.846154
20
523.769231
0
VERTEX
8
0
10
320.153846
20
520.230769
0
VERTEX
8
0
10
366.900000
20
488.800000
0
VERTEX
8
0
10
371.900000
20
486.800000
0
VERTEX
8
0
10
376.000000
20
485.000000
0
VERTEX
8
0
10
420.000000
20
486.000000
0
VERTEX
8
0
10
442.932432
20
481.594595
0
VERTEX
8
0
10
447.923077
20
480.615385
0
VERTEX
8
0
10
473.900000
20
473.700000
0
VERTEX
8
0
10
489.088235
20
468.352941
0
VERTEX
8
0
10
492.000000
20
468.000000
0
SEQEND
0
POLYLINE
8
0
6
CONTINUOUS
66
1
62
7
10
0.0
20
0.0
30
0.000000
0
VERTEX
8
0
10
199.000000
20
454.000000
0
VERTEX
8
0
10
200.000000
20
455.000000
0
SEQEND
0
POLYLINE
8
0
6
CONTINUOUS
66
1
62
7
10
0.0
20
0.0
30
0.000000
0
VERTEX
8
0
10
202.000000
20
453.000000
0
VERTEX
8
0
10
199.000000
20
454.000000
0
SEQEND
0
POLYLINE
8
0
6
CONTINUOUS
66
1
62
7
10
0.0
20
0.0
30
0.000000
0
VERTEX
8
0
10
202.000000
20
453.000000
0
VERTEX
8
0
10
202.000000
20
454.000000
0
VERTEX
8
0
10
200.000000
20
455.000000
0
SEQEND
0
POLYLINE
8
0
6
CONTINUOUS
66
1
62
7
10
0.0
20
0.0
30
0.000000
0
VERTEX
8
0
10
203.000000
20
453.000000
0
VERTEX
8
0
10
202.000000
20
453.000000
0
SEQEND
0
POLYLINE
8
0
6
CONTINUOUS
66
1
62
7
10
0.0
20
0.0
30
0.000000
0
VERTEX
8
0
10
205.000000
20
452.000000
0
VERTEX
8
0
10
203.000000
20
453.000000
0
SEQEND
0
POLYLINE
8
0
6
CONTINUOUS
66
1
62
7
10
0.0
20
0.0
30
0.000000
0
VERTEX
8
0
10
205.000000
20
452.000000
0
VERTEX
8
0
10
205.000000
20
453.000000
0
VERTEX
8
0
10
204.000000
20
454.000000
0
VERTEX
8
0
10
203.000000
20
453.000000
0
SEQEND
0
POLYLINE
8
0
6
CONTINUOUS
66
1
62
7
10
0.0
20
0.0
30
0.000000
0
VERTEX
8
0
10
215.000000
20
450.000000
0
VERTEX
8
0
10
205.000000
20
452.000000
0
SEQEND
0
POLYLINE
8
0
6
CONTINUOUS
66
1
62
7
10
0.0
20
0.0
30
0.000000
0
VERTEX
8
0
10
221.000000
20
446.000000
0
VERTEX
8
0
10
217.000000
20
448.000000
0
SEQEND
0
POLYLINE
8
0
6
CONTINUOUS
66
1
62
7
10
0.0
20
0.0
30
0.000000
0
VERTEX
8
0
10
225.000000
20
446.000000
0
VERTEX
8
0
10
224.000000
20
447.000000
0
VERTEX
8
0
10
222.000000
20
447.000000
0
VERTEX
8
0
10
221.000000
20
446.000000
0
SEQEND
0
POLYLINE
8
0
6
CONTINUOUS
66
1
62
7
10
0.0
20
0.0
30
0.000000
0
VERTEX
8
0
10
225.000000
20
445.000000
0
VERTEX
8
0
10
221.000000
20
446.000000
0
SEQEND
0
POLYLINE
8
0
6
CONTINUOUS
66
1
62
7
10
0.0
20
0.0
30
0.000000
0
VERTEX
8
0
10
225.000000
20
445.000000
0
VERTEX
8
0
10
225.000000
20
446.000000
0
SEQEND
0
POLYLINE
8
0
6
CONTINUOUS
66
1
62
7
10
0.0
20
0.0
30
0.000000
0
VERTEX
8
0
10
225.000000
20
446.000000
0
VERTEX
8
0
10
231.940000
20
445.580000
0
VERTEX
8
0
10
243.000000
20
444.000000
0
VERTEX
8
0
10
257.000000
20
444.000000
0
VERTEX
8
0
10
268.962069
20
445.455172
0
VERTEX
8
0
10
283.900000
20
450.300000
0
VERTEX
8
0
10
285.100000
20
450.800000
0
VERTEX
8
0
10
290.769968
20
454.249201
0
VERTEX
8
0
10
303.230032
20
465.750799
0
VERTEX
8
0
10
311.100000
20
469.800000
0
VERTEX
8
0
10
321.900000
20
474.300000
0
VERTEX
8
0
10
334.932432
20
477.405405
0
VERTEX
8
0
10
357.100000
20
481.700000
0
VERTEX
8
0
10
362.000000
20
484.000000
0
VERTEX
8
0
10
362.000000
20
485.000000
0
VERTEX
8
0
10
353.000000
20
494.000000
0
VERTEX
8
0
10
339.846154
20
502.769231
0
VERTEX
8
0
10
336.846154
20
504.769231
0
VERTEX
8
0
10
300.900000
20
524.800000
0
VERTEX
8
0
10
298.100000
20
526.200000
0
VERTEX
8
0
10
293.000000
20
529.000000
0
VERTEX
8
0
10
281.000000
20
529.000000
0
VERTEX
8
0
10
275.067568
20
527.594595
0
VERTEX
8
0
10
273.911765
20
527.352941
0
VERTEX
8
0
10
239.100000
20
517.700000
0
VERTEX
8
0
10
236.100000
20
516.700000
0
VERTEX
8
0
10
189.100000
20
497.700000
0
VERTEX
8
0
10
187.100000
20
496.800000
0
VERTEX
8
0
10
153.000000
20
480.000000
0
VERTEX
8
0
10
154.000000
20
479.000000
0
VERTEX
8
0
10
200.000000
20
455.000000
0
SEQEND
0
POLYLINE
8
0
6
CONTINUOUS
66
1
62
7
10
0.0
20
0.0
30
0.000000
0
VERTEX
8
0
10
415.000000
20
444.000000
0
VERTEX
8
0
10
420.932432
20
445.405405
0
VERTEX
8
0
10
454.000000
20
447.000000
0
VERTEX
8
0
10
455.000000
20
448.000000
0
VERTEX
8
0
10
430.153846
20
466.230769
0
VERTEX
8
0
10
422.911765
20
470.647059
0
VERTEX
8
0
10
420.088235
20
471.352941
0
VERTEX
8
0
10
390.037931
20
474.455172
0
VERTEX
8
0
10
377.250000
20
475.750000
0
VERTEX
8
0
10
377.517241
20
472.206897
0
VERTEX
8
0
10
382.000000
20
465.000000
0
VERTEX
8
0
10
396.804878
20
452.756098
0
VERTEX
8
0
10
401.195122
20
449.243902
0
VERTEX
8
0
10
409.900000
20
444.700000
0
VERTEX
8
0
10
415.000000
20
444.000000
0
SEQEND
0
POLYLINE
8
0
6
CONTINUOUS
66
1
62
7
10
0.0
20
0.0
30
0.000000
0
VERTEX
8
0
10
323.000000
20
438.000000
0
VERTEX
8
0
10
322.000000
20
438.000000
0
SEQEND
0
POLYLINE
8
0
6
CONTINUOUS
66
1
62
7
10
0.0
20
0.0
30
0.000000
0
VERTEX
8
0
10
343.000000
20
438.000000
0
VERTEX
8
0
10
383.964706
20
441.458824
0
VERTEX
8
0
10
390.000000
20
444.000000
0
VERTEX
8
0
10
391.000000
20
445.000000
0
VERTEX
8
0
10
384.760000
20
452.820000
0
VERTEX
8
0
10
382.240000
20
456.180000
0
VERTEX
8
0
10
377.000000
20
462.000000
0
VERTEX
8
0
10
359.100000
20
476.200000
0
VERTEX
8
0
10
358.000000
20
477.000000
0
VERTEX
8
0
10
354.000000
20
477.000000
0
VERTEX
8
0
10
341.088235
20
473.647059
0
VERTEX
8
0
10
324.100000
20
467.700000
0
VERTEX
8
0
10
322.900000
20
467.200000
0
VERTEX
8
0
10
308.000000
20
460.000000
0
VERTEX
8
0
10
308.000000
20
459.000000
0
VERTEX
8
0
10
316.000000
20
451.000000
0
VERTEX
8
0
10
325.195122
20
444.243902
0
VERTEX
8
0
10
332.100000
20
440.300000
0
VERTEX
8
0
10
333.900000
20
439.700000
0
VERTEX
8
0
10
337.060000
20
438.420000
0
VERTEX
8
0
10
343.000000
20
438.000000
0
SEQEND
0
POLYLINE
8
0
6
CONTINUOUS
66
1
62
7
10
0.0
20
0.0
30
0.000000
0
VERTEX
8
0
10
489.000000
20
437.000000
0
VERTEX
8
0
10
490.100000
20
437.700000
0
VERTEX
8
0
10
503.000000
20
442.000000
0
VERTEX
8
0
10
506.000000
20
445.000000
0
VERTEX
8
0
10
502.000000
20
452.000000
0
VERTEX
8
0
10
494.000000
20
460.000000
0
VERTEX
8
0
10
483.900000
20
464.800000
0
VERTEX
8
0
10
483.100000
20
465.200000
0
VERTEX
8
0
10
464.076923
20
471.384615
0
VERTEX
8
0
10
452.067568
20
473.405405
0
VERTEX
8
0
10
451.000000
20
474.000000
0
VERTEX
8
0
10
435.000000
20
474.000000
0
VERTEX
8
0
10
434.000000
20
473.000000
0
VERTEX
8
0
10
435.000000
20
471.000000
0
VERTEX
8
0
10
467.820000
20
442.760000
0
VERTEX
8
0
10
471.300000
20
440.600000
0
VERTEX
8
0
10
486.088235
20
437.352941
0
VERTEX
8
0
10
489.000000
20
437.000000
0
SEQEND
0
POLYLINE
8
0
6
CONTINUOUS
66
1
62
7
10
0.0
20
0.0
30
0.000000
0
VERTEX
8
0
10
322.000000
20
438.000000
0
VERTEX
8
0
10
318.820000
20
440.760000
0
VERTEX
8
0
10
303.000000
20
450.000000
0
VERTEX
8
0
10
297.000000
20
450.000000
0
VERTEX
8
0
10
287.100000
20
444.800000
0
VERTEX
8
0
10
282.846154
20
442.230769
0
VERTEX
8
0
10
266.000000
20
430.000000
0
VERTEX
8
0
10
264.000000
20
425.000000
0
VERTEX
8
0
10
270.900000
20
420.800000
0
VERTEX
8
0
10
279.000000
20
418.000000
0
VERTEX
8
0
10
285.100000
20
420.800000
0
VERTEX
8
0
10
290.153846
20
423.769231
0
VERTEX
8
0
10
302.900000
20
430.300000
0
VERTEX
8
0
10
322.000000
20
438.000000
0
SEQEND
0
POLYLINE
8
0
6
CONTINUOUS
66
1
62
7
10
0.0
20
0.0
30
0.000000
0
VERTEX
8
0
10
371.000000
20
418.000000
0
VERTEX
8
0
10
380.911765
20
421.352941
0
VERTEX
8
0
10
408.076923
20
427.615385
0
VERTEX
8
0
10
412.000000
20
428.000000
0
VERTEX
8
0
10
414.000000
20
430.000000
0
VERTEX
8
0
10
411.100000
20
432.200000
0
VERTEX
8
0
10
409.100000
20
433.200000
0
VERTEX
8
0
10
399.000000
20
438.000000
0
VERTEX
8
0
10
370.962069
20
437.455172
0
VERTEX
8
0
10
354.000000
20
436.000000
0
VERTEX
8
0
10
350.000000
20
432.000000
0
VERTEX
8
0
10
350.000000
20
430.000000
0
VERTEX
8
0
10
351.000000
20
429.000000
0
VERTEX
8
0
10
364.100000
20
421.200000
0
VERTEX
8
0
10
371.000000
20
418.000000
0
SEQEND
0
POLYLINE
8
0
6
CONTINUOUS
66
1
62
7
10
0.0
20
0.0
30
0.000000
0
VERTEX
8
0
10
445.000000
20
417.000000
0
VERTEX
8
0
10
441.000000
20
419.000000
0
SEQEND
0
POLYLINE
8
0
6
CONTINUOUS
66
1
62
7
10
0.0
20
0.0
30
0.000000
0
VERTEX
8
0
10
510.000000
20
415.000000
0
VERTEX
8
0
10
511.053846
20
415.569231
0
VERTEX
8
0
10
520.000000
20
417.000000
0
VERTEX
8
0
10
521.000000
20
418.000000
0
VERTEX
8
0
10
521.000000
20
420.000000
0
VERTEX
8
0
10
512.769231
20
432.846154
0
VERTEX
8
0
10
509.000000
20
439.000000
0
VERTEX
8
0
10
486.900000
20
433.300000
0
VERTEX
8
0
10
483.900000
20
432.300000
0
VERTEX
8
0
10
482.000000
20
432.000000
0
VERTEX
8
0
10
480.000000
20
430.000000
0
VERTEX
8
0
10
481.230769
20
428.153846
0
VERTEX
8
0
10
487.000000
20
419.000000
0
VERTEX
8
0
10
490.206897
20
417.517241
0
VERTEX
8
0
10
501.044554
20
415.445545
0
VERTEX
8
0
10
510.000000
20
415.000000
0
SEQEND
0
POLYLINE
8
0
6
CONTINUOUS
66
1
62
7
10
0.0
20
0.0
30
0.000000
0
VERTEX
8
0
10
552.000000
20
408.000000
0
VERTEX
8
0
10
552.470817
20
408.533074
0
VERTEX
8
0
10
537.249541
20
425.234862
0
VERTEX
8
0
10
523.000000
20
440.000000
0
VERTEX
8
0
10
518.000000
20
440.000000
0
VERTEX
8
0
10
517.000000
20
439.000000
0
VERTEX
8
0
10
518.700000
20
433.900000
0
VERTEX
8
0
10
521.800000
20
426.900000
0
VERTEX
8
0
10
525.000000
20
420.000000
0
VERTEX
8
0
10
530.000000
20
415.000000
0
VERTEX
8
0
10
550.100000
20
408.300000
0
VERTEX
8
0
10
552.000000
20
408.000000
0
SEQEND
0
POLYLINE
8
0
6
CONTINUOUS
66
1
62
7
10
0.0
20
0.0
30
0.000000
0
VERTEX
8
0
10
219.000000
20
407.000000
0
VERTEX
8
0
10
218.000000
20
407.000000
0
SEQEND
0
POLYLINE
8
0
6
CONTINUOUS
66
1
62
7
10
0.0
20
0.0
30
0.000000
0
VERTEX
8
0
10
199.000000
20
454.000000
0
VERTEX
8
0
10
194.900000
20
454.800000
0
VERTEX
8
0
10
159.100000
20
471.200000
0
VERTEX
8
0
10
157.100000
20
472.200000
0
VERTEX
8
0
10
153.000000
20
474.000000
0
VERTEX
8
0
10
147.000000
20
474.000000
0
VERTEX
8
0
10
143.088235
20
472.647059
0
VERTEX
8
0
10
135.153846
20
467.769231
0
VERTEX
8
0
10
132.180000
20
465.760000
0
VERTEX
8
0
10
97.000000
20
438.000000
0
VERTEX
8
0
10
96.754098
20
437.204918
0
VERTEX
8
0
10
72.000000
20
408.000000
0
VERTEX
8
0
10
74.000000
20
406.000000
0
VERTEX
8
0
10
89.040984
20
403.450820
0
VERTEX
8
0
10
98.959016
20
402.549180
0
VERTEX
8
0
10
149.000000
20
400.000000
0
VERTEX
8
0
10
173.048780
20
403.560976
0
VERTEX
8
0
10
180.951220
20
404.439024
0
VERTEX
8
0
10
193.900000
20
407.300000
0
VERTEX
8
0
10
195.100000
20
407.700000
0
VERTEX
8
0
10
243.000000
20
423.000000
0
VERTEX
8
0
10
249.000000
20
429.000000
0
VERTEX
8
0
10
252.000000
20
436.000000
0
VERTEX
8
0
10
250.000000
20
438.000000
0
VERTEX
8
0
10
238.911765
20
440.647059
0
VERTEX
8
0
10
226.100000
20
444.300000
0
VERTEX
8
0
10
225.000000
20
445.000000
0
SEQEND
0
POLYLINE
8
0
6
CONTINUOUS
66
1
62
7
10
0.0
20
0.0
30
0.000000
0
VERTEX
8
0
10
349.000000
20
396.000000
0
VERTEX
8
0
10
356.000000
20
400.000000
0
VERTEX
8
0
10
359.230769
20
403.846154
0
VERTEX
8
0
10
363.000000
20
410.000000
0
VERTEX
8
0
10
363.000000
20
413.000000
0
VERTEX
8
0
10
343.100000
20
426.200000
0
VERTEX
8
0
10
341.100000
20
427.200000
0
VERTEX
8
0
10
330.923077
20
431.615385
0
VERTEX
8
0
10
327.076923
20
432.384615
0
VERTEX
8
0
10
321.000000
20
433.000000
0
VERTEX
8
0
10
295.100000
20
422.700000
0
VERTEX
8
0
10
291.900000
20
421.200000
0
VERTEX
8
0
10
288.000000
20
418.000000
0
VERTEX
8
0
10
288.000000
20
414.000000
0
VERTEX
8
0
10
289.000000
20
413.000000
0
VERTEX
8
0
10
327.100000
20
399.200000
0
VERTEX
8
0
10
327.900000
20
398.800000
0
VERTEX
8
0
10
335.030973
20
396.464602
0
VERTEX
8
0
10
349.000000
20
396.000000
0
SEQEND
0
POLYLINE
8
0
6
CONTINUOUS
66
1
62
7
10
0.0
20
0.0
30
0.000000
0
VERTEX
8
0
10
161.000000
20
393.000000
0
VERTEX
8
0
10
160.000000
20
393.000000
0
SEQEND
0
POLYLINE
8
0
6
CONTINUOUS
66
1
62
7
10
0.0
20
0.0
30
0.000000
0
VERTEX
8
0
10
219.000000
20
407.000000
0
VERTEX
8
0
10
228.100000
20
403.200000
0
VERTEX
8
0
10
259.000000
20
393.000000
0
VERTEX
8
0
10
267.000000
20
401.000000
0
VERTEX
8
0
10
270.800000
20
408.100000
0
VERTEX
8
0
10
273.000000
20
414.000000
0
VERTEX
8
0
10
262.000000
20
420.000000
0
VERTEX
8
0
10
245.923077
20
413.384615
0
VERTEX
8
0
10
221.200000
20
408.400000
0
VERTEX
8
0
10
219.000000
20
407.000000
0
SEQEND
0
POLYLINE
8
0
6
CONTINUOUS
66
1
62
7
10
0.0
20
0.0
30
0.000000
0
VERTEX
8
0
10
578.000000
20
388.000000
0
VERTEX
8
0
10
580.760000
20
391.180000
0
VERTEX
8
0
10
586.800000
20
404.100000
0
VERTEX
8
0
10
587.200000
20
404.900000
0
VERTEX
8
0
10
595.647059
20
429.088235
0
VERTEX
8
0
10
597.300000
20
434.900000
0
VERTEX
8
0
10
600.554455
20
457.044554
0
VERTEX
8
0
10
603.000000
20
479.000000
0
VERTEX
8
0
10
603.000000
20
485.000000
0
VERTEX
8
0
10
600.000000
20
488.000000
0
VERTEX
8
0
10
551.900000
20
509.800000
0
VERTEX
8
0
10
523.911765
20
518.647059
0
VERTEX
8
0
10
521.088235
20
519.352941
0
VERTEX
8
0
10
488.923077
20
527.615385
0
VERTEX
8
0
10
484.250000
20
527.750000
0
VERTEX
8
0
10
485.300000
20
523.100000
0
VERTEX
8
0
10
494.800000
20
497.900000
0
VERTEX
8
0
10
497.615385
20
485.923077
0
VERTEX
8
0
10
500.700000
20
468.900000
0
VERTEX
8
0
10
504.000000
20
463.000000
0
VERTEX
8
0
10
524.195122
20
446.243902
0
VERTEX
8
0
10
551.000000
20
424.000000
0
VERTEX
8
0
10
567.000000
20
408.000000
0
VERTEX
8
0
10
578.000000
20
388.000000
0
SEQEND
0
POLYLINE
8
0
6
CONTINUOUS
66
1
62
7
10
0.0
20
0.0
30
0.000000
0
VERTEX
8
0
10
447.000000
20
382.000000
0
VERTEX
8
0
10
446.200000
20
389.100000
0
VERTEX
8
0
10
438.760000
20
402.820000
0
VERTEX
8
0
10
434.230769
20
409.153846
0
VERTEX
8
0
10
431.000000
20
414.000000
0
VERTEX
8
0
10
425.000000
20
420.000000
0
VERTEX
8
0
10
419.000000
20
423.000000
0
VERTEX
8
0
10
405.000000
20
423.000000
0
VERTEX
8
0
10
396.088235
20
420.647059
0
VERTEX
8
0
10
386.100000
20
416.800000
0
VERTEX
8
0
10
380.000000
20
413.000000
0
VERTEX
8
0
10
387.153846
20
408.230769
0
VERTEX
8
0
10
429.100000
20
383.200000
0
VERTEX
8
0
10
447.000000
20
382.000000
0
SEQEND
0
POLYLINE
8
0
6
CONTINUOUS
66
1
62
7
10
0.0
20
0.0
30
0.000000
0
VERTEX
8
0
10
303.000000
20
381.000000
0
VERTEX
8
0
10
327.900000
20
388.300000
0
VERTEX
8
0
10
331.000000
20
390.000000
0
VERTEX
8
0
10
331.000000
20
392.000000
0
VERTEX
8
0
10
330.000000
20
393.000000
0
VERTEX
8
0
10
315.900000
20
398.800000
0
VERTEX
8
0
10
315.100000
20
399.200000
0
VERTEX
8
0
10
287.000000
20
409.000000
0
VERTEX
8
0
10
281.000000
20
408.000000
0
VERTEX
8
0
10
278.000000
20
405.000000
0
VERTEX
8
0
10
272.200000
20
395.900000
0
VERTEX
8
0
10
271.000000
20
392.000000
0
VERTEX
8
0
10
273.000000
20
390.000000
0
VERTEX
8
0
10
280.088235
20
387.352941
0
VERTEX
8
0
10
282.911765
20
386.647059
0
VERTEX
8
0
10
299.076923
20
381.384615
0
VERTEX
8
0
10
303.000000
20
381.000000
0
SEQEND
0
POLYLINE
8
0
6
CONTINUOUS
66
1
62
7
10
0.0
20
0.0
30
0.000000
0
VERTEX
8
0
10
445.000000
20
417.000000
0
VERTEX
8
0
10
446.000000
20
418.000000
0
VERTEX
8
0
10
450.067568
20
417.405405
0
VERTEX
8
0
10
469.000000
20
415.000000
0
VERTEX
8
0
10
476.000000
20
417.000000
0
VERTEX
8
0
10
477.000000
20
418.000000
0
VERTEX
8
0
10
476.200000
20
419.100000
0
VERTEX
8
0
10
468.000000
20
433.000000
0
VERTEX
8
0
10
464.000000
20
437.000000
0
VERTEX
8
0
10
456.100000
20
441.300000
0
VERTEX
8
0
10
443.000000
20
444.000000
0
VERTEX
8
0
10
429.940000
20
443.420000
0
VERTEX
8
0
10
421.100000
20
441.700000
0
VERTEX
8
0
10
419.900000
20
441.200000
0
VERTEX
8
0
10
415.000000
20
438.000000
0
VERTEX
8
0
10
421.000000
20
431.000000
0
VERTEX
8
0
10
427.100000
20
428.200000
0
VERTEX
8
0
10
429.100000
20
427.200000
0
VERTEX
8
0
10
441.000000
20
416.000000
0
VERTEX
8
0
10
448.751724
20
406.779310
0
VERTEX
8
0
10
459.230769
20
393.153846
0
VERTEX
8
0
10
462.769231
20
387.846154
0
VERTEX
8
0
10
467.000000
20
383.000000
0
VERTEX
8
0
10
469.911765
20
382.647059
0
VERTEX
8
0
10
479.000000
20
381.000000
0
VERTEX
8
0
10
489.000000
20
381.000000
0
VERTEX
8
0
10
491.000000
20
383.000000
0
VERTEX
8
0
10
488.615385
20
394.923077
0
VERTEX
8
0
10
485.800000
20
400.900000
0
VERTEX
8
0
10
484.000000
20
405.000000
0
VERTEX
8
0
10
482.000000
20
407.000000
0
VERTEX
8
0
10
463.067568
20
409.405405
0
VERTEX
8
0
10
454.100000
20
412.300000
0
VERTEX
8
0
10
445.000000
20
417.000000
0
SEQEND
0
POLYLINE
8
0
6
CONTINUOUS
66
1
62
7
10
0.0
20
0.0
30
0.000000
0
VERTEX
8
0
10
393.000000
20
377.000000
0
VERTEX
8
0
10
404.932432
20
379.405405
0
VERTEX
8
0
10
408.750000
20
380.250000
0
VERTEX
8
0
10
409.000000
20
381.000000
0
VERTEX
8
0
10
408.000000
20
385.000000
0
VERTEX
8
0
10
403.000000
20
390.000000
0
VERTEX
8
0
10
390.820000
20
398.760000
0
VERTEX
8
0
10
383.820000
20
403.760000
0
VERTEX
8
0
10
379.911765
20
405.647059
0
VERTEX
8
0
10
373.000000
20
407.000000
0
VERTEX
8
0
10
371.900000
20
406.300000
0
VERTEX
8
0
10
362.000000
20
400.000000
0
VERTEX
8
0
10
358.000000
20
396.000000
0
VERTEX
8
0
10
356.000000
20
391.000000
0
VERTEX
8
0
10
358.000000
20
389.000000
0
VERTEX
8
0
10
360.911765
20
388.647059
0
VERTEX
8
0
10
383.900000
20
379.700000
0
VERTEX
8
0
10
393.000000
20
377.000000
0
SEQEND
0
POLYLINE
8
0
6
CONTINUOUS
66
1
62
7
10
0.0
20
0.0
30
0.000000
0
VERTEX
8
0
10
524.000000
20
377.000000
0
VERTEX
8
0
10
527.000000
20
378.000000
0
VERTEX
8
0
10
529.000000
20
380.000000
0
VERTEX
8
0
10
530.000000
20
388.000000
0
VERTEX
8
0
10
526.000000
20
407.000000
0
VERTEX
8
0
10
523.000000
20
410.000000
0
VERTEX
8
0
10
494.250000
20
410.750000
0
VERTEX
8
0
10
501.300000
20
393.100000
0
VERTEX
8
0
10
503.700000
20
387.900000
0
VERTEX
8
0
10
507.000000
20
380.000000
0
VERTEX
8
0
10
508.000000
20
379.000000
0
VERTEX
8
0
10
516.048780
20
377.439024
0
VERTEX
8
0
10
524.000000
20
377.000000
0
SEQEND
0
POLYLINE
8
0
6
CONTINUOUS
66
1
62
7
10
0.0
20
0.0
30
0.000000
0
VERTEX
8
0
10
554.000000
20
375.000000
0
VERTEX
8
0
10
561.000000
20
378.000000
0
VERTEX
8
0
10
563.200000
20
381.900000
0
VERTEX
8
0
10
564.352941
20
385.911765
0
VERTEX
8
0
10
565.000000
20
391.000000
0
VERTEX
8
0
10
564.000000
20
394.000000
0
VERTEX
8
0
10
557.100000
20
400.200000
0
VERTEX
8
0
10
555.100000
20
401.200000
0
VERTEX
8
0
10
543.911765
20
406.647059
0
VERTEX
8
0
10
539.932432
20
407.594595
0
VERTEX
8
0
10
533.000000
20
409.000000
0
VERTEX
8
0
10
532.000000
20
408.000000
0
VERTEX
8
0
10
534.300000
20
401.100000
0
VERTEX
8
0
10
547.000000
20
377.000000
0
VERTEX
8
0
10
554.000000
20
375.000000
0
SEQEND
0
POLYLINE
8
0
6
CONTINUOUS
66
1
62
7
10
0.0
20
0.0
30
0.000000
0
VERTEX
8
0
10
268.000000
20
372.000000
0
VERTEX
8
0
10
283.000000
20
378.000000
0
VERTEX
8
0
10
282.000000
20
380.000000
0
VERTEX
8
0
10
269.000000
20
382.000000
0
VERTEX
8
0
10
266.800000
20
379.100000
0
VERTEX
8
0
10
266.000000
20
378.000000
0
VERTEX
8
0
10
266.000000
20
373.000000
0
VERTEX
8
0
10
268.000000
20
372.000000
0
SEQEND
0
POLYLINE
8
0
6
CONTINUOUS
66
1
62
7
10
0.0
20
0.0
30
0.000000
0
VERTEX
8
0
10
161.000000
20
393.000000
0
VERTEX
8
0
10
162.100000
20
392.300000
0
VERTEX
8
0
10
175.088235
20
388.352941
0
VERTEX
8
0
10
177.911765
20
387.647059
0
VERTEX
8
0
10
253.100000
20
369.300000
0
VERTEX
8
0
10
259.000000
20
367.000000
0
VERTEX
8
0
10
261.000000
20
371.000000
0
VERTEX
8
0
10
259.352941
20
380.088235
0
VERTEX
8
0
10
258.000000
20
385.000000
0
VERTEX
8
0
10
257.000000
20
386.000000
0
VERTEX
8
0
10
231.900000
20
395.800000
0
VERTEX
8
0
10
231.100000
20
396.200000
0
VERTEX
8
0
10
213.000000
20
404.000000
0
VERTEX
8
0
10
205.000000
20
404.000000
0
VERTEX
8
0
10
162.088235
20
393.647059
0
VERTEX
8
0
10
161.000000
20
393.000000
0
SEQEND
0
POLYLINE
8
0
6
CONTINUOUS
66
1
62
7
10
0.0
20
0.0
30
0.000000
0
VERTEX
8
0
10
346.000000
20
365.000000
0
VERTEX
8
0
10
351.088235
20
366.647059
0
VERTEX
8
0
10
361.000000
20
370.000000
0
VERTEX
8
0
10
362.000000
20
371.000000
0
VERTEX
8
0
10
361.200000
20
373.100000
0
VERTEX
8
0
10
361.000000
20
374.000000
0
VERTEX
8
0
10
354.180000
20
379.240000
0
VERTEX
8
0
10
347.100000
20
384.200000
0
VERTEX
8
0
10
344.000000
20
386.000000
0
VERTEX
8
0
10
334.923077
20
384.384615
0
VERTEX
8
0
10
314.000000
20
380.000000
0
VERTEX
8
0
10
313.000000
20
379.000000
0
VERTEX
8
0
10
314.000000
20
377.000000
0
VERTEX
8
0
10
338.100000
20
366.200000
0
VERTEX
8
0
10
346.000000
20
365.000000
0
SEQEND
0
POLYLINE
8
0
6
CONTINUOUS
66
1
62
7
10
0.0
20
0.0
30
0.000000
0
VERTEX
8
0
10
253.000000
20
353.000000
0
VERTEX
8
0
10
253.800000
20
354.100000
0
VERTEX
8
0
10
258.000000
20
363.000000
0
VERTEX
8
0
10
256.000000
20
365.000000
0
VERTEX
8
0
10
188.900000
20
380.700000
0
VERTEX
8
0
10
171.100000
20
386.300000
0
VERTEX
8
0
10
155.000000
20
392.000000
0
VERTEX
8
0
10
97.000000
20
392.000000
0
VERTEX
8
0
10
95.000000
20
390.000000
0
VERTEX
8
0
10
95.000000
20
388.000000
0
VERTEX
8
0
10
96.243902
20
386.195122
0
VERTEX
8
0
10
105.000000
20
376.000000
0
VERTEX
8
0
10
113.100000
20
372.200000
0
VERTEX
8
0
10
119.900000
20
368.800000
0
VERTEX
8
0
10
133.088235
20
364.352941
0
VERTEX
8
0
10
151.100000
20
359.200000
0
VERTEX
8
0
10
192.012803
20
357.486505
0
VERTEX
8
0
10
228.987197
20
356.513495
0
VERTEX
8
0
10
243.040984
20
353.450820
0
VERTEX
8
0
10
253.000000
20
353.000000
0
SEQEND
0
POLYLINE
8
0
6
CONTINUOUS
66
1
62
7
10
0.0
20
0.0
30
0.000000
0
VERTEX
8
0
10
312.000000
20
351.000000
0
VERTEX
8
0
10
313.100000
20
351.700000
0
VERTEX
8
0
10
326.000000
20
357.000000
0
VERTEX
8
0
10
327.000000
20
358.000000
0
VERTEX
8
0
10
326.000000
20
359.000000
0
VERTEX
8
0
10
313.900000
20
366.700000
0
VERTEX
8
0
10
312.100000
20
367.300000
0
VERTEX
8
0
10
297.000000
20
373.000000
0
VERTEX
8
0
10
285.000000
20
373.000000
0
VERTEX
8
0
10
279.100000
20
370.800000
0
VERTEX
8
0
10
272.000000
20
366.000000
0
VERTEX
8
0
10
273.900000
20
364.800000
0
VERTEX
8
0
10
277.900000
20
362.800000
0
VERTEX
8
0
10
295.100000
20
356.300000
0
VERTEX
8
0
10
312.000000
20
351.000000
0
SEQEND
0
POLYLINE
8
0
6
CONTINUOUS
66
1
62
7
10
0.0
20
0.0
30
0.000000
0
VERTEX
8
0
10
647.000000
20
346.000000
0
VERTEX
8
0
10
650.000000
20
348.000000
0
VERTEX
8
0
10
655.200000
20
354.900000
0
VERTEX
8
0
10
655.800000
20
356.100000
0
VERTEX
8
0
10
693.200000
20
406.900000
0
VERTEX
8
0
10
695.000000
20
411.000000
0
VERTEX
8
0
10
693.230769
20
414.153846
0
VERTEX
8
0
10
667.000000
20
441.000000
0
VERTEX
8
0
10
649.804878
20
455.756098
0
VERTEX
8
0
10
623.100000
20
474.200000
0
VERTEX
8
0
10
614.000000
20
478.000000
0
VERTEX
8
0
10
613.000000
20
478.000000
0
VERTEX
8
0
10
611.000000
20
476.000000
0
VERTEX
8
0
10
610.300000
20
472.900000
0
VERTEX
8
0
10
609.300000
20
469.900000
0
VERTEX
8
0
10
606.405405
20
453.932432
0
VERTEX
8
0
10
603.594595
20
438.067568
0
VERTEX
8
0
10
598.700000
20
421.100000
0
VERTEX
8
0
10
593.700000
20
404.100000
0
VERTEX
8
0
10
583.200000
20
378.900000
0
VERTEX
8
0
10
578.000000
20
368.000000
0
VERTEX
8
0
10
579.900000
20
366.800000
0
VERTEX
8
0
10
591.911765
20
363.647059
0
VERTEX
8
0
10
633.100000
20
349.200000
0
VERTEX
8
0
10
633.900000
20
348.800000
0
VERTEX
8
0
10
640.053846
20
346.430769
0
VERTEX
8
0
10
647.000000
20
346.000000
0
SEQEND
0
POLYLINE
8
0
6
CONTINUOUS
66
1
62
7
10
0.0
20
0.0
30
0.000000
0
VERTEX
8
0
10
64.000000
20
345.000000
0
VERTEX
8
0
10
64.000000
20
346.000000
0
SEQEND
0
POLYLINE
8
0
6
CONTINUOUS
66
1
62
7
10
0.0
20
0.0
30
0.000000
0
VERTEX
8
0
10
66.000000
20
343.000000
0
VERTEX
8
0
10
64.000000
20
345.000000
0
SEQEND
0
POLYLINE
8
0
6
CONTINUOUS
66
1
62
7
10
0.0
20
0.0
30
0.000000
0
VERTEX
8
0
10
70.000000
20
341.000000
0
VERTEX
8
0
10
68.000000
20
342.000000
0
SEQEND
0
POLYLINE
8
0
6
CONTINUOUS
66
1
62
7
10
0.0
20
0.0
30
0.000000
0
VERTEX
8
0
10
72.000000
20
340.000000
0
VERTEX
8
0
10
70.000000
20
341.000000
0
SEQEND
0
POLYLINE
8
0
6
CONTINUOUS
66
1
62
7
10
0.0
20
0.0
30
0.000000
0
VERTEX
8
0
10
71.000000
20
339.000000
0
VERTEX
8
0
10
70.000000
20
341.000000
0
SEQEND
0
POLYLINE
8
0
6
CONTINUOUS
66
1
62
7
10
0.0
20
0.0
30
0.000000
0
VERTEX
8
0
10
71.000000
20
339.000000
0
VERTEX
8
0
10
72.000000
20
340.000000
0
SEQEND
0
POLYLINE
8
0
6
CONTINUOUS
66
1
62
7
10
0.0
20
0.0
30
0.000000
0
VERTEX
8
0
10
284.000000
20
336.000000
0
VERTEX
8
0
10
287.100000
20
337.700000
0
VERTEX
8
0
10
291.000000
20
339.000000
0
VERTEX
8
0
10
296.000000
20
344.000000
0
VERTEX
8
0
10
294.000000
20
347.000000
0
VERTEX
8
0
10
287.153846
20
352.230769
0
VERTEX
8
0
10
277.100000
20
357.200000
0
VERTEX
8
0
10
273.000000
20
359.000000
0
VERTEX
8
0
10
265.000000
20
359.000000
0
VERTEX
8
0
10
262.000000
20
354.000000
0
VERTEX
8
0
10
262.000000
20
347.000000
0
VERTEX
8
0
10
264.000000
20
345.000000
0
VERTEX
8
0
10
273.100000
20
339.300000
0
VERTEX
8
0
10
284.000000
20
336.000000
0
SEQEND
0
POLYLINE
8
0
6
CONTINUOUS
66
1
62
7
10
0.0
20
0.0
30
0.000000
0
VERTEX
8
0
10
619.000000
20
330.000000
0
VERTEX
8
0
10
621.900000
20
331.300000
0
VERTEX
8
0
10
635.000000
20
339.000000
0
VERTEX
8
0
10
633.000000
20
342.000000
0
VERTEX
8
0
10
630.100000
20
344.200000
0
VERTEX
8
0
10
628.100000
20
345.200000
0
VERTEX
8
0
10
625.000000
20
347.000000
0
VERTEX
8
0
10
623.000000
20
347.000000
0
VERTEX
8
0
10
620.000000
20
344.000000
0
VERTEX
8
0
10
619.300000
20
341.900000
0
VERTEX
8
0
10
618.700000
20
340.100000
0
VERTEX
8
0
10
617.000000
20
332.000000
0
VERTEX
8
0
10
619.000000
20
330.000000
0
SEQEND
0
POLYLINE
8
0
6
CONTINUOUS
66
1
62
7
10
0.0
20
0.0
30
0.000000
0
VERTEX
8
0
10
85.000000
20
328.000000
0
VERTEX
8
0
10
71.000000
20
339.000000
0
SEQEND
0
POLYLINE
8
0
6
CONTINUOUS
66
1
62
7
10
0.0
20
0.0
30
0.000000
0
VERTEX
8
0
10
86.000000
20
328.000000
0
VERTEX
8
0
10
85.000000
20
328.000000
0
SEQEND
0
POLYLINE
8
0
6
CONTINUOUS
66
1
62
7
10
0.0
20
0.0
30
0.000000
0
VERTEX
8
0
10
715.000000
20
324.000000
0
VERTEX
8
0
10
722.000000
20
329.000000
0
VERTEX
8
0
10
728.800000
20
342.100000
0
VERTEX
8
0
10
731.000000
20
346.000000
0
VERTEX
8
0
10
723.200000
20
364.100000
0
VERTEX
8
0
10
712.800000
20
384.900000
0
VERTEX
8
0
10
702.000000
20
403.000000
0
VERTEX
8
0
10
701.000000
20
403.000000
0
VERTEX
8
0
10
697.820000
20
400.240000
0
VERTEX
8
0
10
689.752941
20
392.211765
0
VERTEX
8
0
10
679.245902
20
379.795082
0
VERTEX
8
0
10
660.230769
20
353.846154
0
VERTEX
8
0
10
659.800000
20
353.100000
0
VERTEX
8
0
10
657.000000
20
346.000000
0
VERTEX
8
0
10
657.000000
20
340.000000
0
VERTEX
8
0
10
659.000000
20
338.000000
0
VERTEX
8
0
10
669.088235
20
336.352941
0
VERTEX
8
0
10
710.100000
20
325.300000
0
VERTEX
8
0
10
715.000000
20
324.000000
0
SEQEND
0
POLYLINE
8
0
6
CONTINUOUS
66
1
62
7
10
0.0
20
0.0
30
0.000000
0
VERTEX
8
0
10
267.000000
20
318.000000
0
VERTEX
8
0
10
265.000000
20
318.000000
0
SEQEND
0
POLYLINE
8
0
6
CONTINUOUS
66
1
62
7
10
0.0
20
0.0
30
0.000000
0
VERTEX
8
0
10
267.000000
20
318.000000
0
VERTEX
8
0
10
287.000000
20
317.000000
0
VERTEX
8
0
10
312.932432
20
320.405405
0
VERTEX
8
0
10
324.932432
20
322.405405
0
VERTEX
8
0
10
377.900000
20
343.200000
0
VERTEX
8
0
10
399.088235
20
349.647059
0
VERTEX
8
0
10
468.076923
20
353.615385
0
VERTEX
8
0
10
471.923077
20
354.384615
0
VERTEX
8
0
10
499.000000
20
357.000000
0
VERTEX
8
0
10
525.000000
20
357.000000
0
VERTEX
8
0
10
530.900000
20
354.700000
0
VERTEX
8
0
10
540.100000
20
351.300000
0
VERTEX
8
0
10
587.900000
20
334.800000
0
VERTEX
8
0
10
597.000000
20
329.000000
0
VERTEX
8
0
10
602.000000
20
329.000000
0
VERTEX
8
0
10
603.230769
20
330.846154
0
VERTEX
8
0
10
605.200000
20
333.900000
0
VERTEX
8
0
10
607.000000
20
341.000000
0
VERTEX
8
0
10
607.000000
20
345.000000
0
VERTEX
8
0
10
604.000000
20
349.000000
0
VERTEX
8
0
10
599.100000
20
353.200000
0
VERTEX
8
0
10
597.153846
20
354.230769
0
VERTEX
8
0
10
588.900000
20
358.700000
0
VERTEX
8
0
10
583.088235
20
360.352941
0
VERTEX
8
0
10
569.959016
20
362.549180
0
VERTEX
8
0
10
544.053846
20
365.430769
0
VERTEX
8
0
10
524.000000
20
367.000000
0
VERTEX
8
0
10
514.000000
20
365.000000
0
VERTEX
8
0
10
507.000000
20
365.000000
0
VERTEX
8
0
10
492.088235
20
368.352941
0
VERTEX
8
0
10
491.000000
20
369.000000
0
VERTEX
8
0
10
483.000000
20
369.000000
0
VERTEX
8
0
10
469.000000
20
366.000000
0
VERTEX
8
0
10
467.900000
20
366.800000
0
VERTEX
8
0
10
452.932432
20
372.594595
0
VERTEX
8
0
10
448.067568
20
373.405405
0
VERTEX
8
0
10
440.000000
20
374.000000
0
VERTEX
8
0
10
431.088235
20
371.647059
0
VERTEX
8
0
10
429.100000
20
370.800000
0
VERTEX
8
0
10
416.000000
20
364.000000
0
VERTEX
8
0
10
403.048780
20
365.439024
0
VERTEX
8
0
10
402.000000
20
366.000000
0
VERTEX
8
0
10
391.932432
20
365.405405
0
VERTEX
8
0
10
385.100000
20
363.800000
0
VERTEX
8
0
10
383.900000
20
363.200000
0
VERTEX
8
0
10
377.204918
20
358.754098
0
VERTEX
8
0
10
371.795082
20
354.245902
0
VERTEX
8
0
10
365.000000
20
350.000000
0
VERTEX
8
0
10
360.000000
20
350.000000
0
VERTEX
8
0
10
359.000000
20
351.000000
0
VERTEX
8
0
10
347.000000
20
351.000000
0
VERTEX
8
0
10
343.088235
20
349.647059
0
VERTEX
8
0
10
341.900000
20
349.200000
0
VERTEX
8
0
10
316.100000
20
331.700000
0
VERTEX
8
0
10
290.067568
20
327.594595
0
VERTEX
8
0
10
276.100000
20
322.700000
0
VERTEX
8
0
10
274.900000
20
322.300000
0
VERTEX
8
0
10
268.000000
20
320.000000
0
VERTEX
8
0
10
267.000000
20
318.000000
0
SEQEND
0
POLYLINE
8
0
6
CONTINUOUS
66
1
62
7
10
0.0
20
0.0
30
0.000000
0
VERTEX
8
0
10
704.000000
20
306.000000
0
VERTEX
8
0
10
715.000000
20
311.000000
0
VERTEX
8
0
10
720.000000
20
316.000000
0
VERTEX
8
0
10
717.000000
20
319.000000
0
VERTEX
8
0
10
710.000000
20
319.000000
0
VERTEX
8
0
10
708.180000
20
317.760000
0
VERTEX
8
0
10
704.820000
20
315.240000
0
VERTEX
8
0
10
699.000000
20
310.000000
0
VERTEX
8
0
10
698.769231
20
309.153846
0
VERTEX
8
0
10
697.000000
20
307.000000
0
VERTEX
8
0
10
698.000000
20
306.000000
0
VERTEX
8
0
10
704.000000
20
306.000000
0
SEQEND
0
POLYLINE
8
0
6
CONTINUOUS
66
1
62
7
10
0.0
20
0.0
30
0.000000
0
VERTEX
8
0
10
738.000000
20
301.000000
0
VERTEX
8
0
10
737.549180
20
311.959016
0
VERTEX
8
0
10
735.615385
20
322.923077
0
VERTEX
8
0
10
735.352941
20
324.088235
0
VERTEX
8
0
10
733.000000
20
333.000000
0
VERTEX
8
0
10
732.000000
20
334.000000
0
VERTEX
8
0
10
730.000000
20
333.000000
0
VERTEX
8
0
10
727.800000
20
330.100000
0
VERTEX
8
0
10
726.800000
20
328.100000
0
VERTEX
8
0
10
726.000000
20
327.000000
0
VERTEX
8
0
10
728.000000
20
315.000000
0
VERTEX
8
0
10
720.000000
20
307.000000
0
VERTEX
8
0
10
727.100000
20
303.300000
0
VERTEX
8
0
10
728.900000
20
302.700000
0
VERTEX
8
0
10
737.000000
20
301.000000
0
VERTEX
8
0
10
738.000000
20
301.000000
0
SEQEND
0
POLYLINE
8
0
6
CONTINUOUS
66
1
62
7
10
0.0
20
0.0
30
0.000000
0
VERTEX
8
0
10
72.000000
20
340.000000
0
VERTEX
8
0
10
74.900000
20
338.800000
0
VERTEX
8
0
10
92.035294
20
330.458824
0
VERTEX
8
0
10
103.964706
20
329.541176
0
VERTEX
8
0
10
139.986507
20
328.514264
0
VERTEX
8
0
10
202.911765
20
301.647059
0
VERTEX
8
0
10
206.911765
20
300.647059
0
VERTEX
8
0
10
208.000000
20
300.000000
0
VERTEX
8
0
10
220.000000
20
300.000000
0
VERTEX
8
0
10
222.900000
20
301.300000
0
VERTEX
8
0
10
234.153846
20
306.769231
0
VERTEX
8
0
10
242.846154
20
312.230769
0
VERTEX
8
0
10
257.000000
20
321.000000
0
VERTEX
8
0
10
261.000000
20
329.000000
0
VERTEX
8
0
10
260.352941
20
331.088235
0
VERTEX
8
0
10
259.000000
20
337.000000
0
VERTEX
8
0
10
256.180000
20
339.240000
0
VERTEX
8
0
10
252.180000
20
342.240000
0
VERTEX
8
0
10
239.900000
20
349.800000
0
VERTEX
8
0
10
239.100000
20
350.200000
0
VERTEX
8
0
10
233.995001
20
352.505101
0
VERTEX
8
0
10
136.004999
20
353.494899
0
VERTEX
8
0
10
128.088235
20
355.352941
0
VERTEX
8
0
10
119.100000
20
358.300000
0
VERTEX
8
0
10
103.204918
20
366.245902
0
VERTEX
8
0
10
97.795082
20
370.754098
0
VERTEX
8
0
10
67.000000
20
401.000000
0
VERTEX
8
0
10
62.754098
20
396.204918
0
VERTEX
8
0
10
58.245902
20
390.795082
0
VERTEX
8
0
10
56.200000
20
386.900000
0
VERTEX
8
0
10
55.769231
20
386.153846
0
VERTEX
8
0
10
49.300000
20
373.900000
0
VERTEX
8
0
10
46.000000
20
366.000000
0
VERTEX
8
0
10
47.000000
20
362.000000
0
VERTEX
8
0
10
50.795082
20
358.754098
0
VERTEX
8
0
10
61.000000
20
350.000000
0
VERTEX
8
0
10
64.000000
20
346.000000
0
SEQEND
0
POLYLINE
8
0
6
CONTINUOUS
66
1
62
7
10
0.0
20
0.0
30
0.000000
0
VERTEX
8
0
10
648.000000
20
297.000000
0
VERTEX
8
0
10
649.846154
20
298.230769
0
VERTEX
8
0
10
656.000000
20
303.000000
0
VERTEX
8
0
10
656.230769
20
303.846154
0
VERTEX
8
0
10
658.000000
20
306.000000
0
VERTEX
8
0
10
653.000000
20
311.000000
0
VERTEX
8
0
10
650.900000
20
311.800000
0
VERTEX
8
0
10
648.900000
20
312.800000
0
VERTEX
8
0
10
645.000000
20
314.000000
0
VERTEX
8
0
10
641.088235
20
312.647059
0
VERTEX
8
0
10
638.000000
20
311.000000
0
VERTEX
8
0
10
636.230769
20
307.846154
0
VERTEX
8
0
10
635.000000
20
305.000000
0
VERTEX
8
0
10
636.000000
20
303.000000
0
VERTEX
8
0
10
640.900000
20
299.800000
0
VERTEX
8
0
10
648.000000
20
297.000000
0
SEQEND
0
POLYLINE
8
0
6
CONTINUOUS
66
1
62
7
10
0.0
20
0.0
30
0.000000
0
VERTEX
8
0
10
188.000000
20
295.000000
0
VERTEX
8
0
10
188.000000
20
296.000000
0
VERTEX
8
0
10
188.000000
20
297.000000
0
VERTEX
8
0
10
184.000000
20
301.000000
0
VERTEX
8
0
10
116.932432
20
320.594595
0
VERTEX
8
0
10
112.067568
20
321.405405
0
VERTEX
8
0
10
111.000000
20
322.000000
0
VERTEX
8
0
10
94.000000
20
322.000000
0
VERTEX
8
0
10
88.067568
20
320.594595
0
VERTEX
8
0
10
82.900000
20
319.200000
0
VERTEX
8
0
10
69.000000
20
313.000000
0
VERTEX
8
0
10
66.000000
20
309.000000
0
VERTEX
8
0
10
68.000000
20
307.000000
0
VERTEX
8
0
10
78.067568
20
304.405405
0
VERTEX
8
0
10
93.932432
20
301.594595
0
VERTEX
8
0
10
134.030973
20
297.464602
0
VERTEX
8
0
10
188.000000
20
295.000000
0
SEQEND
0
POLYLINE
8
0
6
CONTINUOUS
66
1
62
7
10
0.0
20
0.0
30
0.000000
0
VERTEX
8
0
10
717.000000
20
294.000000
0
VERTEX
8
0
10
718.076923
20
294.615385
0
VERTEX
8
0
10
722.000000
20
295.000000
0
VERTEX
8
0
10
724.000000
20
297.000000
0
VERTEX
8
0
10
724.000000
20
299.000000
0
VERTEX
8
0
10
721.000000
20
302.000000
0
VERTEX
8
0
10
708.000000
20
302.000000
0
VERTEX
8
0
10
701.060000
20
300.580000
0
VERTEX
8
0
10
698.000000
20
299.000000
0
VERTEX
8
0
10
700.000000
20
297.000000
0
VERTEX
8
0
10
708.044554
20
294.445545
0
VERTEX
8
0
10
717.000000
20
294.000000
0
SEQEND
0
POLYLINE
8
0
6
CONTINUOUS
66
1
62
7
10
0.0
20
0.0
30
0.000000
0
VERTEX
8
0
10
687.000000
20
293.000000
0
VERTEX
8
0
10
685.000000
20
294.000000
0
SEQEND
0
POLYLINE
8
0
6
CONTINUOUS
66
1
62
7
10
0.0
20
0.0
30
0.000000
0
VERTEX
8
0
10
689.000000
20
293.000000
0
VERTEX
8
0
10
688.000000
20
294.000000
0
VERTEX
8
0
10
687.000000
20
293.000000
0
SEQEND
0
POLYLINE
8
0
6
CONTINUOUS
66
1
62
7
10
0.0
20
0.0
30
0.000000
0
VERTEX
8
0
10
646.000000
20
292.000000
0
VERTEX
8
0
10
659.000000
20
298.000000
0
VERTEX
8
0
10
661.200000
20
301.900000
0
VERTEX
8
0
10
662.000000
20
303.000000
0
VERTEX
8
0
10
661.000000
20
312.000000
0
VERTEX
8
0
10
656.000000
20
317.000000
0
VERTEX
8
0
10
653.900000
20
317.800000
0
VERTEX
8
0
10
653.100000
20
318.200000
0
VERTEX
8
0
10
649.000000
20
320.000000
0
VERTEX
8
0
10
638.000000
20
320.000000
0
VERTEX
8
0
10
635.100000
20
318.700000
0
VERTEX
8
0
10
633.900000
20
318.200000
0
VERTEX
8
0
10
625.000000
20
314.000000
0
VERTEX
8
0
10
622.800000
20
311.100000
0
VERTEX
8
0
10
621.000000
20
308.000000
0
VERTEX
8
0
10
623.000000
20
297.000000
0
VERTEX
8
0
10
625.000000
20
295.000000
0
VERTEX
8
0
10
627.100000
20
294.300000
0
VERTEX
8
0
10
628.900000
20
293.700000
0
VERTEX
8
0
10
634.035294
20
292.458824
0
VERTEX
8
0
10
646.000000
20
292.000000
0
SEQEND
0
POLYLINE
8
0
6
CONTINUOUS
66
1
62
7
10
0.0
20
0.0
30
0.000000
0
VERTEX
8
0
10
688.000000
20
292.000000
0
VERTEX
8
0
10
687.000000
20
293.000000
0
SEQEND
0
POLYLINE
8
0
6
CONTINUOUS
66
1
62
7
10
0.0
20
0.0
30
0.000000
0
VERTEX
8
0
10
688.000000
20
292.000000
0
VERTEX
8
0
10
689.000000
20
293.000000
0
SEQEND
0
POLYLINE
8
0
6
CONTINUOUS
66
1
62
7
10
0.0
20
0.0
30
0.000000
0
VERTEX
8
0
10
688.000000
20
292.000000
0
VERTEX
8
0
10
704.000000
20
283.500000
0
VERTEX
8
0
10
708.000000
20
285.000000
0
VERTEX
8
0
10
709.000000
20
287.000000
0
VERTEX
8
0
10
697.911765
20
291.647059
0
VERTEX
8
0
10
689.000000
20
293.000000
0
SEQEND
0
POLYLINE
8
0
6
CONTINUOUS
66
1
62
7
10
0.0
20
0.0
30
0.000000
0
VERTEX
8
0
10
64.000000
20
345.000000
0
VERTEX
8
0
10
62.100000
20
345.200000
0
VERTEX
8
0
10
46.000000
20
354.000000
0
VERTEX
8
0
10
41.000000
20
354.000000
0
VERTEX
8
0
10
39.000000
20
352.000000
0
VERTEX
8
0
10
38.300000
20
348.900000
0
VERTEX
8
0
10
35.352941
20
337.911765
0
VERTEX
8
0
10
31.430769
20
311.946154
0
VERTEX
8
0
10
30.569231
20
305.053846
0
VERTEX
8
0
10
29.000000
20
280.000000
0
VERTEX
8
0
10
30.000000
20
279.000000
0
VERTEX
8
0
10
32.240000
20
281.820000
0
VERTEX
8
0
10
35.647059
20
288.088235
0
VERTEX
8
0
10
36.700000
20
292.100000
0
VERTEX
8
0
10
39.000000
20
297.000000
0
VERTEX
8
0
10
57.180000
20
311.760000
0
VERTEX
8
0
10
68.100000
20
318.800000
0
VERTEX
8
0
10
85.000000
20
328.000000
0
SEQEND
0
POLYLINE
8
0
6
CONTINUOUS
66
1
62
7
10
0.0
20
0.0
30
0.000000
0
VERTEX
8
0
10
147.000000
20
275.000000
0
VERTEX
8
0
10
156.044554
20
276.554455
0
VERTEX
8
0
10
171.000000
20
278.000000
0
VERTEX
8
0
10
173.000000
20
281.000000
0
VERTEX
8
0
10
170.000000
20
284.000000
0
VERTEX
8
0
10
158.923077
20
287.615385
0
VERTEX
8
0
10
132.067568
20
292.405405
0
VERTEX
8
0
10
67.000000
20
299.000000
0
VERTEX
8
0
10
59.000000
20
299.000000
0
VERTEX
8
0
10
48.000000
20
291.000000
0
VERTEX
8
0
10
46.230769
20
287.846154
0
VERTEX
8
0
10
43.000000
20
281.000000
0
VERTEX
8
0
10
45.000000
20
279.000000
0
VERTEX
8
0
10
46.900000
20
278.700000
0
VERTEX
8
0
10
56.011351
20
276.488108
0
VERTEX
8
0
10
147.000000
20
275.000000
0
SEQEND
0
POLYLINE
8
0
6
CONTINUOUS
66
1
62
7
10
0.0
20
0.0
30
0.000000
0
VERTEX
8
0
10
188.000000
20
275.000000
0
VERTEX
8
0
10
189.088235
20
275.647059
0
VERTEX
8
0
10
202.000000
20
279.000000
0
VERTEX
8
0
10
203.076923
20
278.384615
0
VERTEX
8
0
10
215.000000
20
276.000000
0
VERTEX
8
0
10
222.000000
20
278.000000
0
VERTEX
8
0
10
224.240000
20
280.820000
0
VERTEX
8
0
10
231.000000
20
289.000000
0
VERTEX
8
0
10
235.900000
20
286.700000
0
VERTEX
8
0
10
240.923077
20
285.615385
0
VERTEX
8
0
10
247.000000
20
284.000000
0
VERTEX
8
0
10
255.000000
20
284.000000
0
VERTEX
8
0
10
261.940000
20
285.420000
0
VERTEX
8
0
10
267.846154
20
288.230769
0
VERTEX
8
0
10
277.000000
20
294.000000
0
VERTEX
8
0
10
282.000000
20
294.000000
0
VERTEX
8
0
10
292.911765
20
290.647059
0
VERTEX
8
0
10
294.053846
20
290.430769
0
VERTEX
8
0
10
307.000000
20
289.000000
0
VERTEX
8
0
10
308.900000
20
290.200000
0
VERTEX
8
0
10
320.000000
20
295.000000
0
VERTEX
8
0
10
327.000000
20
295.000000
0
VERTEX
8
0
10
332.000000
20
292.000000
0
VERTEX
8
0
10
345.000000
20
292.000000
0
VERTEX
8
0
10
350.900000
20
294.200000
0
VERTEX
8
0
10
355.000000
20
297.000000
0
VERTEX
8
0
10
360.100000
20
295.300000
0
VERTEX
8
0
10
363.900000
20
293.800000
0
VERTEX
8
0
10
365.000000
20
293.000000
0
VERTEX
8
0
10
373.000000
20
293.000000
0
VERTEX
8
0
10
384.900000
20
298.200000
0
VERTEX
8
0
10
394.000000
20
304.000000
0
VERTEX
8
0
10
396.240000
20
308.820000
0
VERTEX
8
0
10
405.000000
20
320.000000
0
VERTEX
8
0
10
405.900000
20
320.200000
0
VERTEX
8
0
10
411.000000
20
322.000000
0
VERTEX
8
0
10
415.000000
20
322.000000
0
VERTEX
8
0
10
446.900000
20
313.700000
0
VERTEX
8
0
10
469.900000
20
306.700000
0
VERTEX
8
0
10
487.100000
20
300.200000
0
VERTEX
8
0
10
493.900000
20
296.800000
0
VERTEX
8
0
10
530.000000
20
277.000000
0
VERTEX
8
0
10
533.000000
20
277.000000
0
VERTEX
8
0
10
540.900000
20
280.300000
0
VERTEX
8
0
10
542.100000
20
280.700000
0
VERTEX
8
0
10
550.000000
20
284.000000
0
VERTEX
8
0
10
556.760000
20
294.180000
0
VERTEX
8
0
10
562.788235
20
300.247059
0
VERTEX
8
0
10
574.000000
20
310.000000
0
VERTEX
8
0
10
574.500000
20
312.000000
0
VERTEX
8
0
10
573.000000
20
315.000000
0
VERTEX
8
0
10
575.200000
20
322.900000
0
VERTEX
8
0
10
577.769231
20
327.153846
0
VERTEX
8
0
10
579.000000
20
331.000000
0
VERTEX
8
0
10
576.000000
20
335.000000
0
VERTEX
8
0
10
572.911765
20
335.647059
0
VERTEX
8
0
10
570.088235
20
336.352941
0
VERTEX
8
0
10
558.955446
20
338.554455
0
VERTEX
8
0
10
548.940000
20
339.580000
0
VERTEX
8
0
10
535.088235
20
342.352941
0
VERTEX
8
0
10
533.100000
20
343.200000
0
VERTEX
8
0
10
515.946154
20
350.569231
0
VERTEX
8
0
10
509.053846
20
351.430769
0
VERTEX
8
0
10
495.000000
20
352.000000
0
VERTEX
8
0
10
486.048780
20
350.560976
0
VERTEX
8
0
10
478.088235
20
348.647059
0
VERTEX
8
0
10
451.973846
20
343.470769
0
VERTEX
8
0
10
434.000000
20
342.000000
0
VERTEX
8
0
10
405.000000
20
342.000000
0
VERTEX
8
0
10
404.000000
20
343.000000
0
VERTEX
8
0
10
388.000000
20
343.000000
0
VERTEX
8
0
10
347.100000
20
323.800000
0
VERTEX
8
0
10
337.088235
20
320.647059
0
VERTEX
8
0
10
267.067568
20
309.594595
0
VERTEX
8
0
10
251.076923
20
306.615385
0
VERTEX
8
0
10
223.100000
20
296.700000
0
VERTEX
8
0
10
210.900000
20
292.300000
0
VERTEX
8
0
10
191.100000
20
284.800000
0
VERTEX
8
0
10
186.000000
20
282.000000
0
VERTEX
8
0
10
182.800000
20
278.100000
0
VERTEX
8
0
10
182.000000
20
277.000000
0
VERTEX
8
0
10
183.000000
20
275.000000
0
VERTEX
8
0
10
188.000000
20
275.000000
0
SEQEND
0
POLYLINE
8
0
6
CONTINUOUS
66
1
62
7
10
0.0
20
0.0
30
0.000000
0
VERTEX
8
0
10
519.000000
20
274.000000
0
VERTEX
8
0
10
520.000000
20
275.000000
0
VERTEX
8
0
10
516.000000
20
279.000000
0
VERTEX
8
0
10
488.900000
20
292.800000
0
VERTEX
8
0
10
486.900000
20
293.800000
0
VERTEX
8
0
10
472.900000
20
299.700000
0
VERTEX
8
0
10
471.100000
20
300.300000
0
VERTEX
8
0
10
431.000000
20
314.000000
0
VERTEX
8
0
10
417.000000
20
314.000000
0
VERTEX
8
0
10
410.100000
20
311.700000
0
VERTEX
8
0
10
408.000000
20
311.000000
0
VERTEX
8
0
10
407.000000
20
309.000000
0
VERTEX
8
0
10
410.000000
20
306.000000
0
VERTEX
8
0
10
412.100000
20
305.300000
0
VERTEX
8
0
10
421.911765
20
302.647059
0
VERTEX
8
0
10
498.911765
20
279.647059
0
VERTEX
8
0
10
515.076923
20
274.384615
0
VERTEX
8
0
10
519.000000
20
274.000000
0
SEQEND
0
POLYLINE
8
0
6
CONTINUOUS
66
1
62
7
10
0.0
20
0.0
30
0.000000
0
VERTEX
8
0
10
503.000000
20
272.000000
0
VERTEX
8
0
10
503.000000
20
273.000000
0
VERTEX
8
0
10
500.100000
20
275.200000
0
VERTEX
8
0
10
498.900000
20
275.800000
0
VERTEX
8
0
10
445.911765
20
291.647059
0
VERTEX
8
0
10
437.911765
20
293.647059
0
VERTEX
8
0
10
410.000000
20
298.000000
0
VERTEX
8
0
10
409.250000
20
297.750000
0
VERTEX
8
0
10
408.000000
20
295.000000
0
VERTEX
8
0
10
408.000000
20
290.000000
0
VERTEX
8
0
10
410.000000
20
288.000000
0
VERTEX
8
0
10
412.100000
20
287.300000
0
VERTEX
8
0
10
419.900000
20
284.700000
0
VERTEX
8
0
10
453.932432
20
277.594595
0
VERTEX
8
0
10
460.940000
20
276.580000
0
VERTEX
8
0
10
496.060000
20
272.420000
0
VERTEX
8
0
10
503.000000
20
272.000000
0
SEQEND
0
POLYLINE
8
0
6
CONTINUOUS
66
1
62
7
10
0.0
20
0.0
30
0.000000
0
VERTEX
8
0
10
505.000000
20
272.000000
0
VERTEX
8
0
10
503.000000
20
272.000000
0
SEQEND
0
POLYLINE
8
0
6
CONTINUOUS
66
1
62
7
10
0.0
20
0.0
30
0.000000
0
VERTEX
8
0
10
343.000000
20
263.000000
0
VERTEX
8
0
10
351.200000
20
272.900000
0
VERTEX
8
0
10
354.000000
20
278.000000
0
VERTEX
8
0
10
354.000000
20
280.000000
0
VERTEX
8
0
10
348.100000
20
282.300000
0
VERTEX
8
0
10
343.000000
20
284.000000
0
VERTEX
8
0
10
332.000000
20
284.000000
0
VERTEX
8
0
10
329.000000
20
283.000000
0
VERTEX
8
0
10
325.000000
20
279.000000
0
VERTEX
8
0
10
326.000000
20
275.000000
0
VERTEX
8
0
10
333.820000
20
267.760000
0
VERTEX
8
0
10
337.180000
20
265.240000
0
VERTEX
8
0
10
342.100000
20
263.200000
0
VERTEX
8
0
10
343.000000
20
263.000000
0
SEQEND
0
POLYLINE
8
0
6
CONTINUOUS
66
1
62
7
10
0.0
20
0.0
30
0.000000
0
VERTEX
8
0
10
522.000000
20
261.000000
0
VERTEX
8
0
10
522.000000
20
263.000000
0
VERTEX
8
0
10
520.100000
20
264.200000
0
VERTEX
8
0
10
516.088235
20
265.352941
0
VERTEX
8
0
10
469.060000
20
272.420000
0
VERTEX
8
0
10
441.040984
20
275.450820
0
VERTEX
8
0
10
407.000000
20
280.000000
0
VERTEX
8
0
10
398.000000
20
280.000000
0
VERTEX
8
0
10
396.000000
20
278.000000
0
VERTEX
8
0
10
396.000000
20
275.000000
0
VERTEX
8
0
10
400.000000
20
270.000000
0
VERTEX
8
0
10
404.100000
20
268.200000
0
VERTEX
8
0
10
413.044554
20
265.445545
0
VERTEX
8
0
10
421.955446
20
264.554455
0
VERTEX
8
0
10
486.013493
20
261.485736
0
VERTEX
8
0
10
522.000000
20
261.000000
0
SEQEND
0
POLYLINE
8
0
6
CONTINUOUS
66
1
62
7
10
0.0
20
0.0
30
0.000000
0
VERTEX
8
0
10
601.000000
20
261.000000
0
VERTEX
8
0
10
603.750000
20
262.250000
0
VERTEX
8
0
10
603.647059
20
272.088235
0
VERTEX
8
0
10
605.230769
20
276.846154
0
VERTEX
8
0
10
615.000000
20
293.000000
0
VERTEX
8
0
10
615.000000
20
299.000000
0
VERTEX
8
0
10
613.000000
20
304.000000
0
VERTEX
8
0
10
613.000000
20
307.000000
0
VERTEX
8
0
10
614.300000
20
309.900000
0
VERTEX
8
0
10
616.000000
20
315.000000
0
VERTEX
8
0
10
621.900000
20
319.200000
0
VERTEX
8
0
10
625.100000
20
320.700000
0
VERTEX
8
0
10
636.923077
20
324.384615
0
VERTEX
8
0
10
648.932432
20
326.405405
0
VERTEX
8
0
10
668.000000
20
330.000000
0
VERTEX
8
0
10
674.000000
20
330.000000
0
VERTEX
8
0
10
681.000000
20
328.000000
0
VERTEX
8
0
10
685.000000
20
324.000000
0
VERTEX
8
0
10
685.647059
20
320.911765
0
VERTEX
8
0
10
686.800000
20
316.900000
0
VERTEX
8
0
10
689.000000
20
314.000000
0
VERTEX
8
0
10
691.000000
20
315.000000
0
VERTEX
8
0
10
692.200000
20
316.900000
0
VERTEX
8
0
10
693.000000
20
318.000000
0
VERTEX
8
0
10
693.000000
20
325.000000
0
VERTEX
8
0
10
685.100000
20
329.200000
0
VERTEX
8
0
10
682.100000
20
330.300000
0
VERTEX
8
0
10
657.000000
20
335.000000
0
VERTEX
8
0
10
650.000000
20
335.000000
0
VERTEX
8
0
10
630.088235
20
328.647059
0
VERTEX
8
0
10
622.100000
20
325.800000
0
VERTEX
8
0
10
617.846154
20
323.230769
0
VERTEX
8
0
10
591.249057
20
292.771698
0
VERTEX
8
0
10
585.247059
20
285.788235
0
VERTEX
8
0
10
582.200000
20
280.900000
0
VERTEX
8
0
10
581.000000
20
279.000000
0
VERTEX
8
0
10
581.000000
20
273.000000
0
VERTEX
8
0
10
587.000000
20
266.000000
0
VERTEX
8
0
10
592.100000
20
263.300000
0
VERTEX
8
0
10
601.000000
20
261.000000
0
SEQEND
0
POLYLINE
8
0
6
CONTINUOUS
66
1
62
7
10
0.0
20
0.0
30
0.000000
0
VERTEX
8
0
10
629.000000
20
258.000000
0
VERTEX
8
0
10
639.911765
20
261.352941
0
VERTEX
8
0
10
653.900000
20
268.200000
0
VERTEX
8
0
10
664.846154
20
276.230769
0
VERTEX
8
0
10
683.000000
20
288.000000
0
VERTEX
8
0
10
673.000000
20
295.000000
0
VERTEX
8
0
10
673.000000
20
296.000000
0
VERTEX
8
0
10
684.000000
20
303.000000
0
VERTEX
8
0
10
682.000000
20
306.000000
0
VERTEX
8
0
10
676.000000
20
306.000000
0
VERTEX
8
0
10
674.800000
20
307.900000
0
VERTEX
8
0
10
674.000000
20
309.000000
0
VERTEX
8
0
10
674.000000
20
312.000000
0
VERTEX
8
0
10
680.000000
20
318.000000
0
VERTEX
8
0
10
679.000000
20
323.000000
0
VERTEX
8
0
10
674.000000
20
325.000000
0
VERTEX
8
0
10
665.000000
20
325.000000
0
VERTEX
8
0
10
661.250000
20
323.750000
0
VERTEX
8
0
10
661.200000
20
322.100000
0
VERTEX
8
0
10
668.000000
20
312.000000
0
VERTEX
8
0
10
668.000000
20
309.000000
0
VERTEX
8
0
10
666.700000
20
306.100000
0
VERTEX
8
0
10
665.200000
20
302.900000
0
VERTEX
8
0
10
661.000000
20
295.000000
0
VERTEX
8
0
10
658.000000
20
292.000000
0
VERTEX
8
0
10
655.900000
20
291.200000
0
VERTEX
8
0
10
655.100000
20
290.800000
0
VERTEX
8
0
10
642.053846
20
288.569231
0
VERTEX
8
0
10
629.067568
20
286.594595
0
VERTEX
8
0
10
622.000000
20
283.000000
0
VERTEX
8
0
10
618.000000
20
279.000000
0
VERTEX
8
0
10
616.230769
20
275.846154
0
VERTEX
8
0
10
615.800000
20
275.100000
0
VERTEX
8
0
10
613.000000
20
270.000000
0
VERTEX
8
0
10
613.000000
20
267.000000
0
VERTEX
8
0
10
615.000000
20
263.000000
0
VERTEX
8
0
10
619.900000
20
259.800000
0
VERTEX
8
0
10
629.000000
20
258.000000
0
SEQEND
0
POLYLINE
8
0
6
CONTINUOUS
66
1
62
7
10
0.0
20
0.0
30
0.000000
0
VERTEX
8
0
10
508.000000
20
256.000000
0
VERTEX
8
0
10
511.000000
20
256.000000
0
VERTEX
8
0
10
512.000000
20
257.000000
0
SEQEND
0
POLYLINE
8
0
6
CONTINUOUS
66
1
62
7
10
0.0
20
0.0
30
0.000000
0
VERTEX
8
0
10
301.000000
20
252.000000
0
VERTEX
8
0
10
306.000000
20
256.000000
0
VERTEX
8
0
10
307.700000
20
263.100000
0
VERTEX
8
0
10
308.580000
20
266.060000
0
VERTEX
8
0
10
310.000000
20
276.000000
0
VERTEX
8
0
10
308.000000
20
278.000000
0
VERTEX
8
0
10
294.000000
20
282.000000
0
VERTEX
8
0
10
289.000000
20
282.000000
0
VERTEX
8
0
10
281.000000
20
278.000000
0
VERTEX
8
0
10
281.000000
20
272.000000
0
VERTEX
8
0
10
284.000000
20
266.000000
0
VERTEX
8
0
10
290.000000
20
260.000000
0
VERTEX
8
0
10
301.000000
20
252.000000
0
SEQEND
0
POLYLINE
8
0
6
CONTINUOUS
66
1
62
7
10
0.0
20
0.0
30
0.000000
0
VERTEX
8
0
10
256.000000
20
251.000000
0
VERTEX
8
0
10
261.200000
20
257.900000
0
VERTEX
8
0
10
264.580000
20
265.060000
0
VERTEX
8
0
10
265.000000
20
271.000000
0
VERTEX
8
0
10
264.000000
20
272.000000
0
VERTEX
8
0
10
263.100000
20
272.200000
0
VERTEX
8
0
10
257.000000
20
274.000000
0
VERTEX
8
0
10
241.000000
20
274.000000
0
VERTEX
8
0
10
238.000000
20
272.000000
0
VERTEX
8
0
10
237.000000
20
270.000000
0
VERTEX
8
0
10
238.000000
20
266.000000
0
VERTEX
8
0
10
256.000000
20
251.000000
0
SEQEND
0
POLYLINE
8
0
6
CONTINUOUS
66
1
62
7
10
0.0
20
0.0
30
0.000000
0
VERTEX
8
0
10
52.000000
20
250.000000
0
VERTEX
8
0
10
94.040984
20
254.549180
0
VERTEX
8
0
10
156.911765
20
260.352941
0
VERTEX
8
0
10
162.100000
20
261.700000
0
VERTEX
8
0
10
167.000000
20
264.000000
0
VERTEX
8
0
10
167.000000
20
265.000000
0
VERTEX
8
0
10
166.000000
20
266.000000
0
VERTEX
8
0
10
155.037931
20
266.455172
0
VERTEX
8
0
10
140.060000
20
268.420000
0
VERTEX
8
0
10
132.088235
20
270.352941
0
VERTEX
8
0
10
63.000000
20
273.000000
0
VERTEX
8
0
10
42.000000
20
273.000000
0
VERTEX
8
0
10
36.000000
20
269.000000
0
VERTEX
8
0
10
34.800000
20
267.100000
0
VERTEX
8
0
10
34.000000
20
264.000000
0
VERTEX
8
0
10
40.000000
20
251.000000
0
VERTEX
8
0
10
41.000000
20
250.000000
0
VERTEX
8
0
10
52.000000
20
250.000000
0
SEQEND
0
POLYLINE
8
0
6
CONTINUOUS
66
1
62
7
10
0.0
20
0.0
30
0.000000
0
VERTEX
8
0
10
371.000000
20
247.000000
0
VERTEX
8
0
10
376.100000
20
249.800000
0
VERTEX
8
0
10
385.000000
20
258.000000
0
VERTEX
8
0
10
385.200000
20
258.900000
0
VERTEX
8
0
10
387.000000
20
262.000000
0
VERTEX
8
0
10
387.000000
20
271.000000
0
VERTEX
8
0
10
385.647059
20
274.911765
0
VERTEX
8
0
10
384.000000
20
282.000000
0
VERTEX
8
0
10
381.000000
20
284.000000
0
VERTEX
8
0
10
372.000000
20
284.000000
0
VERTEX
8
0
10
364.000000
20
280.000000
0
VERTEX
8
0
10
354.769231
20
269.153846
0
VERTEX
8
0
10
350.000000
20
260.000000
0
VERTEX
8
0
10
350.000000
20
259.000000
0
VERTEX
8
0
10
362.900000
20
250.800000
0
VERTEX
8
0
10
371.000000
20
247.000000
0
SEQEND
0
POLYLINE
8
0
6
CONTINUOUS
66
1
62
7
10
0.0
20
0.0
30
0.000000
0
VERTEX
8
0
10
508.000000
20
256.000000
0
VERTEX
8
0
10
506.923077
20
256.615385
0
VERTEX
8
0
10
460.000000
20
260.000000
0
VERTEX
8
0
10
426.000000
20
260.000000
0
VERTEX
8
0
10
421.100000
20
257.800000
0
VERTEX
8
0
10
419.100000
20
256.800000
0
VERTEX
8
0
10
416.000000
20
255.000000
0
VERTEX
8
0
10
418.000000
20
252.000000
0
VERTEX
8
0
10
428.000000
20
246.000000
0
VERTEX
8
0
10
443.000000
20
246.000000
0
VERTEX
8
0
10
444.067568
20
246.594595
0
VERTEX
8
0
10
502.067568
20
254.594595
0
VERTEX
8
0
10
508.000000
20
256.000000
0
SEQEND
0
POLYLINE
8
0
6
CONTINUOUS
66
1
62
7
10
0.0
20
0.0
30
0.000000
0
VERTEX
8
0
10
223.000000
20
241.000000
0
VERTEX
8
0
10
224.769231
20
243.153846
0
VERTEX
8
0
10
227.000000
20
249.000000
0
VERTEX
8
0
10
227.000000
20
259.000000
0
VERTEX
8
0
10
225.700000
20
261.900000
0
VERTEX
8
0
10
225.000000
20
264.000000
0
VERTEX
8
0
10
221.000000
20
268.000000
0
VERTEX
8
0
10
215.088235
20
266.647059
0
VERTEX
8
0
10
207.000000
20
262.000000
0
VERTEX
8
0
10
205.000000
20
257.000000
0
VERTEX
8
0
10
213.000000
20
248.000000
0
VERTEX
8
0
10
223.000000
20
241.000000
0
SEQEND
0
POLYLINE
8
0
6
CONTINUOUS
66
1
62
7
10
0.0
20
0.0
30
0.000000
0
VERTEX
8
0
10
267.000000
20
240.000000
0
VERTEX
8
0
10
266.000000
20
241.000000
0
VERTEX
8
0
10
267.000000
20
242.000000
0
VERTEX
8
0
10
268.000000
20
241.000000
0
SEQEND
0
POLYLINE
8
0
6
CONTINUOUS
66
1
62
7
10
0.0
20
0.0
30
0.000000
0
VERTEX
8
0
10
267.000000
20
240.000000
0
VERTEX
8
0
10
268.000000
20
241.000000
0
SEQEND
0
POLYLINE
8
0
6
CONTINUOUS
66
1
62
7
10
0.0
20
0.0
30
0.000000
0
VERTEX
8
0
10
270.000000
20
240.000000
0
VERTEX
8
0
10
268.000000
20
241.000000
0
SEQEND
0
POLYLINE
8
0
6
CONTINUOUS
66
1
62
7
10
0.0
20
0.0
30
0.000000
0
VERTEX
8
0
10
636.000000
20
240.000000
0
VERTEX
8
0
10
641.932432
20
241.405405
0
VERTEX
8
0
10
652.900000
20
246.200000
0
VERTEX
8
0
10
655.900000
20
247.300000
0
VERTEX
8
0
10
664.795082
20
252.245902
0
VERTEX
8
0
10
676.795082
20
262.245902
0
VERTEX
8
0
10
692.000000
20
275.000000
0
VERTEX
8
0
10
693.000000
20
277.000000
0
VERTEX
8
0
10
693.000000
20
282.000000
0
VERTEX
8
0
10
691.000000
20
284.000000
0
VERTEX
8
0
10
688.000000
20
284.000000
0
VERTEX
8
0
10
659.153846
20
266.769231
0
VERTEX
8
0
10
646.153846
20
258.769231
0
VERTEX
8
0
10
630.000000
20
250.000000
0
VERTEX
8
0
10
613.000000
20
250.000000
0
VERTEX
8
0
10
591.088235
20
255.352941
0
VERTEX
8
0
10
579.100000
20
261.200000
0
VERTEX
8
0
10
577.000000
20
262.000000
0
VERTEX
8
0
10
573.700000
20
268.900000
0
VERTEX
8
0
10
572.800000
20
270.900000
0
VERTEX
8
0
10
572.000000
20
272.000000
0
VERTEX
8
0
10
572.000000
20
282.000000
0
VERTEX
8
0
10
573.200000
20
283.900000
0
VERTEX
8
0
10
573.800000
20
285.100000
0
VERTEX
8
0
10
598.000000
20
311.000000
0
VERTEX
8
0
10
595.000000
20
313.000000
0
VERTEX
8
0
10
590.923077
20
312.384615
0
VERTEX
8
0
10
585.900000
20
311.300000
0
VERTEX
8
0
10
579.180000
20
307.760000
0
VERTEX
8
0
10
572.846154
20
303.230769
0
VERTEX
8
0
10
567.000000
20
298.000000
0
VERTEX
8
0
10
563.461538
20
292.692308
0
VERTEX
8
0
10
560.000000
20
282.000000
0
VERTEX
8
0
10
560.000000
20
270.000000
0
VERTEX
8
0
10
563.200000
20
264.100000
0
VERTEX
8
0
10
566.000000
20
260.000000
0
VERTEX
8
0
10
578.100000
20
254.200000
0
VERTEX
8
0
10
580.900000
20
252.800000
0
VERTEX
8
0
10
590.911765
20
248.647059
0
VERTEX
8
0
10
593.900000
20
247.700000
0
VERTEX
8
0
10
621.048780
20
241.439024
0
VERTEX
8
0
10
636.000000
20
240.000000
0
SEQEND
0
POLYLINE
8
0
6
CONTINUOUS
66
1
62
7
10
0.0
20
0.0
30
0.000000
0
VERTEX
8
0
10
269.000000
20
239.000000
0
VERTEX
8
0
10
267.000000
20
240.000000
0
SEQEND
0
POLYLINE
8
0
6
CONTINUOUS
66
1
62
7
10
0.0
20
0.0
30
0.000000
0
VERTEX
8
0
10
269.000000
20
239.000000
0
VERTEX
8
0
10
270.000000
20
240.000000
0
SEQEND
0
POLYLINE
8
0
6
CONTINUOUS
66
1
62
7
10
0.0
20
0.0
30
0.000000
0
VERTEX
8
0
10
328.000000
20
238.000000
0
VERTEX
8
0
10
330.000000
20
239.000000
0
VERTEX
8
0
10
335.700000
20
248.100000
0
VERTEX
8
0
10
336.615385
20
251.076923
0
VERTEX
8
0
10
338.000000
20
258.000000
0
VERTEX
8
0
10
320.000000
20
271.000000
0
VERTEX
8
0
10
313.800000
20
260.100000
0
VERTEX
8
0
10
313.200000
20
258.900000
0
VERTEX
8
0
10
310.000000
20
251.000000
0
VERTEX
8
0
10
311.230769
20
249.153846
0
VERTEX
8
0
10
315.000000
20
244.000000
0
VERTEX
8
0
10
315.900000
20
243.800000
0
VERTEX
8
0
10
326.100000
20
238.300000
0
VERTEX
8
0
10
328.000000
20
238.000000
0
SEQEND
0
POLYLINE
8
0
6
CONTINUOUS
66
1
62
7
10
0.0
20
0.0
30
0.000000
0
VERTEX
8
0
10
242.000000
20
236.000000
0
VERTEX
8
0
10
246.000000
20
237.000000
0
VERTEX
8
0
10
248.000000
20
239.000000
0
VERTEX
8
0
10
249.000000
20
242.000000
0
VERTEX
8
0
10
249.000000
20
246.000000
0
VERTEX
8
0
10
248.000000
20
249.000000
0
VERTEX
8
0
10
238.153846
20
258.230769
0
VERTEX
8
0
10
236.000000
20
260.000000
0
VERTEX
8
0
10
234.000000
20
258.000000
0
VERTEX
8
0
10
233.000000
20
254.000000
0
VERTEX
8
0
10
233.000000
20
243.000000
0
VERTEX
8
0
10
235.000000
20
239.000000
0
VERTEX
8
0
10
236.900000
20
237.800000
0
VERTEX
8
0
10
242.000000
20
236.000000
0
SEQEND
0
POLYLINE
8
0
6
CONTINUOUS
66
1
62
7
10
0.0
20
0.0
30
0.000000
0
VERTEX
8
0
10
270.000000
20
240.000000
0
VERTEX
8
0
10
271.900000
20
239.700000
0
VERTEX
8
0
10
282.900000
20
234.800000
0
VERTEX
8
0
10
284.000000
20
234.000000
0
VERTEX
8
0
10
290.846154
20
237.230769
0
VERTEX
8
0
10
294.000000
20
239.000000
0
VERTEX
8
0
10
295.300000
20
241.900000
0
VERTEX
8
0
10
296.000000
20
243.000000
0
VERTEX
8
0
10
295.000000
20
249.000000
0
VERTEX
8
0
10
287.000000
20
257.000000
0
VERTEX
8
0
10
273.800000
20
267.400000
0
VERTEX
8
0
10
272.000000
20
267.000000
0
VERTEX
8
0
10
269.000000
20
264.000000
0
VERTEX
8
0
10
263.000000
20
244.000000
0
VERTEX
8
0
10
259.000000
20
244.000000
0
VERTEX
8
0
10
257.000000
20
242.000000
0
VERTEX
8
0
10
257.000000
20
239.000000
0
VERTEX
8
0
10
259.000000
20
236.000000
0
VERTEX
8
0
10
260.900000
20
235.700000
0
VERTEX
8
0
10
273.000000
20
233.000000
0
VERTEX
8
0
10
274.000000
20
235.000000
0
VERTEX
8
0
10
271.153846
20
237.230769
0
VERTEX
8
0
10
269.000000
20
239.000000
0
SEQEND
0
POLYLINE
8
0
6
CONTINUOUS
66
1
62
7
10
0.0
20
0.0
30
0.000000
0
VERTEX
8
0
10
449.000000
20
233.000000
0
VERTEX
8
0
10
480.067568
20
237.594595
0
VERTEX
8
0
10
514.911765
20
244.352941
0
VERTEX
8
0
10
516.900000
20
245.200000
0
VERTEX
8
0
10
523.000000
20
248.000000
0
VERTEX
8
0
10
523.200000
20
248.900000
0
VERTEX
8
0
10
524.000000
20
250.000000
0
VERTEX
8
0
10
522.000000
20
252.000000
0
VERTEX
8
0
10
499.969027
20
250.464602
0
VERTEX
8
0
10
486.030973
20
249.535398
0
VERTEX
8
0
10
461.911765
20
246.352941
0
VERTEX
8
0
10
459.088235
20
245.647059
0
VERTEX
8
0
10
436.000000
20
239.000000
0
VERTEX
8
0
10
435.000000
20
238.000000
0
VERTEX
8
0
10
435.000000
20
237.000000
0
VERTEX
8
0
10
437.000000
20
235.000000
0
VERTEX
8
0
10
440.088235
20
234.352941
0
VERTEX
8
0
10
449.000000
20
233.000000
0
SEQEND
0
POLYLINE
8
0
6
CONTINUOUS
66
1
62
7
10
0.0
20
0.0
30
0.000000
0
VERTEX
8
0
10
625.000000
20
233.000000
0
VERTEX
8
0
10
624.000000
20
233.000000
0
SEQEND
0
POLYLINE
8
0
6
CONTINUOUS
66
1
62
7
10
0.0
20
0.0
30
0.000000
0
VERTEX
8
0
10
219.000000
20
232.000000
0
VERTEX
8
0
10
220.000000
20
233.000000
0
VERTEX
8
0
10
219.000000
20
237.000000
0
VERTEX
8
0
10
209.195122
20
246.243902
0
VERTEX
8
0
10
192.000000
20
260.000000
0
VERTEX
8
0
10
185.000000
20
260.000000
0
VERTEX
8
0
10
180.000000
20
257.000000
0
VERTEX
8
0
10
180.000000
20
251.000000
0
VERTEX
8
0
10
184.000000
20
245.000000
0
VERTEX
8
0
10
189.846154
20
240.769231
0
VERTEX
8
0
10
202.088235
20
234.352941
0
VERTEX
8
0
10
204.911765
20
233.647059
0
VERTEX
8
0
10
219.000000
20
232.000000
0
SEQEND
0
POLYLINE
8
0
6
CONTINUOUS
66
1
62
7
10
0.0
20
0.0
30
0.000000
0
VERTEX
8
0
10
412.000000
20
228.000000
0
VERTEX
8
0
10
413.800000
20
231.100000
0
VERTEX
8
0
10
416.000000
20
236.000000
0
VERTEX
8
0
10
414.000000
20
240.000000
0
VERTEX
8
0
10
411.180000
20
242.240000
0
VERTEX
8
0
10
403.820000
20
247.760000
0
VERTEX
8
0
10
395.153846
20
254.230769
0
VERTEX
8
0
10
393.230769
20
254.846154
0
VERTEX
8
0
10
389.000000
20
253.000000
0
VERTEX
8
0
10
385.000000
20
249.000000
0
VERTEX
8
0
10
382.000000
20
243.000000
0
VERTEX
8
0
10
382.000000
20
242.000000
0
VERTEX
8
0
10
383.846154
20
240.769231
0
VERTEX
8
0
10
386.153846
20
239.230769
0
VERTEX
8
0
10
404.900000
20
229.800000
0
VERTEX
8
0
10
412.000000
20
228.000000
0
SEQEND
0
POLYLINE
8
0
6
CONTINUOUS
66
1
62
7
10
0.0
20
0.0
30
0.000000
0
VERTEX
8
0
10
321.000000
20
224.000000
0
VERTEX
8
0
10
323.000000
20
226.000000
0
VERTEX
8
0
10
322.000000
20
232.000000
0
VERTEX
8
0
10
320.000000
20
234.000000
0
VERTEX
8
0
10
308.900000
20
240.800000
0
VERTEX
8
0
10
307.000000
20
242.000000
0
VERTEX
8
0
10
304.900000
20
241.200000
0
VERTEX
8
0
10
304.100000
20
240.800000
0
VERTEX
8
0
10
300.000000
20
238.000000
0
VERTEX
8
0
10
299.769231
20
237.153846
0
VERTEX
8
0
10
297.000000
20
233.000000
0
VERTEX
8
0
10
299.000000
20
231.000000
0
VERTEX
8
0
10
308.900000
20
226.700000
0
VERTEX
8
0
10
321.000000
20
224.000000
0
SEQEND
0
POLYLINE
8
0
6
CONTINUOUS
66
1
62
7
10
0.0
20
0.0
30
0.000000
0
VERTEX
8
0
10
624.000000
20
233.000000
0
VERTEX
8
0
10
617.946154
20
235.569231
0
VERTEX
8
0
10
611.053846
20
236.430769
0
VERTEX
8
0
10
587.911765
20
240.647059
0
VERTEX
8
0
10
581.900000
20
242.800000
0
VERTEX
8
0
10
567.000000
20
252.000000
0
VERTEX
8
0
10
560.752941
20
258.788235
0
VERTEX
8
0
10
554.000000
20
267.000000
0
VERTEX
8
0
10
555.000000
20
270.000000
0
VERTEX
8
0
10
553.100000
20
271.200000
0
VERTEX
8
0
10
547.000000
20
273.000000
0
VERTEX
8
0
10
543.000000
20
273.000000
0
VERTEX
8
0
10
537.000000
20
269.000000
0
VERTEX
8
0
10
534.800000
20
266.100000
0
VERTEX
8
0
10
534.000000
20
263.000000
0
VERTEX
8
0
10
537.200000
20
254.100000
0
VERTEX
8
0
10
537.800000
20
252.900000
0
VERTEX
8
0
10
539.000000
20
250.000000
0
VERTEX
8
0
10
553.000000
20
236.000000
0
VERTEX
8
0
10
577.088235
20
235.352941
0
VERTEX
8
0
10
581.846154
20
233.769231
0
VERTEX
8
0
10
591.211765
20
226.247059
0
VERTEX
8
0
10
594.000000
20
223.000000
0
VERTEX
8
0
10
599.000000
20
223.000000
0
VERTEX
8
0
10
622.900000
20
232.200000
0
VERTEX
8
0
10
624.000000
20
233.000000
0
SEQEND
0
POLYLINE
8
0
6
CONTINUOUS
66
1
62
7
10
0.0
20
0.0
30
0.000000
0
VERTEX
8
0
10
359.000000
20
222.000000
0
VERTEX
8
0
10
360.769231
20
224.153846
0
VERTEX
8
0
10
363.647059
20
230.088235
0
VERTEX
8
0
10
366.000000
20
239.000000
0
VERTEX
8
0
10
365.000000
20
241.000000
0
VERTEX
8
0
10
359.153846
20
245.230769
0
VERTEX
8
0
10
356.100000
20
247.200000
0
VERTEX
8
0
10
351.000000
20
250.000000
0
VERTEX
8
0
10
344.000000
20
250.000000
0
VERTEX
8
0
10
339.000000
20
245.000000
0
VERTEX
8
0
10
337.000000
20
233.000000
0
VERTEX
8
0
10
342.000000
20
227.000000
0
VERTEX
8
0
10
344.100000
20
226.200000
0
VERTEX
8
0
10
344.900000
20
225.800000
0
VERTEX
8
0
10
353.060000
20
222.420000
0
VERTEX
8
0
10
359.000000
20
222.000000
0
SEQEND
0
POLYLINE
8
0
6
CONTINUOUS
66
1
62
7
10
0.0
20
0.0
30
0.000000
0
VERTEX
8
0
10
469.000000
20
221.000000
0
VERTEX
8
0
10
471.000000
20
222.000000
0
VERTEX
8
0
10
474.000000
20
225.000000
0
VERTEX
8
0
10
473.000000
20
227.000000
0
VERTEX
8
0
10
466.000000
20
226.000000
0
VERTEX
8
0
10
465.000000
20
224.000000
0
VERTEX
8
0
10
467.900000
20
221.800000
0
VERTEX
8
0
10
469.000000
20
221.000000
0
SEQEND
0
POLYLINE
8
0
6
CONTINUOUS
66
1
62
7
10
0.0
20
0.0
30
0.000000
0
VERTEX
8
0
10
533.000000
20
221.000000
0
VERTEX
8
0
10
536.911765
20
222.352941
0
VERTEX
8
0
10
541.000000
20
224.000000
0
VERTEX
8
0
10
542.200000
20
228.100000
0
VERTEX
8
0
10
539.000000
20
234.000000
0
VERTEX
8
0
10
533.100000
20
239.200000
0
VERTEX
8
0
10
530.000000
20
241.000000
0
VERTEX
8
0
10
523.000000
20
241.000000
0
VERTEX
8
0
10
515.053846
20
239.569231
0
VERTEX
8
0
10
509.000000
20
237.000000
0
VERTEX
8
0
10
508.000000
20
236.000000
0
VERTEX
8
0
10
508.000000
20
233.000000
0
VERTEX
8
0
10
512.000000
20
229.000000
0
VERTEX
8
0
10
528.100000
20
222.300000
0
VERTEX
8
0
10
533.000000
20
221.000000
0
SEQEND
0
POLYLINE
8
0
6
CONTINUOUS
66
1
62
7
10
0.0
20
0.0
30
0.000000
0
VERTEX
8
0
10
548.000000
20
221.000000
0
VERTEX
8
0
10
550.000000
20
224.000000
0
SEQEND
0
POLYLINE
8
0
6
CONTINUOUS
66
1
62
7
10
0.0
20
0.0
30
0.000000
0
VERTEX
8
0
10
348.000000
20
217.000000
0
VERTEX
8
0
10
347.000000
20
217.000000
0
VERTEX
8
0
10
333.000000
20
221.000000
0
VERTEX
8
0
10
330.000000
20
224.000000
0
VERTEX
8
0
10
330.000000
20
225.000000
0
VERTEX
8
0
10
332.000000
20
228.000000
0
VERTEX
8
0
10
333.000000
20
228.000000
0
VERTEX
8
0
10
345.846154
20
219.769231
0
VERTEX
8
0
10
348.000000
20
218.000000
0
SEQEND
0
POLYLINE
8
0
6
CONTINUOUS
66
1
62
7
10
0.0
20
0.0
30
0.000000
0
VERTEX
8
0
10
348.000000
20
217.000000
0
VERTEX
8
0
10
348.000000
20
218.000000
0
SEQEND
0
POLYLINE
8
0
6
CONTINUOUS
66
1
62
7
10
0.0
20
0.0
30
0.000000
0
VERTEX
8
0
10
350.000000
20
216.000000
0
VERTEX
8
0
10
348.000000
20
217.000000
0
SEQEND
0
POLYLINE
8
0
6
CONTINUOUS
66
1
62
7
10
0.0
20
0.0
30
0.000000
0
VERTEX
8
0
10
65.000000
20
214.000000
0
VERTEX
8
0
10
97.911765
20
221.352941
0
VERTEX
8
0
10
151.100000
20
235.800000
0
VERTEX
8
0
10
168.000000
20
243.000000
0
VERTEX
8
0
10
170.200000
20
245.900000
0
VERTEX
8
0
10
172.000000
20
250.000000
0
VERTEX
8
0
10
170.000000
20
252.000000
0
VERTEX
8
0
10
163.000000
20
254.000000
0
VERTEX
8
0
10
132.951220
20
251.439024
0
VERTEX
8
0
10
85.951220
20
247.439024
0
VERTEX
8
0
10
45.000000
20
242.000000
0
VERTEX
8
0
10
44.250000
20
241.750000
0
VERTEX
8
0
10
43.000000
20
238.000000
0
VERTEX
8
0
10
43.000000
20
228.000000
0
VERTEX
8
0
10
44.230769
20
226.153846
0
VERTEX
8
0
10
47.000000
20
221.000000
0
VERTEX
8
0
10
49.900000
20
218.800000
0
VERTEX
8
0
10
60.067568
20
214.405405
0
VERTEX
8
0
10
65.000000
20
214.000000
0
SEQEND
0
POLYLINE
8
0
6
CONTINUOUS
66
1
62
7
10
0.0
20
0.0
30
0.000000
0
VERTEX
8
0
10
486.000000
20
211.000000
0
VERTEX
8
0
10
484.000000
20
212.000000
0
SEQEND
0
POLYLINE
8
0
6
CONTINUOUS
66
1
62
7
10
0.0
20
0.0
30
0.000000
0
VERTEX
8
0
10
397.000000
20
210.000000
0
VERTEX
8
0
10
399.000000
20
211.000000
0
VERTEX
8
0
10
403.000000
20
216.000000
0
VERTEX
8
0
10
401.800000
20
218.900000
0
VERTEX
8
0
10
399.000000
20
224.000000
0
VERTEX
8
0
10
387.900000
20
230.800000
0
VERTEX
8
0
10
376.000000
20
235.000000
0
VERTEX
8
0
10
371.000000
20
230.000000
0
VERTEX
8
0
10
367.300000
20
219.900000
0
VERTEX
8
0
10
366.000000
20
215.000000
0
VERTEX
8
0
10
367.000000
20
214.000000
0
VERTEX
8
0
10
385.035294
20
210.458824
0
VERTEX
8
0
10
397.000000
20
210.000000
0
SEQEND
0
POLYLINE
8
0
6
CONTINUOUS
66
1
62
7
10
0.0
20
0.0
30
0.000000
0
VERTEX
8
0
10
355.000000
20
209.000000
0
VERTEX
8
0
10
354.000000
20
209.000000
0
SEQEND
0
POLYLINE
8
0
6
CONTINUOUS
66
1
62
7
10
0.0
20
0.0
30
0.000000
0
VERTEX
8
0
10
429.000000
20
205.000000
0
VERTEX
8
0
10
428.000000
20
205.000000
0
SEQEND
0
POLYLINE
8
0
6
CONTINUOUS
66
1
62
7
10
0.0
20
0.0
30
0.000000
0
VERTEX
8
0
10
486.000000
20
211.000000
0
VERTEX
8
0
10
487.000000
20
211.000000
0
VERTEX
8
0
10
503.000000
20
205.000000
0
VERTEX
8
0
10
511.100000
20
207.800000
0
VERTEX
8
0
10
513.900000
20
209.200000
0
VERTEX
8
0
10
521.000000
20
213.000000
0
VERTEX
8
0
10
520.000000
20
218.000000
0
VERTEX
8
0
10
516.180000
20
221.240000
0
VERTEX
8
0
10
512.153846
20
224.230769
0
VERTEX
8
0
10
501.923077
20
229.615385
0
VERTEX
8
0
10
498.076923
20
230.384615
0
VERTEX
8
0
10
490.000000
20
231.000000
0
VERTEX
8
0
10
484.000000
20
228.000000
0
VERTEX
8
0
10
481.000000
20
225.000000
0
VERTEX
8
0
10
479.500000
20
221.000000
0
VERTEX
8
0
10
481.230769
20
217.153846
0
VERTEX
8
0
10
484.000000
20
212.000000
0
SEQEND
0
POLYLINE
8
0
6
CONTINUOUS
66
1
62
7
10
0.0
20
0.0
30
0.000000
0
VERTEX
8
0
10
428.000000
20
205.000000
0
VERTEX
8
0
10
424.820000
20
207.760000
0
VERTEX
8
0
10
413.900000
20
213.800000
0
VERTEX
8
0
10
410.000000
20
215.000000
0
VERTEX
8
0
10
409.000000
20
214.000000
0
VERTEX
8
0
10
408.000000
20
208.000000
0
VERTEX
8
0
10
410.000000
20
206.000000
0
VERTEX
8
0
10
413.067568
20
205.405405
0
VERTEX
8
0
10
417.932432
20
204.594595
0
VERTEX
8
0
10
427.000000
20
204.000000
0
VERTEX
8
0
10
428.000000
20
205.000000
0
SEQEND
0
POLYLINE
8
0
6
CONTINUOUS
66
1
62
7
10
0.0
20
0.0
30
0.000000
0
VERTEX
8
0
10
449.000000
20
203.000000
0
VERTEX
8
0
10
457.000000
20
210.000000
0
VERTEX
8
0
10
461.000000
20
217.000000
0
VERTEX
8
0
10
460.000000
20
220.000000
0
VERTEX
8
0
10
454.911765
20
222.647059
0
VERTEX
8
0
10
424.000000
20
229.000000
0
VERTEX
8
0
10
418.000000
20
228.000000
0
VERTEX
8
0
10
416.000000
20
226.000000
0
VERTEX
8
0
10
416.000000
20
222.000000
0
VERTEX
8
0
10
420.000000
20
218.000000
0
VERTEX
8
0
10
446.100000
20
204.200000
0
VERTEX
8
0
10
449.000000
20
203.000000
0
SEQEND
0
POLYLINE
8
0
6
CONTINUOUS
66
1
62
7
10
0.0
20
0.0
30
0.000000
0
VERTEX
8
0
10
492.000000
20
203.000000
0
VERTEX
8
0
10
486.000000
20
210.000000
0
VERTEX
8
0
10
486.000000
20
211.000000
0
SEQEND
0
POLYLINE
8
0
6
CONTINUOUS
66
1
62
7
10
0.0
20
0.0
30
0.000000
0
VERTEX
8
0
10
494.000000
20
203.000000
0
VERTEX
8
0
10
492.000000
20
203.000000
0
SEQEND
0
POLYLINE
8
0
6
CONTINUOUS
66
1
62
7
10
0.0
20
0.0
30
0.000000
0
VERTEX
8
0
10
484.000000
20
212.000000
0
VERTEX
8
0
10
470.000000
20
214.000000
0
VERTEX
8
0
10
468.100000
20
212.800000
0
VERTEX
8
0
10
466.900000
20
212.200000
0
VERTEX
8
0
10
464.000000
20
211.000000
0
VERTEX
8
0
10
459.000000
20
206.000000
0
VERTEX
8
0
10
460.000000
20
204.000000
0
VERTEX
8
0
10
466.000000
20
200.000000
0
VERTEX
8
0
10
475.044554
20
200.554455
0
VERTEX
8
0
10
492.000000
20
203.000000
0
SEQEND
0
POLYLINE
8
0
6
CONTINUOUS
66
1
62
7
10
0.0
20
0.0
30
0.000000
0
VERTEX
8
0
10
714.000000
20
200.000000
0
VERTEX
8
0
10
717.800000
20
205.100000
0
VERTEX
8
0
10
725.700000
20
223.100000
0
VERTEX
8
0
10
727.200000
20
226.900000
0
VERTEX
8
0
10
733.352941
20
245.911765
0
VERTEX
8
0
10
737.352941
20
263.911765
0
VERTEX
8
0
10
740.000000
20
283.000000
0
VERTEX
8
0
10
740.000000
20
293.000000
0
VERTEX
8
0
10
739.000000
20
294.000000
0
VERTEX
8
0
10
735.000000
20
295.000000
0
VERTEX
8
0
10
730.900000
20
293.200000
0
VERTEX
8
0
10
698.180000
20
271.760000
0
VERTEX
8
0
10
682.820000
20
260.240000
0
VERTEX
8
0
10
663.100000
20
245.800000
0
VERTEX
8
0
10
661.900000
20
245.200000
0
VERTEX
8
0
10
656.000000
20
242.000000
0
VERTEX
8
0
10
653.000000
20
239.000000
0
VERTEX
8
0
10
653.000000
20
237.000000
0
VERTEX
8
0
10
658.846154
20
232.769231
0
VERTEX
8
0
10
672.153846
20
224.230769
0
VERTEX
8
0
10
679.788235
20
219.752941
0
VERTEX
8
0
10
694.216814
20
207.247788
0
VERTEX
8
0
10
702.206897
20
201.517241
0
VERTEX
8
0
10
704.911765
20
200.647059
0
VERTEX
8
0
10
714.000000
20
200.000000
0
SEQEND
0
POLYLINE
8
0
6
CONTINUOUS
66
1
62
7
10
0.0
20
0.0
30
0.000000
0
VERTEX
8
0
10
88.000000
20
179.000000
0
VERTEX
8
0
10
179.900000
20
229.200000
0
VERTEX
8
0
10
185.000000
20
232.000000
0
VERTEX
8
0
10
185.000000
20
233.000000
0
VERTEX
8
0
10
182.000000
20
236.000000
0
VERTEX
8
0
10
177.000000
20
236.000000
0
VERTEX
8
0
10
120.076923
20
222.615385
0
VERTEX
8
0
10
114.911765
20
221.352941
0
VERTEX
8
0
10
78.900000
20
210.300000
0
VERTEX
8
0
10
75.900000
20
209.300000
0
VERTEX
8
0
10
66.000000
20
206.000000
0
VERTEX
8
0
10
64.000000
20
203.000000
0
VERTEX
8
0
10
67.200000
20
190.100000
0
VERTEX
8
0
10
70.000000
20
185.000000
0
VERTEX
8
0
10
75.900000
20
180.800000
0
VERTEX
8
0
10
80.048780
20
179.439024
0
VERTEX
8
0
10
88.000000
20
179.000000
0
SEQEND
0
POLYLINE
8
0
6
CONTINUOUS
66
1
62
7
10
0.0
20
0.0
30
0.000000
0
VERTEX
8
0
10
509.000000
20
176.000000
0
VERTEX
8
0
10
509.000000
20
177.000000
0
VERTEX
8
0
10
513.000000
20
181.000000
0
VERTEX
8
0
10
520.153846
20
185.769231
0
VERTEX
8
0
10
521.000000
20
186.000000
0
VERTEX
8
0
10
539.240000
20
208.820000
0
VERTEX
8
0
10
548.000000
20
221.000000
0
SEQEND
0
POLYLINE
8
0
6
CONTINUOUS
66
1
62
7
10
0.0
20
0.0
30
0.000000
0
VERTEX
8
0
10
507.000000
20
175.000000
0
VERTEX
8
0
10
509.000000
20
176.000000
0
SEQEND
0
POLYLINE
8
0
6
CONTINUOUS
66
1
62
7
10
0.0
20
0.0
30
0.000000
0
VERTEX
8
0
10
503.000000
20
173.000000
0
VERTEX
8
0
10
502.000000
20
174.000000
0
SEQEND
0
POLYLINE
8
0
6
CONTINUOUS
66
1
62
7
10
0.0
20
0.0
30
0.000000
0
VERTEX
8
0
10
503.000000
20
173.000000
0
VERTEX
8
0
10
505.000000
20
174.000000
0
VERTEX
8
0
10
503.000000
20
175.000000
0
VERTEX
8
0
10
502.000000
20
174.000000
0
SEQEND
0
POLYLINE
8
0
6
CONTINUOUS
66
1
62
7
10
0.0
20
0.0
30
0.000000
0
VERTEX
8
0
10
395.000000
20
172.000000
0
VERTEX
8
0
10
396.100000
20
172.800000
0
VERTEX
8
0
10
404.000000
20
179.000000
0
VERTEX
8
0
10
421.000000
20
196.000000
0
VERTEX
8
0
10
419.100000
20
197.200000
0
VERTEX
8
0
10
418.000000
20
198.000000
0
VERTEX
8
0
10
413.000000
20
198.000000
0
VERTEX
8
0
10
410.100000
20
196.700000
0
VERTEX
8
0
10
389.180000
20
181.760000
0
VERTEX
8
0
10
383.000000
20
177.000000
0
VERTEX
8
0
10
385.000000
20
175.000000
0
VERTEX
8
0
10
390.088235
20
173.352941
0
VERTEX
8
0
10
395.000000
20
172.000000
0
SEQEND
0
POLYLINE
8
0
6
CONTINUOUS
66
1
62
7
10
0.0
20
0.0
30
0.000000
0
VERTEX
8
0
10
420.000000
20
170.000000
0
VERTEX
8
0
10
421.100000
20
170.700000
0
VERTEX
8
0
10
425.000000
20
172.000000
0
VERTEX
8
0
10
431.000000
20
178.000000
0
VERTEX
8
0
10
432.600000
20
181.200000
0
VERTEX
8
0
10
434.000000
20
184.000000
0
VERTEX
8
0
10
433.300000
20
188.100000
0
VERTEX
8
0
10
433.000000
20
190.000000
0
VERTEX
8
0
10
430.000000
20
193.000000
0
VERTEX
8
0
10
425.204918
20
190.754098
0
VERTEX
8
0
10
419.795082
20
186.245902
0
VERTEX
8
0
10
406.000000
20
173.000000
0
VERTEX
8
0
10
407.000000
20
171.000000
0
VERTEX
8
0
10
411.044554
20
170.445545
0
VERTEX
8
0
10
420.000000
20
170.000000
0
SEQEND
0
POLYLINE
8
0
6
CONTINUOUS
66
1
62
7
10
0.0
20
0.0
30
0.000000
0
VERTEX
8
0
10
494.000000
20
170.000000
0
VERTEX
8
0
10
492.000000
20
170.000000
0
SEQEND
0
POLYLINE
8
0
6
CONTINUOUS
66
1
62
7
10
0.0
20
0.0
30
0.000000
0
VERTEX
8
0
10
494.000000
20
170.000000
0
VERTEX
8
0
10
494.000000
20
171.000000
0
VERTEX
8
0
10
499.088235
20
173.647059
0
VERTEX
8
0
10
502.000000
20
174.000000
0
SEQEND
0
POLYLINE
8
0
6
CONTINUOUS
66
1
62
7
10
0.0
20
0.0
30
0.000000
0
VERTEX
8
0
10
494.000000
20
170.000000
0
VERTEX
8
0
10
497.911765
20
170.352941
0
VERTEX
8
0
10
501.900000
20
172.200000
0
VERTEX
8
0
10
503.000000
20
173.000000
0
SEQEND
0
POLYLINE
8
0
6
CONTINUOUS
66
1
62
7
10
0.0
20
0.0
30
0.000000
0
VERTEX
8
0
10
148.000000
20
169.000000
0
VERTEX
8
0
10
153.088235
20
170.647059
0
VERTEX
8
0
10
168.900000
20
175.200000
0
VERTEX
8
0
10
172.100000
20
176.800000
0
VERTEX
8
0
10
187.000000
20
184.000000
0
VERTEX
8
0
10
192.000000
20
189.000000
0
VERTEX
8
0
10
192.000000
20
190.000000
0
VERTEX
8
0
10
205.820000
20
203.240000
0
VERTEX
8
0
10
209.180000
20
205.760000
0
VERTEX
8
0
10
219.000000
20
213.000000
0
VERTEX
8
0
10
224.230769
20
218.846154
0
VERTEX
8
0
10
226.000000
20
221.000000
0
VERTEX
8
0
10
225.000000
20
222.000000
0
VERTEX
8
0
10
222.000000
20
222.000000
0
VERTEX
8
0
10
204.153846
20
210.769231
0
VERTEX
8
0
10
179.153846
20
194.769231
0
VERTEX
8
0
10
166.000000
20
186.000000
0
VERTEX
8
0
10
166.000000
20
185.000000
0
VERTEX
8
0
10
164.100000
20
183.800000
0
VERTEX
8
0
10
146.000000
20
172.000000
0
VERTEX
8
0
10
144.000000
20
170.000000
0
VERTEX
8
0
10
145.000000
20
169.000000
0
VERTEX
8
0
10
148.000000
20
169.000000
0
SEQEND
0
POLYLINE
8
0
6
CONTINUOUS
66
1
62
7
10
0.0
20
0.0
30
0.000000
0
VERTEX
8
0
10
446.000000
20
169.000000
0
VERTEX
8
0
10
472.911765
20
175.352941
0
VERTEX
8
0
10
483.900000
20
179.200000
0
VERTEX
8
0
10
495.900000
20
185.200000
0
VERTEX
8
0
10
503.000000
20
189.000000
0
VERTEX
8
0
10
503.000000
20
190.000000
0
VERTEX
8
0
10
510.000000
20
195.000000
0
VERTEX
8
0
10
509.000000
20
196.000000
0
VERTEX
8
0
10
499.946154
20
195.430769
0
VERTEX
8
0
10
486.060000
20
193.580000
0
VERTEX
8
0
10
485.000000
20
193.000000
0
VERTEX
8
0
10
442.000000
20
194.000000
0
VERTEX
8
0
10
441.000000
20
193.000000
0
VERTEX
8
0
10
439.647059
20
184.088235
0
VERTEX
8
0
10
431.000000
20
171.000000
0
VERTEX
8
0
10
432.000000
20
170.000000
0
VERTEX
8
0
10
437.044554
20
169.445545
0
VERTEX
8
0
10
446.000000
20
169.000000
0
SEQEND
0
POLYLINE
8
0
6
CONTINUOUS
66
1
62
7
10
0.0
20
0.0
30
0.000000
0
VERTEX
8
0
10
484.000000
20
168.000000
0
VERTEX
8
0
10
490.000000
20
170.000000
0
SEQEND
0
POLYLINE
8
0
6
CONTINUOUS
66
1
62
7
10
0.0
20
0.0
30
0.000000
0
VERTEX
8
0
10
124.000000
20
167.000000
0
VERTEX
8
0
10
143.153846
20
177.769231
0
VERTEX
8
0
10
188.804878
20
208.243902
0
VERTEX
8
0
10
198.000000
20
215.000000
0
VERTEX
8
0
10
203.000000
20
224.000000
0
VERTEX
8
0
10
200.000000
20
226.000000
0
VERTEX
8
0
10
197.000000
20
226.000000
0
VERTEX
8
0
10
152.100000
20
204.800000
0
VERTEX
8
0
10
132.900000
20
195.200000
0
VERTEX
8
0
10
105.180000
20
180.760000
0
VERTEX
8
0
10
101.000000
20
178.000000
0
VERTEX
8
0
10
100.000000
20
177.000000
0
VERTEX
8
0
10
105.153846
20
173.230769
0
VERTEX
8
0
10
115.088235
20
169.352941
0
VERTEX
8
0
10
124.000000
20
167.000000
0
SEQEND
0
POLYLINE
8
0
6
CONTINUOUS
66
1
62
7
10
0.0
20
0.0
30
0.000000
0
VERTEX
8
0
10
482.000000
20
167.000000
0
VERTEX
8
0
10
481.000000
20
167.000000
0
SEQEND
0
POLYLINE
8
0
6
CONTINUOUS
66
1
62
7
10
0.0
20
0.0
30
0.000000
0
VERTEX
8
0
10
482.000000
20
167.000000
0
VERTEX
8
0
10
482.000000
20
168.000000
0
VERTEX
8
0
10
483.000000
20
169.000000
0
VERTEX
8
0
10
484.000000
20
168.000000
0
SEQEND
0
POLYLINE
8
0
6
CONTINUOUS
66
1
62
7
10
0.0
20
0.0
30
0.000000
0
VERTEX
8
0
10
482.000000
20
167.000000
0
VERTEX
8
0
10
484.000000
20
168.000000
0
SEQEND
0
POLYLINE
8
0
6
CONTINUOUS
66
1
62
7
10
0.0
20
0.0
30
0.000000
0
VERTEX
8
0
10
513.000000
20
167.000000
0
VERTEX
8
0
10
512.000000
20
168.000000
0
SEQEND
0
POLYLINE
8
0
6
CONTINUOUS
66
1
62
7
10
0.0
20
0.0
30
0.000000
0
VERTEX
8
0
10
513.000000
20
167.000000
0
VERTEX
8
0
10
519.088235
20
167.647059
0
VERTEX
8
0
10
529.100000
20
171.800000
0
VERTEX
8
0
10
531.100000
20
172.800000
0
VERTEX
8
0
10
548.180000
20
184.760000
0
VERTEX
8
0
10
552.180000
20
187.760000
0
VERTEX
8
0
10
573.000000
20
205.000000
0
VERTEX
8
0
10
583.000000
20
215.000000
0
VERTEX
8
0
10
584.000000
20
218.000000
0
VERTEX
8
0
10
584.000000
20
219.000000
0
VERTEX
8
0
10
582.000000
20
221.000000
0
VERTEX
8
0
10
581.000000
20
221.000000
0
VERTEX
8
0
10
541.180000
20
184.760000
0
VERTEX
8
0
10
537.820000
20
182.240000
0
VERTEX
8
0
10
521.900000
20
173.200000
0
VERTEX
8
0
10
512.000000
20
168.000000
0
SEQEND
0
POLYLINE
8
0
6
CONTINUOUS
66
1
62
7
10
0.0
20
0.0
30
0.000000
0
VERTEX
8
0
10
548.000000
20
221.000000
0
VERTEX
8
0
10
547.300000
20
221.400000
0
VERTEX
8
0
10
537.216814
20
213.752212
0
VERTEX
8
0
10
529.783186
20
207.247788
0
VERTEX
8
0
10
517.204918
20
193.754098
0
VERTEX
8
0
10
503.846154
20
184.230769
0
VERTEX
8
0
10
483.900000
20
173.200000
0
VERTEX
8
0
10
475.088235
20
169.647059
0
VERTEX
8
0
10
473.932432
20
169.405405
0
VERTEX
8
0
10
467.000000
20
168.000000
0
VERTEX
8
0
10
466.000000
20
167.000000
0
VERTEX
8
0
10
467.000000
20
166.000000
0
VERTEX
8
0
10
477.000000
20
168.000000
0
VERTEX
8
0
10
480.000000
20
168.000000
0
VERTEX
8
0
10
481.000000
20
167.000000
0
SEQEND
0
POLYLINE
8
0
6
CONTINUOUS
66
1
62
7
10
0.0
20
0.0
30
0.000000
0
VERTEX
8
0
10
510.000000
20
166.000000
0
VERTEX
8
0
10
507.000000
20
166.000000
0
SEQEND
0
POLYLINE
8
0
6
CONTINUOUS
66
1
62
7
10
0.0
20
0.0
30
0.000000
0
VERTEX
8
0
10
510.000000
20
166.000000
0
VERTEX
8
0
10
510.000000
20
167.000000
0
VERTEX
8
0
10
512.000000
20
168.000000
0
SEQEND
0
POLYLINE
8
0
6
CONTINUOUS
66
1
62
7
10
0.0
20
0.0
30
0.000000
0
VERTEX
8
0
10
510.000000
20
166.000000
0
VERTEX
8
0
10
513.000000
20
167.000000
0
SEQEND
0
POLYLINE
8
0
6
CONTINUOUS
66
1
62
7
10
0.0
20
0.0
30
0.000000
0
VERTEX
8
0
10
444.000000
20
162.000000
0
VERTEX
8
0
10
443.000000
20
162.000000
0
SEQEND
0
POLYLINE
8
0
6
CONTINUOUS
66
1
62
7
10
0.0
20
0.0
30
0.000000
0
VERTEX
8
0
10
444.000000
20
162.000000
0
VERTEX
8
0
10
450.019169
20
163.520767
0
VERTEX
8
0
10
473.980831
20
164.479233
0
VERTEX
8
0
10
476.900000
20
165.300000
0
VERTEX
8
0
10
481.000000
20
167.000000
0
SEQEND
0
POLYLINE
8
0
6
CONTINUOUS
66
1
62
7
10
0.0
20
0.0
30
0.000000
0
VERTEX
8
0
10
231.000000
20
160.000000
0
VERTEX
8
0
10
230.000000
20
160.000000
0
SEQEND
0
POLYLINE
8
0
6
CONTINUOUS
66
1
62
7
10
0.0
20
0.0
30
0.000000
0
VERTEX
8
0
10
444.000000
20
162.000000
0
VERTEX
8
0
10
448.000000
20
160.000000
0
VERTEX
8
0
10
456.000000
20
160.000000
0
VERTEX
8
0
10
484.940000
20
163.420000
0
VERTEX
8
0
10
494.923077
20
165.384615
0
VERTEX
8
0
10
511.900000
20
173.200000
0
VERTEX
8
0
10
513.100000
20
173.800000
0
VERTEX
8
0
10
528.153846
20
182.769231
0
VERTEX
8
0
10
543.779310
20
193.248276
0
VERTEX
8
0
10
560.000000
20
208.000000
0
VERTEX
8
0
10
561.769231
20
211.153846
0
VERTEX
8
0
10
564.240000
20
214.820000
0
VERTEX
8
0
10
574.000000
20
226.000000
0
VERTEX
8
0
10
571.000000
20
228.000000
0
VERTEX
8
0
10
567.911765
20
227.352941
0
VERTEX
8
0
10
563.000000
20
226.000000
0
VERTEX
8
0
10
545.754098
20
206.204918
0
VERTEX
8
0
10
533.000000
20
191.000000
0
VERTEX
8
0
10
513.900000
20
177.300000
0
VERTEX
8
0
10
509.000000
20
176.000000
0
SEQEND
0
POLYLINE
8
0
6
CONTINUOUS
66
1
62
7
10
0.0
20
0.0
30
0.000000
0
VERTEX
8
0
10
231.000000
20
160.000000
0
VERTEX
8
0
10
232.000000
20
159.000000
0
VERTEX
8
0
10
244.100000
20
164.800000
0
VERTEX
8
0
10
271.846154
20
180.230769
0
VERTEX
8
0
10
289.846154
20
191.230769
0
VERTEX
8
0
10
325.000000
20
213.000000
0
VERTEX
8
0
10
324.000000
20
214.000000
0
VERTEX
8
0
10
317.000000
20
215.000000
0
VERTEX
8
0
10
310.060000
20
213.580000
0
VERTEX
8
0
10
296.100000
20
207.800000
0
VERTEX
8
0
10
289.846154
20
204.230769
0
VERTEX
8
0
10
281.204918
20
198.754098
0
VERTEX
8
0
10
253.795082
20
176.245902
0
VERTEX
8
0
10
242.900000
20
168.200000
0
VERTEX
8
0
10
231.000000
20
160.000000
0
SEQEND
0
POLYLINE
8
0
6
CONTINUOUS
66
1
62
7
10
0.0
20
0.0
30
0.000000
0
VERTEX
8
0
10
394.000000
20
157.000000
0
VERTEX
8
0
10
393.000000
20
158.000000
0
SEQEND
0
POLYLINE
8
0
6
CONTINUOUS
66
1
62
7
10
0.0
20
0.0
30
0.000000
0
VERTEX
8
0
10
394.000000
20
157.000000
0
VERTEX
8
0
10
399.000000
20
158.000000
0
VERTEX
8
0
10
402.000000
20
161.000000
0
VERTEX
8
0
10
398.000000
20
164.000000
0
VERTEX
8
0
10
397.000000
20
164.000000
0
VERTEX
8
0
10
394.000000
20
161.000000
0
VERTEX
8
0
10
393.200000
20
158.900000
0
VERTEX
8
0
10
393.000000
20
158.000000
0
SEQEND
0
POLYLINE
8
0
6
CONTINUOUS
66
1
62
7
10
0.0
20
0.0
30
0.000000
0
VERTEX
8
0
10
227.000000
20
156.000000
0
VERTEX
8
0
10
228.000000
20
157.000000
0
VERTEX
8
0
10
227.000000
20
158.000000
0
VERTEX
8
0
10
226.000000
20
157.000000
0
VERTEX
8
0
10
227.000000
20
156.000000
0
SEQEND
0
POLYLINE
8
0
6
CONTINUOUS
66
1
62
7
10
0.0
20
0.0
30
0.000000
0
VERTEX
8
0
10
393.000000
20
158.000000
0
VERTEX
8
0
10
392.000000
20
157.000000
0
VERTEX
8
0
10
393.000000
20
156.000000
0
VERTEX
8
0
10
394.000000
20
157.000000
0
SEQEND
0
POLYLINE
8
0
6
CONTINUOUS
66
1
62
7
10
0.0
20
0.0
30
0.000000
0
VERTEX
8
0
10
227.000000
20
155.000000
0
VERTEX
8
0
10
227.000000
20
156.000000
0
SEQEND
0
POLYLINE
8
0
6
CONTINUOUS
66
1
62
7
10
0.0
20
0.0
30
0.000000
0
VERTEX
8
0
10
172.000000
20
144.000000
0
VERTEX
8
0
10
180.951220
20
145.439024
0
VERTEX
8
0
10
202.900000
20
152.300000
0
VERTEX
8
0
10
204.100000
20
152.700000
0
VERTEX
8
0
10
215.846154
20
157.230769
0
VERTEX
8
0
10
236.100000
20
168.800000
0
VERTEX
8
0
10
278.195122
20
202.756098
0
VERTEX
8
0
10
290.180000
20
211.760000
0
VERTEX
8
0
10
299.100000
20
215.700000
0
VERTEX
8
0
10
306.000000
20
218.000000
0
VERTEX
8
0
10
308.000000
20
220.000000
0
VERTEX
8
0
10
302.932432
20
221.594595
0
VERTEX
8
0
10
298.067568
20
222.405405
0
VERTEX
8
0
10
262.000000
20
231.000000
0
VERTEX
8
0
10
258.000000
20
231.000000
0
VERTEX
8
0
10
256.900000
20
230.300000
0
VERTEX
8
0
10
251.180000
20
227.760000
0
VERTEX
8
0
10
243.000000
20
222.000000
0
VERTEX
8
0
10
218.000000
20
193.000000
0
VERTEX
8
0
10
204.804878
20
182.243902
0
VERTEX
8
0
10
188.900000
20
174.200000
0
VERTEX
8
0
10
185.100000
20
172.700000
0
VERTEX
8
0
10
167.932432
20
167.405405
0
VERTEX
8
0
10
157.067568
20
165.594595
0
VERTEX
8
0
10
138.000000
20
164.000000
0
VERTEX
8
0
10
114.000000
20
164.000000
0
VERTEX
8
0
10
102.037931
20
165.455172
0
VERTEX
8
0
10
73.000000
20
174.000000
0
VERTEX
8
0
10
72.000000
20
173.000000
0
VERTEX
8
0
10
73.240000
20
170.180000
0
VERTEX
8
0
10
75.760000
20
166.820000
0
VERTEX
8
0
10
88.000000
20
154.000000
0
VERTEX
8
0
10
90.100000
20
153.200000
0
VERTEX
8
0
10
96.932432
20
151.594595
0
VERTEX
8
0
10
141.076923
20
148.384615
0
VERTEX
8
0
10
144.923077
20
147.615385
0
VERTEX
8
0
10
164.048780
20
144.439024
0
VERTEX
8
0
10
172.000000
20
144.000000
0
SEQEND
0
POLYLINE
8
0
6
CONTINUOUS
66
1
62
7
10
0.0
20
0.0
30
0.000000
0
VERTEX
8
0
10
347.000000
20
144.000000
0
VERTEX
8
0
10
367.100000
20
148.700000
0
VERTEX
8
0
10
374.846154
20
151.230769
0
VERTEX
8
0
10
383.000000
20
157.000000
0
VERTEX
8
0
10
386.240000
20
160.820000
0
VERTEX
8
0
10
390.000000
20
166.000000
0
VERTEX
8
0
10
390.000000
20
167.000000
0
VERTEX
8
0
10
389.000000
20
168.000000
0
VERTEX
8
0
10
377.000000
20
170.000000
0
VERTEX
8
0
10
375.900000
20
169.200000
0
VERTEX
8
0
10
357.195122
20
155.756098
0
VERTEX
8
0
10
352.204918
20
151.754098
0
VERTEX
8
0
10
344.000000
20
145.000000
0
VERTEX
8
0
10
345.000000
20
144.000000
0
VERTEX
8
0
10
347.000000
20
144.000000
0
SEQEND
0
POLYLINE
8
0
6
CONTINUOUS
66
1
62
7
10
0.0
20
0.0
30
0.000000
0
VERTEX
8
0
10
319.000000
20
140.000000
0
VERTEX
8
0
10
326.946154
20
141.430769
0
VERTEX
8
0
10
339.900000
20
148.200000
0
VERTEX
8
0
10
341.100000
20
148.800000
0
VERTEX
8
0
10
364.000000
20
165.000000
0
VERTEX
8
0
10
390.243902
20
193.804878
0
VERTEX
8
0
10
395.000000
20
200.000000
0
VERTEX
8
0
10
394.000000
20
201.000000
0
VERTEX
8
0
10
383.900000
20
198.200000
0
VERTEX
8
0
10
371.846154
20
191.230769
0
VERTEX
8
0
10
368.100000
20
188.800000
0
VERTEX
8
0
10
303.000000
20
142.000000
0
VERTEX
8
0
10
304.000000
20
141.000000
0
VERTEX
8
0
10
308.037931
20
140.455172
0
VERTEX
8
0
10
319.000000
20
140.000000
0
SEQEND
0
POLYLINE
8
0
6
CONTINUOUS
66
1
62
7
10
0.0
20
0.0
30
0.000000
0
VERTEX
8
0
10
354.000000
20
209.000000
0
VERTEX
8
0
10
347.000000
20
211.000000
0
VERTEX
8
0
10
342.000000
20
211.000000
0
VERTEX
8
0
10
324.100000
20
203.800000
0
VERTEX
8
0
10
320.900000
20
202.200000
0
VERTEX
8
0
10
263.153846
20
169.769231
0
VERTEX
8
0
10
237.100000
20
154.800000
0
VERTEX
8
0
10
219.900000
20
146.200000
0
VERTEX
8
0
10
219.000000
20
146.000000
0
VERTEX
8
0
10
215.000000
20
142.000000
0
VERTEX
8
0
10
216.000000
20
141.000000
0
VERTEX
8
0
10
221.044554
20
140.445545
0
VERTEX
8
0
10
236.000000
20
139.000000
0
VERTEX
8
0
10
256.900000
20
147.200000
0
VERTEX
8
0
10
264.100000
20
150.800000
0
VERTEX
8
0
10
311.153846
20
180.769231
0
VERTEX
8
0
10
354.000000
20
209.000000
0
SEQEND
0
POLYLINE
8
0
6
CONTINUOUS
66
1
62
7
10
0.0
20
0.0
30
0.000000
0
VERTEX
8
0
10
277.000000
20
139.000000
0
VERTEX
8
0
10
286.955446
20
140.445545
0
VERTEX
8
0
10
296.900000
20
145.200000
0
VERTEX
8
0
10
298.100000
20
145.800000
0
VERTEX
8
0
10
362.000000
20
194.000000
0
VERTEX
8
0
10
363.000000
20
196.000000
0
VERTEX
8
0
10
365.804878
20
198.243902
0
VERTEX
8
0
10
371.000000
20
202.000000
0
VERTEX
8
0
10
372.000000
20
203.000000
0
VERTEX
8
0
10
371.000000
20
204.000000
0
VERTEX
8
0
10
368.000000
20
204.000000
0
VERTEX
8
0
10
362.100000
20
201.700000
0
VERTEX
8
0
10
360.900000
20
201.200000
0
VERTEX
8
0
10
325.900000
20
182.200000
0
VERTEX
8
0
10
323.900000
20
181.200000
0
VERTEX
8
0
10
259.000000
20
143.000000
0
VERTEX
8
0
10
256.000000
20
140.000000
0
VERTEX
8
0
10
257.000000
20
139.000000
0
VERTEX
8
0
10
277.000000
20
139.000000
0
SEQEND
0
POLYLINE
8
0
6
CONTINUOUS
66
1
62
7
10
0.0
20
0.0
30
0.000000
0
VERTEX
8
0
10
657.000000
20
130.000000
0
VERTEX
8
0
10
691.750099
20
165.242959
0
VERTEX
8
0
10
704.200000
20
181.900000
0
VERTEX
8
0
10
704.800000
20
183.100000
0
VERTEX
8
0
10
708.000000
20
190.000000
0
VERTEX
8
0
10
706.000000
20
193.000000
0
VERTEX
8
0
10
686.180000
20
209.240000
0
VERTEX
8
0
10
682.820000
20
211.760000
0
VERTEX
8
0
10
665.100000
20
224.200000
0
VERTEX
8
0
10
663.100000
20
225.200000
0
VERTEX
8
0
10
652.911765
20
229.647059
0
VERTEX
8
0
10
646.088235
20
231.352941
0
VERTEX
8
0
10
641.000000
20
232.000000
0
VERTEX
8
0
10
633.911765
20
230.352941
0
VERTEX
8
0
10
623.900000
20
226.200000
0
VERTEX
8
0
10
621.900000
20
225.200000
0
VERTEX
8
0
10
593.153846
20
212.769231
0
VERTEX
8
0
10
577.000000
20
202.000000
0
VERTEX
8
0
10
573.800000
20
198.100000
0
VERTEX
8
0
10
573.000000
20
197.000000
0
VERTEX
8
0
10
573.000000
20
193.000000
0
VERTEX
8
0
10
579.000000
20
187.000000
0
VERTEX
8
0
10
585.153846
20
183.230769
0
VERTEX
8
0
10
589.180000
20
180.240000
0
VERTEX
8
0
10
622.900000
20
159.800000
0
VERTEX
8
0
10
637.000000
20
151.000000
0
VERTEX
8
0
10
640.243902
20
147.195122
0
VERTEX
8
0
10
644.230769
20
142.153846
0
VERTEX
8
0
10
652.000000
20
132.000000
0
VERTEX
8
0
10
657.000000
20
130.000000
0
SEQEND
0
POLYLINE
8
0
6
CONTINUOUS
66
1
62
7
10
0.0
20
0.0
30
0.000000
0
VERTEX
8
0
10
260.000000
20
129.000000
0
VERTEX
8
0
10
262.000000
20
130.000000
0
SEQEND
0
POLYLINE
8
0
6
CONTINUOUS
66
1
62
7
10
0.0
20
0.0
30
0.000000
0
VERTEX
8
0
10
234.000000
20
109.000000
0
VERTEX
8
0
10
260.000000
20
129.000000
0
SEQEND
0
POLYLINE
8
0
6
CONTINUOUS
66
1
62
7
10
0.0
20
0.0
30
0.000000
0
VERTEX
8
0
10
233.000000
20
108.000000
0
VERTEX
8
0
10
234.000000
20
109.000000
0
SEQEND
0
POLYLINE
8
0
6
CONTINUOUS
66
1
62
7
10
0.0
20
0.0
30
0.000000
0
VERTEX
8
0
10
235.000000
20
108.000000
0
VERTEX
8
0
10
234.000000
20
109.000000
0
SEQEND
0
POLYLINE
8
0
6
CONTINUOUS
66
1
62
7
10
0.0
20
0.0
30
0.000000
0
VERTEX
8
0
10
231.000000
20
107.000000
0
VERTEX
8
0
10
233.000000
20
108.000000
0
SEQEND
0
POLYLINE
8
0
6
CONTINUOUS
66
1
62
7
10
0.0
20
0.0
30
0.000000
0
VERTEX
8
0
10
233.000000
20
108.000000
0
VERTEX
8
0
10
234.000000
20
107.000000
0
VERTEX
8
0
10
235.000000
20
108.000000
0
SEQEND
0
POLYLINE
8
0
6
CONTINUOUS
66
1
62
7
10
0.0
20
0.0
30
0.000000
0
VERTEX
8
0
10
260.000000
20
129.000000
0
VERTEX
8
0
10
248.037931
20
130.455172
0
VERTEX
8
0
10
153.911765
20
140.647059
0
VERTEX
8
0
10
149.911765
20
141.647059
0
VERTEX
8
0
10
134.100000
20
146.200000
0
VERTEX
8
0
10
130.000000
20
148.000000
0
VERTEX
8
0
10
120.000000
20
148.000000
0
VERTEX
8
0
10
105.088235
20
145.647059
0
VERTEX
8
0
10
100.000000
20
144.000000
0
VERTEX
8
0
10
100.000000
20
143.000000
0
VERTEX
8
0
10
109.795082
20
133.754098
0
VERTEX
8
0
10
137.180000
20
112.240000
0
VERTEX
8
0
10
158.153846
20
99.230769
0
VERTEX
8
0
10
160.900000
20
97.800000
0
VERTEX
8
0
10
178.000000
20
89.000000
0
VERTEX
8
0
10
184.000000
20
89.000000
0
VERTEX
8
0
10
190.940000
20
90.420000
0
VERTEX
8
0
10
205.900000
20
96.300000
0
VERTEX
8
0
10
207.100000
20
96.800000
0
VERTEX
8
0
10
230.000000
20
107.000000
0
VERTEX
8
0
10
231.000000
20
107.000000
0
SEQEND
0
POLYLINE
8
0
6
CONTINUOUS
66
1
62
7
10
0.0
20
0.0
30
0.000000
0
VERTEX
8
0
10
381.000000
20
88.000000
0
VERTEX
8
0
10
413.940000
20
93.420000
0
VERTEX
8
0
10
448.911765
20
100.352941
0
VERTEX
8
0
10
473.923077
20
105.384615
0
VERTEX
8
0
10
493.900000
20
113.300000
0
VERTEX
8
0
10
510.000000
20
122.000000
0
VERTEX
8
0
10
514.200000
20
128.900000
0
VERTEX
8
0
10
520.700000
20
145.100000
0
VERTEX
8
0
10
526.000000
20
162.000000
0
VERTEX
8
0
10
524.000000
20
164.000000
0
VERTEX
8
0
10
496.932432
20
158.405405
0
VERTEX
8
0
10
492.067568
20
157.594595
0
VERTEX
8
0
10
463.000000
20
154.000000
0
VERTEX
8
0
10
442.000000
20
154.000000
0
VERTEX
8
0
10
427.000000
20
156.000000
0
VERTEX
8
0
10
421.000000
20
156.000000
0
VERTEX
8
0
10
415.000000
20
152.000000
0
VERTEX
8
0
10
411.000000
20
148.000000
0
VERTEX
8
0
10
407.230769
20
141.846154
0
VERTEX
8
0
10
400.200000
20
126.900000
0
VERTEX
8
0
10
395.800000
20
118.100000
0
VERTEX
8
0
10
383.769231
20
98.153846
0
VERTEX
8
0
10
381.769231
20
95.153846
0
VERTEX
8
0
10
378.000000
20
89.000000
0
VERTEX
8
0
10
379.000000
20
88.000000
0
VERTEX
8
0
10
381.000000
20
88.000000
0
SEQEND
0
POLYLINE
8
0
6
CONTINUOUS
66
1
62
7
10
0.0
20
0.0
30
0.000000
0
VERTEX
8
0
10
504.000000
20
56.000000
0
VERTEX
8
0
10
527.911765
20
63.352941
0
VERTEX
8
0
10
548.900000
20
71.200000
0
VERTEX
8
0
10
565.900000
20
78.300000
0
VERTEX
8
0
10
605.900000
20
96.200000
0
VERTEX
8
0
10
611.100000
20
98.800000
0
VERTEX
8
0
10
625.195122
20
108.756098
0
VERTEX
8
0
10
632.900000
20
114.200000
0
VERTEX
8
0
10
644.000000
20
122.000000
0
VERTEX
8
0
10
646.000000
20
128.000000
0
VERTEX
8
0
10
641.760000
20
137.820000
0
VERTEX
8
0
10
632.000000
20
150.000000
0
VERTEX
8
0
10
614.900000
20
160.800000
0
VERTEX
8
0
10
607.100000
20
165.200000
0
VERTEX
8
0
10
565.000000
20
187.000000
0
VERTEX
8
0
10
564.000000
20
187.000000
0
VERTEX
8
0
10
552.000000
20
178.000000
0
VERTEX
8
0
10
535.000000
20
161.000000
0
VERTEX
8
0
10
530.300000
20
150.900000
0
VERTEX
8
0
10
526.300000
20
140.900000
0
VERTEX
8
0
10
506.200000
20
70.900000
0
VERTEX
8
0
10
505.800000
20
70.100000
0
VERTEX
8
0
10
503.000000
20
63.000000
0
VERTEX
8
0
10
503.000000
20
57.000000
0
VERTEX
8
0
10
504.000000
20
56.000000
0
SEQEND
0
POLYLINE
8
0
6
CONTINUOUS
66
1
62
7
10
0.0
20
0.0
30
0.000000
0
VERTEX
8
0
10
231.000000
20
107.000000
0
VERTEX
8
0
10
231.000000
20
105.000000
0
VERTEX
8
0
10
223.100000
20
100.800000
0
VERTEX
8
0
10
221.900000
20
100.200000
0
VERTEX
8
0
10
195.000000
20
85.000000
0
VERTEX
8
0
10
193.000000
20
83.000000
0
VERTEX
8
0
10
196.000000
20
80.000000
0
VERTEX
8
0
10
204.100000
20
76.200000
0
VERTEX
8
0
10
204.900000
20
75.800000
0
VERTEX
8
0
10
258.900000
20
58.700000
0
VERTEX
8
0
10
262.911765
20
57.647059
0
VERTEX
8
0
10
300.053846
20
49.430769
0
VERTEX
8
0
10
314.946154
20
47.569231
0
VERTEX
8
0
10
324.000000
20
47.000000
0
VERTEX
8
0
10
329.100000
20
49.800000
0
VERTEX
8
0
10
348.000000
20
63.000000
0
VERTEX
8
0
10
366.000000
20
81.000000
0
VERTEX
8
0
10
376.756098
20
94.195122
0
VERTEX
8
0
10
385.800000
20
112.100000
0
VERTEX
8
0
10
391.200000
20
122.900000
0
VERTEX
8
0
10
406.000000
20
152.000000
0
VERTEX
8
0
10
405.000000
20
153.000000
0
VERTEX
8
0
10
402.000000
20
153.000000
0
VERTEX
8
0
10
391.100000
20
148.700000
0
VERTEX
8
0
10
389.900000
20
148.200000
0
VERTEX
8
0
10
358.088235
20
137.647059
0
VERTEX
8
0
10
344.060000
20
135.580000
0
VERTEX
8
0
10
302.035294
20
130.541176
0
VERTEX
8
0
10
273.044554
20
128.554455
0
VERTEX
8
0
10
256.153846
20
119.769231
0
VERTEX
8
0
10
235.000000
20
108.000000
0
SEQEND
0
POLYLINE
8
0
6
CONTINUOUS
66
1
62
7
10
0.0
20
0.0
30
0.000000
0
VERTEX
8
0
10
421.000000
20
43.000000
0
VERTEX
8
0
10
440.067568
20
45.594595
0
VERTEX
8
0
10
484.900000
20
53.300000
0
VERTEX
8
0
10
486.100000
20
53.800000
0
VERTEX
8
0
10
489.000000
20
55.000000
0
VERTEX
8
0
10
492.000000
20
58.000000
0
VERTEX
8
0
10
499.800000
20
73.100000
0
VERTEX
8
0
10
500.200000
20
73.900000
0
VERTEX
8
0
10
511.000000
20
109.000000
0
VERTEX
8
0
10
510.000000
20
111.000000
0
VERTEX
8
0
10
481.911765
20
104.352941
0
VERTEX
8
0
10
433.911765
20
94.352941
0
VERTEX
8
0
10
385.100000
20
83.700000
0
VERTEX
8
0
10
375.900000
20
80.200000
0
VERTEX
8
0
10
367.240200
20
74.750192
0
VERTEX
8
0
10
336.000000
20
45.000000
0
VERTEX
8
0
10
337.000000
20
44.000000
0
VERTEX
8
0
10
421.000000
20
43.000000
0
SEQEND
0
POLYLINE
8
0
6
CONTINUOUS
66
1
62
7
10
0.0
20
0.0
30
0.000000
0
VERTEX
8
0
10
388.000000
20
33.000000
0
VERTEX
8
0
10
389.040984
20
33.549180
0
VERTEX
8
0
10
440.032995
20
37.538071
0
VERTEX
8
0
10
452.967005
20
38.461929
0
VERTEX
8
0
10
504.100000
20
47.700000
0
VERTEX
8
0
10
521.100000
20
52.700000
0
VERTEX
8
0
10
564.900000
20
67.300000
0
VERTEX
8
0
10
582.100000
20
73.800000
0
VERTEX
8
0
10
597.846154
20
80.230769
0
VERTEX
8
0
10
600.153846
20
81.769231
0
VERTEX
8
0
10
614.100000
20
89.800000
0
VERTEX
8
0
10
651.153846
20
114.769231
0
VERTEX
8
0
10
662.771698
20
123.249057
0
VERTEX
8
0
10
674.228302
20
133.750943
0
VERTEX
8
0
10
705.000000
20
164.000000
0
VERTEX
8
0
10
718.756098
20
182.195122
0
VERTEX
8
0
10
722.800000
20
190.100000
0
VERTEX
8
0
10
731.800000
20
209.100000
0
VERTEX
8
0
10
740.300000
20
227.900000
0
VERTEX
8
0
10
743.800000
20
237.100000
0
VERTEX
8
0
10
747.647059
20
252.088235
0
VERTEX
8
0
10
748.352941
20
254.911765
0
VERTEX
8
0
10
750.554455
20
267.044554
0
VERTEX
8
0
10
751.445545
20
275.955446
0
VERTEX
8
0
10
752.000000
20
303.000000
0
VERTEX
8
0
10
749.580000
20
317.940000
0
VERTEX
8
0
10
742.647059
20
348.911765
0
VERTEX
8
0
10
741.352941
20
353.088235
0
VERTEX
8
0
10
737.200000
20
363.100000
0
VERTEX
8
0
10
729.200000
20
379.100000
0
VERTEX
8
0
10
719.240000
20
396.180000
0
VERTEX
8
0
10
716.240000
20
400.180000
0
VERTEX
8
0
10
697.751131
20
423.773756
0
VERTEX
8
0
10
688.248869
20
434.226244
0
VERTEX
8
0
10
666.000000
20
457.000000
0
VERTEX
8
0
10
646.846154
20
469.769231
0
VERTEX
8
0
10
639.846154
20
474.769231
0
VERTEX
8
0
10
597.100000
20
499.200000
0
VERTEX
8
0
10
591.900000
20
501.800000
0
VERTEX
8
0
10
558.100000
20
516.300000
0
VERTEX
8
0
10
531.100000
20
525.300000
0
VERTEX
8
0
10
512.923077
20
530.615385
0
VERTEX
8
0
10
509.076923
20
531.384615
0
VERTEX
8
0
10
470.932432
20
539.594595
0
VERTEX
8
0
10
466.067568
20
540.405405
0
VERTEX
8
0
10
450.962069
20
543.544828
0
VERTEX
8
0
10
440.037931
20
544.455172
0
VERTEX
8
0
10
409.250000
20
546.250000
0
VERTEX
8
0
10
408.700000
20
548.900000
0
VERTEX
8
0
10
405.200000
20
562.100000
0
VERTEX
8
0
10
400.000000
20
571.000000
0
VERTEX
8
0
10
393.000000
20
578.000000
0
VERTEX
8
0
10
388.900000
20
579.700000
0
VERTEX
8
0
10
387.100000
20
580.300000
0
VERTEX
8
0
10
375.000000
20
584.000000
0
VERTEX
8
0
10
370.000000
20
584.000000
0
VERTEX
8
0
10
361.088235
20
581.647059
0
VERTEX
8
0
10
359.900000
20
581.300000
0
VERTEX
8
0
10
352.000000
20
578.000000
0
VERTEX
8
0
10
345.000000
20
571.000000
0
VERTEX
8
0
10
339.230769
20
561.846154
0
VERTEX
8
0
10
338.800000
20
561.100000
0
VERTEX
8
0
10
336.445545
20
554.955446
0
VERTEX
8
0
10
335.750000
20
545.250000
0
VERTEX
8
0
10
280.076923
20
536.615385
0
VERTEX
8
0
10
261.076923
20
532.615385
0
VERTEX
8
0
10
208.900000
20
517.300000
0
VERTEX
8
0
10
171.100000
20
499.800000
0
VERTEX
8
0
10
125.846154
20
474.230769
0
VERTEX
8
0
10
122.846154
20
472.230769
0
VERTEX
8
0
10
102.220690
20
456.751724
0
VERTEX
8
0
10
79.768493
20
436.249315
0
VERTEX
8
0
10
67.760000
20
424.180000
0
VERTEX
8
0
10
47.800000
20
396.100000
0
VERTEX
8
0
10
31.800000
20
364.100000
0
VERTEX
8
0
10
26.200000
20
349.900000
0
VERTEX
8
0
10
19.352941
20
325.911765
0
VERTEX
8
0
10
15.000000
20
312.000000
0
VERTEX
8
0
10
16.000000
20
310.000000
0
VERTEX
8
0
10
15.405405
20
303.932432
0
VERTEX
8
0
10
14.594595
20
299.067568
0
VERTEX
8
0
10
14.000000
20
293.000000
0
VERTEX
8
0
10
17.352941
20
278.088235
0
VERTEX
8
0
10
18.384615
20
273.076923
0
VERTEX
8
0
10
25.800000
20
234.900000
0
VERTEX
8
0
10
31.800000
20
220.900000
0
VERTEX
8
0
10
47.230769
20
191.153846
0
VERTEX
8
0
10
52.769231
20
182.846154
0
VERTEX
8
0
10
60.245902
20
171.204918
0
VERTEX
8
0
10
64.754098
20
165.795082
0
VERTEX
8
0
10
72.000000
20
157.000000
0
VERTEX
8
0
10
98.000000
20
131.000000
0
VERTEX
8
0
10
102.180000
20
128.240000
0
VERTEX
8
0
10
136.180000
20
103.240000
0
VERTEX
8
0
10
166.900000
20
85.800000
0
VERTEX
8
0
10
178.900000
20
79.800000
0
VERTEX
8
0
10
200.100000
20
70.300000
0
VERTEX
8
0
10
216.900000
20
63.800000
0
VERTEX
8
0
10
245.900000
20
54.700000
0
VERTEX
8
0
10
272.911765
20
47.647059
0
VERTEX
8
0
10
310.067568
20
40.405405
0
VERTEX
8
0
10
321.940000
20
38.580000
0
VERTEX
8
0
10
376.967005
20
33.538071
0
VERTEX
8
0
10
388.000000
20
33.000000
0
SEQEND
0
ENDSEC
0
EOF
