0
SECTION
2
HEADER
9
$ACADVER
1
AC1003
9
$INSBASE
10
0.0
20
0.0
30
0.0
9
$EXTMIN
10
0.000
20
0.000
30
0.0
9
$EXTMAX
10
672.000
20
742.000
30
0.0
9
$LIMMIN
10
0.000
20
0.000
9
$LIMMAX
10
672.000
20
742.000
9
$LTSCALE
40
1.0
9
$LUNITS
70
2
9
$LUPREC
70
3
9
$LIMCHECK
70
0
9
$UCSNAME
2

9
$UCSORG
10
0.0
20
0.0
30
0.0
9
$UCSXDIR
10
1.0
20
0.0
30
0.0
9
$UCSYDIR
10
0.0
20
1.0
30
0.0
9
$WORLDVIEW
70
1
9
$UNITMODE
70
0
0
ENDSEC
0
SECTION
2
TABLES
0
TABLE
2
VPORT
70
1
0
VPORT
2
*ACTIVE
70
0
10
0.0
20
0.0
11
1.0
21
1.0
12
336.000
22
371.000
13
0.0
23
0.0
14
1.0
24
1.0
15
0.0
25
0.0
16
0.0
26
0.0
36
1.0
17
0.0
27
0.0
37
0.0
40
500.0
41
1.104
42
50.0
43
0.0
44
0.0
50
0.0
51
0.0
71
0
72
100
73
1
74
1
75
0
76
0
77
0
78
0
0
ENDTAB
0
TABLE
2
LTYPE
70
1
0
LTYPE
2
CONTINUOUS
70
64
3
Solid line
72
65
73
0
40
0.000
0
ENDTAB
0
TABLE
2
LAYER
70
1
0
LAYER
2
0
70
64
62
7
6
CONTINUOUS
0
ENDTAB
0
ENDSEC
0
SECTION
2
BLOCKS
0
ENDSEC
0
SECTION
2
ENTITIES
0
POLYLINE
8
0
6
CONTINUOUS
66
1
62
7
10
0.0
20
0.0
30
0.000000
0
VERTEX
8
0
10
332.000000
20
677.000000
0
VERTEX
8
0
10
337.000000
20
683.000000
0
VERTEX
8
0
10
337.000000
20
688.000000
0
VERTEX
8
0
10
332.000000
20
694.000000
0
VERTEX
8
0
10
324.000000
20
694.000000
0
VERTEX
8
0
10
319.000000
20
688.000000
0
VERTEX
8
0
10
319.000000
20
683.000000
0
VERTEX
8
0
10
324.000000
20
677.000000
0
VERTEX
8
0
10
332.000000
20
677.000000
0
SEQEND
0
POLYLINE
8
0
6
CONTINUOUS
66
1
62
7
10
0.0
20
0.0
30
0.000000
0
VERTEX
8
0
10
336.000000
20
619.000000
0
VERTEX
8
0
10
337.100000
20
619.800000
0
VERTEX
8
0
10
340.000000
20
621.000000
0
VERTEX
8
0
10
344.240000
20
625.820000
0
VERTEX
8
0
10
348.000000
20
633.000000
0
VERTEX
8
0
10
348.000000
20
639.000000
0
VERTEX
8
0
10
344.000000
20
647.000000
0
VERTEX
8
0
10
339.000000
20
652.000000
0
VERTEX
8
0
10
336.000000
20
653.000000
0
VERTEX
8
0
10
325.000000
20
653.000000
0
VERTEX
8
0
10
323.000000
20
652.000000
0
VERTEX
8
0
10
314.800000
20
643.100000
0
VERTEX
8
0
10
314.000000
20
642.000000
0
VERTEX
8
0
10
314.000000
20
630.000000
0
VERTEX
8
0
10
315.000000
20
628.000000
0
VERTEX
8
0
10
322.000000
20
621.000000
0
VERTEX
8
0
10
326.040984
20
619.450820
0
VERTEX
8
0
10
336.000000
20
619.000000
0
SEQEND
0
POLYLINE
8
0
6
CONTINUOUS
66
1
62
7
10
0.0
20
0.0
30
0.000000
0
VERTEX
8
0
10
332.000000
20
565.000000
0
VERTEX
8
0
10
346.900000
20
571.200000
0
VERTEX
8
0
10
350.000000
20
573.000000
0
VERTEX
8
0
10
350.240000
20
573.820000
0
VERTEX
8
0
10
355.000000
20
580.000000
0
VERTEX
8
0
10
354.352941
20
583.088235
0
VERTEX
8
0
10
354.000000
20
586.000000
0
VERTEX
8
0
10
351.153846
20
588.230769
0
VERTEX
8
0
10
349.000000
20
590.000000
0
VERTEX
8
0
10
327.000000
20
589.000000
0
VERTEX
8
0
10
318.088235
20
591.352941
0
VERTEX
8
0
10
315.000000
20
593.000000
0
VERTEX
8
0
10
311.000000
20
593.000000
0
VERTEX
8
0
10
307.000000
20
590.000000
0
VERTEX
8
0
10
306.000000
20
588.000000
0
VERTEX
8
0
10
306.647059
20
581.911765
0
VERTEX
8
0
10
307.352941
20
579.088235
0
VERTEX
8
0
10
311.000000
20
573.000000
0
VERTEX
8
0
10
313.900000
20
570.800000
0
VERTEX
8
0
10
323.067568
20
566.405405
0
VERTEX
8
0
10
332.000000
20
565.000000
0
SEQEND
0
POLYLINE
8
0
6
CONTINUOUS
66
1
62
7
10
0.0
20
0.0
30
0.000000
0
VERTEX
8
0
10
329.000000
20
522.000000
0
VERTEX
8
0
10
336.900000
20
525.300000
0
VERTEX
8
0
10
355.820000
20
535.240000
0
VERTEX
8
0
10
367.000000
20
543.000000
0
VERTEX
8
0
10
373.000000
20
551.000000
0
VERTEX
8
0
10
372.000000
20
559.000000
0
VERTEX
8
0
10
368.000000
20
562.000000
0
VERTEX
8
0
10
364.000000
20
562.000000
0
VERTEX
8
0
10
360.088235
20
560.647059
0
VERTEX
8
0
10
345.153846
20
551.769231
0
VERTEX
8
0
10
342.846154
20
550.230769
0
VERTEX
8
0
10
333.000000
20
546.000000
0
VERTEX
8
0
10
322.900000
20
548.800000
0
VERTEX
8
0
10
311.846154
20
554.769231
0
VERTEX
8
0
10
298.000000
20
561.000000
0
VERTEX
8
0
10
295.000000
20
561.000000
0
VERTEX
8
0
10
293.100000
20
559.800000
0
VERTEX
8
0
10
289.000000
20
557.000000
0
VERTEX
8
0
10
287.000000
20
553.000000
0
VERTEX
8
0
10
287.000000
20
550.000000
0
VERTEX
8
0
10
288.000000
20
548.000000
0
VERTEX
8
0
10
295.804878
20
541.756098
0
VERTEX
8
0
10
300.195122
20
538.243902
0
VERTEX
8
0
10
322.100000
20
525.200000
0
VERTEX
8
0
10
329.000000
20
522.000000
0
SEQEND
0
POLYLINE
8
0
6
CONTINUOUS
66
1
62
7
10
0.0
20
0.0
30
0.000000
0
VERTEX
8
0
10
106.000000
20
491.000000
0
VERTEX
8
0
10
107.076923
20
491.615385
0
VERTEX
8
0
10
112.820000
20
493.240000
0
VERTEX
8
0
10
117.000000
20
496.000000
0
VERTEX
8
0
10
120.200000
20
499.900000
0
VERTEX
8
0
10
123.000000
20
506.000000
0
VERTEX
8
0
10
123.000000
20
511.000000
0
VERTEX
8
0
10
120.200000
20
517.100000
0
VERTEX
8
0
10
119.000000
20
520.000000
0
VERTEX
8
0
10
116.000000
20
523.000000
0
VERTEX
8
0
10
111.900000
20
524.700000
0
VERTEX
8
0
10
110.100000
20
525.300000
0
VERTEX
8
0
10
109.000000
20
526.000000
0
VERTEX
8
0
10
102.000000
20
526.000000
0
VERTEX
8
0
10
97.100000
20
523.800000
0
VERTEX
8
0
10
95.900000
20
523.200000
0
VERTEX
8
0
10
91.000000
20
519.000000
0
VERTEX
8
0
10
88.000000
20
512.000000
0
VERTEX
8
0
10
88.000000
20
505.000000
0
VERTEX
8
0
10
91.000000
20
499.000000
0
VERTEX
8
0
10
96.900000
20
493.800000
0
VERTEX
8
0
10
106.000000
20
491.000000
0
SEQEND
0
POLYLINE
8
0
6
CONTINUOUS
66
1
62
7
10
0.0
20
0.0
30
0.000000
0
VERTEX
8
0
10
553.000000
20
485.000000
0
VERTEX
8
0
10
558.100000
20
486.700000
0
VERTEX
8
0
10
562.000000
20
488.000000
0
VERTEX
8
0
10
566.000000
20
492.000000
0
VERTEX
8
0
10
566.800000
20
494.100000
0
VERTEX
8
0
10
570.000000
20
503.000000
0
VERTEX
8
0
10
568.615385
20
507.923077
0
VERTEX
8
0
10
565.000000
20
515.000000
0
VERTEX
8
0
10
563.153846
20
516.230769
0
VERTEX
8
0
10
556.000000
20
520.000000
0
VERTEX
8
0
10
549.000000
20
520.000000
0
VERTEX
8
0
10
542.000000
20
517.000000
0
VERTEX
8
0
10
537.769231
20
512.153846
0
VERTEX
8
0
10
535.000000
20
506.000000
0
VERTEX
8
0
10
535.000000
20
499.000000
0
VERTEX
8
0
10
539.000000
20
491.000000
0
VERTEX
8
0
10
540.846154
20
489.769231
0
VERTEX
8
0
10
547.076923
20
486.384615
0
VERTEX
8
0
10
553.000000
20
485.000000
0
SEQEND
0
POLYLINE
8
0
6
CONTINUOUS
66
1
62
7
10
0.0
20
0.0
30
0.000000
0
VERTEX
8
0
10
330.000000
20
484.000000
0
VERTEX
8
0
10
337.911765
20
486.352941
0
VERTEX
8
0
10
376.000000
20
506.000000
0
VERTEX
8
0
10
390.000000
20
521.000000
0
VERTEX
8
0
10
390.000000
20
526.000000
0
VERTEX
8
0
10
386.000000
20
531.000000
0
VERTEX
8
0
10
382.923077
20
530.384615
0
VERTEX
8
0
10
376.100000
20
528.700000
0
VERTEX
8
0
10
348.153846
20
513.769231
0
VERTEX
8
0
10
345.846154
20
512.230769
0
VERTEX
8
0
10
338.911765
20
509.352941
0
VERTEX
8
0
10
329.000000
20
507.000000
0
VERTEX
8
0
10
321.088235
20
509.352941
0
VERTEX
8
0
10
285.932432
20
527.594595
0
VERTEX
8
0
10
280.000000
20
529.000000
0
VERTEX
8
0
10
274.000000
20
529.000000
0
VERTEX
8
0
10
270.000000
20
528.000000
0
VERTEX
8
0
10
268.000000
20
525.000000
0
VERTEX
8
0
10
268.000000
20
521.000000
0
VERTEX
8
0
10
278.000000
20
511.000000
0
VERTEX
8
0
10
290.153846
20
503.230769
0
VERTEX
8
0
10
293.153846
20
501.230769
0
VERTEX
8
0
10
314.100000
20
489.200000
0
VERTEX
8
0
10
314.900000
20
488.800000
0
VERTEX
8
0
10
328.100000
20
484.300000
0
VERTEX
8
0
10
330.000000
20
484.000000
0
SEQEND
0
POLYLINE
8
0
6
CONTINUOUS
66
1
62
7
10
0.0
20
0.0
30
0.000000
0
VERTEX
8
0
10
147.000000
20
457.000000
0
VERTEX
8
0
10
158.000000
20
465.000000
0
VERTEX
8
0
10
164.200000
20
471.900000
0
VERTEX
8
0
10
167.769231
20
478.153846
0
VERTEX
8
0
10
171.000000
20
486.000000
0
VERTEX
8
0
10
171.000000
20
496.000000
0
VERTEX
8
0
10
169.000000
20
500.000000
0
VERTEX
8
0
10
166.000000
20
503.000000
0
VERTEX
8
0
10
163.900000
20
503.700000
0
VERTEX
8
0
10
161.000000
20
505.000000
0
VERTEX
8
0
10
156.900000
20
504.300000
0
VERTEX
8
0
10
155.000000
20
504.000000
0
VERTEX
8
0
10
152.352941
20
498.911765
0
VERTEX
8
0
10
149.300000
20
487.900000
0
VERTEX
8
0
10
148.000000
20
484.000000
0
VERTEX
8
0
10
145.000000
20
481.000000
0
VERTEX
8
0
10
136.900000
20
476.200000
0
VERTEX
8
0
10
133.000000
20
473.000000
0
VERTEX
8
0
10
133.000000
20
469.000000
0
VERTEX
8
0
10
135.230769
20
465.153846
0
VERTEX
8
0
10
139.000000
20
459.000000
0
VERTEX
8
0
10
147.000000
20
457.000000
0
SEQEND
0
POLYLINE
8
0
6
CONTINUOUS
66
1
62
7
10
0.0
20
0.0
30
0.000000
0
VERTEX
8
0
10
516.000000
20
452.000000
0
VERTEX
8
0
10
520.000000
20
454.000000
0
VERTEX
8
0
10
523.000000
20
460.000000
0
VERTEX
8
0
10
523.000000
20
464.000000
0
VERTEX
8
0
10
521.046243
20
468.300578
0
VERTEX
8
0
10
511.249057
20
480.228302
0
VERTEX
8
0
10
508.352941
20
488.088235
0
VERTEX
8
0
10
506.000000
20
496.000000
0
VERTEX
8
0
10
503.100000
20
498.200000
0
VERTEX
8
0
10
502.000000
20
499.000000
0
VERTEX
8
0
10
495.000000
20
499.000000
0
VERTEX
8
0
10
492.000000
20
498.000000
0
VERTEX
8
0
10
489.000000
20
495.000000
0
VERTEX
8
0
10
486.000000
20
487.000000
0
VERTEX
8
0
10
486.000000
20
483.000000
0
VERTEX
8
0
10
486.700000
20
481.900000
0
VERTEX
8
0
10
491.230769
20
469.153846
0
VERTEX
8
0
10
492.769231
20
466.846154
0
VERTEX
8
0
10
499.000000
20
460.000000
0
VERTEX
8
0
10
503.100000
20
458.200000
0
VERTEX
8
0
10
516.000000
20
452.000000
0
SEQEND
0
POLYLINE
8
0
6
CONTINUOUS
66
1
62
7
10
0.0
20
0.0
30
0.000000
0
VERTEX
8
0
10
159.000000
20
428.000000
0
VERTEX
8
0
10
171.100000
20
432.800000
0
VERTEX
8
0
10
195.000000
20
445.000000
0
VERTEX
8
0
10
199.000000
20
449.000000
0
VERTEX
8
0
10
205.000000
20
461.000000
0
VERTEX
8
0
10
205.000000
20
483.000000
0
VERTEX
8
0
10
203.560976
20
491.951220
0
VERTEX
8
0
10
203.352941
20
493.088235
0
VERTEX
8
0
10
201.000000
20
501.000000
0
VERTEX
8
0
10
200.000000
20
502.000000
0
VERTEX
8
0
10
194.000000
20
502.000000
0
VERTEX
8
0
10
188.000000
20
497.000000
0
VERTEX
8
0
10
186.700000
20
493.100000
0
VERTEX
8
0
10
185.450820
20
488.959016
0
VERTEX
8
0
10
183.554455
20
469.044554
0
VERTEX
8
0
10
182.760000
20
467.180000
0
VERTEX
8
0
10
180.000000
20
463.000000
0
VERTEX
8
0
10
170.195122
20
454.756098
0
VERTEX
8
0
10
165.195122
20
450.756098
0
VERTEX
8
0
10
157.000000
20
444.000000
0
VERTEX
8
0
10
154.800000
20
440.100000
0
VERTEX
8
0
10
153.000000
20
437.000000
0
VERTEX
8
0
10
153.000000
20
430.000000
0
VERTEX
8
0
10
155.000000
20
428.000000
0
VERTEX
8
0
10
159.000000
20
428.000000
0
SEQEND
0
POLYLINE
8
0
6
CONTINUOUS
66
1
62
7
10
0.0
20
0.0
30
0.000000
0
VERTEX
8
0
10
496.000000
20
424.000000
0
VERTEX
8
0
10
497.100000
20
424.700000
0
VERTEX
8
0
10
499.000000
20
425.000000
0
VERTEX
8
0
10
503.000000
20
429.000000
0
VERTEX
8
0
10
505.000000
20
435.000000
0
VERTEX
8
0
10
502.000000
20
441.000000
0
VERTEX
8
0
10
477.000000
20
460.000000
0
VERTEX
8
0
10
474.800000
20
463.900000
0
VERTEX
8
0
10
472.478336
20
470.019931
0
VERTEX
8
0
10
471.000000
20
497.000000
0
VERTEX
8
0
10
467.000000
20
501.000000
0
VERTEX
8
0
10
462.000000
20
502.000000
0
VERTEX
8
0
10
456.000000
20
499.000000
0
VERTEX
8
0
10
455.700000
20
497.100000
0
VERTEX
8
0
10
453.000000
20
476.000000
0
VERTEX
8
0
10
453.000000
20
457.000000
0
VERTEX
8
0
10
456.000000
20
451.000000
0
VERTEX
8
0
10
466.846154
20
440.769231
0
VERTEX
8
0
10
473.180000
20
436.240000
0
VERTEX
8
0
10
490.100000
20
425.300000
0
VERTEX
8
0
10
496.000000
20
424.000000
0
SEQEND
0
POLYLINE
8
0
6
CONTINUOUS
66
1
62
7
10
0.0
20
0.0
30
0.000000
0
VERTEX
8
0
10
313.000000
20
405.000000
0
VERTEX
8
0
10
313.300000
20
407.900000
0
VERTEX
8
0
10
314.000000
20
409.000000
0
VERTEX
8
0
10
314.000000
20
420.000000
0
VERTEX
8
0
10
312.544828
20
431.962069
0
VERTEX
8
0
10
308.615385
20
454.923077
0
VERTEX
8
0
10
305.769231
20
461.846154
0
VERTEX
8
0
10
301.000000
20
468.000000
0
VERTEX
8
0
10
296.153846
20
471.230769
0
VERTEX
8
0
10
272.900000
20
486.800000
0
VERTEX
8
0
10
270.100000
20
488.200000
0
VERTEX
8
0
10
267.000000
20
490.000000
0
VERTEX
8
0
10
265.000000
20
490.000000
0
VERTEX
8
0
10
263.800000
20
488.100000
0
VERTEX
8
0
10
263.000000
20
487.000000
0
VERTEX
8
0
10
264.458824
20
464.035294
0
VERTEX
8
0
10
266.700000
20
446.900000
0
VERTEX
8
0
10
270.230769
20
436.153846
0
VERTEX
8
0
10
279.000000
20
425.000000
0
VERTEX
8
0
10
283.820000
20
421.760000
0
VERTEX
8
0
10
306.100000
20
406.300000
0
VERTEX
8
0
10
313.000000
20
405.000000
0
SEQEND
0
POLYLINE
8
0
6
CONTINUOUS
66
1
62
7
10
0.0
20
0.0
30
0.000000
0
VERTEX
8
0
10
344.000000
20
401.000000
0
VERTEX
8
0
10
366.804878
20
415.243902
0
VERTEX
8
0
10
383.000000
20
429.000000
0
VERTEX
8
0
10
383.243902
20
429.804878
0
VERTEX
8
0
10
387.700000
20
436.100000
0
VERTEX
8
0
10
388.800000
20
439.100000
0
VERTEX
8
0
10
391.569231
20
449.053846
0
VERTEX
8
0
10
395.000000
20
476.000000
0
VERTEX
8
0
10
395.000000
20
485.000000
0
VERTEX
8
0
10
393.000000
20
490.000000
0
VERTEX
8
0
10
390.100000
20
488.700000
0
VERTEX
8
0
10
387.100000
20
487.700000
0
VERTEX
8
0
10
379.180000
20
482.760000
0
VERTEX
8
0
10
366.216814
20
472.752212
0
VERTEX
8
0
10
353.000000
20
461.000000
0
VERTEX
8
0
10
347.400000
20
452.800000
0
VERTEX
8
0
10
341.000000
20
422.000000
0
VERTEX
8
0
10
341.000000
20
403.000000
0
VERTEX
8
0
10
343.000000
20
401.000000
0
VERTEX
8
0
10
344.000000
20
401.000000
0
SEQEND
0
POLYLINE
8
0
6
CONTINUOUS
66
1
62
7
10
0.0
20
0.0
30
0.000000
0
VERTEX
8
0
10
179.000000
20
396.000000
0
VERTEX
8
0
10
202.100000
20
407.800000
0
VERTEX
8
0
10
224.153846
20
421.769231
0
VERTEX
8
0
10
236.000000
20
430.000000
0
VERTEX
8
0
10
239.541176
20
452.035294
0
VERTEX
8
0
10
240.533074
20
465.029183
0
VERTEX
8
0
10
242.000000
20
491.000000
0
VERTEX
8
0
10
240.615385
20
495.923077
0
VERTEX
8
0
10
238.000000
20
502.000000
0
VERTEX
8
0
10
234.000000
20
504.000000
0
VERTEX
8
0
10
228.000000
20
504.000000
0
VERTEX
8
0
10
223.000000
20
501.000000
0
VERTEX
8
0
10
222.800000
20
500.100000
0
VERTEX
8
0
10
221.484404
20
485.985321
0
VERTEX
8
0
10
220.515596
20
454.014679
0
VERTEX
8
0
10
218.000000
20
444.000000
0
VERTEX
8
0
10
215.000000
20
441.000000
0
VERTEX
8
0
10
180.846154
20
419.230769
0
VERTEX
8
0
10
178.900000
20
418.200000
0
VERTEX
8
0
10
170.000000
20
411.000000
0
VERTEX
8
0
10
169.000000
20
409.000000
0
VERTEX
8
0
10
170.700000
20
403.900000
0
VERTEX
8
0
10
172.000000
20
400.000000
0
VERTEX
8
0
10
175.900000
20
396.800000
0
VERTEX
8
0
10
179.000000
20
396.000000
0
SEQEND
0
POLYLINE
8
0
6
CONTINUOUS
66
1
62
7
10
0.0
20
0.0
30
0.000000
0
VERTEX
8
0
10
481.000000
20
394.000000
0
VERTEX
8
0
10
482.846154
20
395.230769
0
VERTEX
8
0
10
487.000000
20
398.000000
0
VERTEX
8
0
10
487.000000
20
402.000000
0
VERTEX
8
0
10
486.300000
20
403.100000
0
VERTEX
8
0
10
482.000000
20
410.000000
0
VERTEX
8
0
10
478.000000
20
414.000000
0
VERTEX
8
0
10
467.846154
20
420.769231
0
VERTEX
8
0
10
467.153846
20
421.230769
0
VERTEX
8
0
10
440.000000
20
438.000000
0
VERTEX
8
0
10
438.510408
20
490.990008
0
VERTEX
8
0
10
437.647059
20
494.911765
0
VERTEX
8
0
10
436.600000
20
497.800000
0
VERTEX
8
0
10
434.000000
20
502.000000
0
VERTEX
8
0
10
431.000000
20
503.000000
0
VERTEX
8
0
10
422.000000
20
502.000000
0
VERTEX
8
0
10
420.200000
20
498.900000
0
VERTEX
8
0
10
418.000000
20
480.000000
0
VERTEX
8
0
10
418.000000
20
453.000000
0
VERTEX
8
0
10
419.455172
20
441.037931
0
VERTEX
8
0
10
423.243902
20
428.195122
0
VERTEX
8
0
10
432.000000
20
418.000000
0
VERTEX
8
0
10
465.100000
20
400.200000
0
VERTEX
8
0
10
465.900000
20
399.800000
0
VERTEX
8
0
10
481.000000
20
394.000000
0
SEQEND
0
POLYLINE
8
0
6
CONTINUOUS
66
1
62
7
10
0.0
20
0.0
30
0.000000
0
VERTEX
8
0
10
411.000000
20
356.000000
0
VERTEX
8
0
10
421.900000
20
359.300000
0
VERTEX
8
0
10
450.100000
20
369.800000
0
VERTEX
8
0
10
450.846154
20
370.230769
0
VERTEX
8
0
10
459.000000
20
376.000000
0
VERTEX
8
0
10
459.000000
20
377.000000
0
VERTEX
8
0
10
455.153846
20
380.230769
0
VERTEX
8
0
10
450.100000
20
383.200000
0
VERTEX
8
0
10
418.923077
20
395.615385
0
VERTEX
8
0
10
415.076923
20
396.384615
0
VERTEX
8
0
10
402.000000
20
398.000000
0
VERTEX
8
0
10
388.088235
20
394.647059
0
VERTEX
8
0
10
384.900000
20
393.300000
0
VERTEX
8
0
10
358.153846
20
381.769231
0
VERTEX
8
0
10
354.000000
20
379.000000
0
VERTEX
8
0
10
354.000000
20
377.000000
0
VERTEX
8
0
10
364.900000
20
370.800000
0
VERTEX
8
0
10
370.100000
20
368.200000
0
VERTEX
8
0
10
397.088235
20
358.352941
0
VERTEX
8
0
10
399.911765
20
357.647059
0
VERTEX
8
0
10
411.000000
20
356.000000
0
SEQEND
0
POLYLINE
8
0
6
CONTINUOUS
66
1
62
7
10
0.0
20
0.0
30
0.000000
0
VERTEX
8
0
10
249.000000
20
355.000000
0
VERTEX
8
0
10
259.100000
20
358.700000
0
VERTEX
8
0
10
283.900000
20
369.200000
0
VERTEX
8
0
10
291.900000
20
373.200000
0
VERTEX
8
0
10
298.000000
20
377.000000
0
VERTEX
8
0
10
298.200000
20
377.900000
0
VERTEX
8
0
10
299.000000
20
379.000000
0
VERTEX
8
0
10
293.100000
20
384.200000
0
VERTEX
8
0
10
261.923077
20
397.615385
0
VERTEX
8
0
10
258.076923
20
398.384615
0
VERTEX
8
0
10
246.000000
20
400.000000
0
VERTEX
8
0
10
236.076923
20
397.615385
0
VERTEX
8
0
10
230.900000
20
396.200000
0
VERTEX
8
0
10
200.000000
20
382.000000
0
VERTEX
8
0
10
199.000000
20
381.000000
0
VERTEX
8
0
10
199.000000
20
379.000000
0
VERTEX
8
0
10
201.000000
20
377.000000
0
VERTEX
8
0
10
212.100000
20
371.200000
0
VERTEX
8
0
10
218.900000
20
367.800000
0
VERTEX
8
0
10
239.100000
20
358.300000
0
VERTEX
8
0
10
249.000000
20
355.000000
0
SEQEND
0
POLYLINE
8
0
6
CONTINUOUS
66
1
62
7
10
0.0
20
0.0
30
0.000000
0
VERTEX
8
0
10
262.000000
20
265.000000
0
VERTEX
8
0
10
265.900000
20
267.200000
0
VERTEX
8
0
10
285.783186
20
280.247788
0
VERTEX
8
0
10
301.000000
20
294.000000
0
VERTEX
8
0
10
302.769231
20
297.153846
0
VERTEX
8
0
10
307.769231
20
305.153846
0
VERTEX
8
0
10
311.647059
20
318.088235
0
VERTEX
8
0
10
312.352941
20
320.911765
0
VERTEX
8
0
10
314.000000
20
334.000000
0
VERTEX
8
0
10
314.000000
20
351.000000
0
VERTEX
8
0
10
312.000000
20
353.000000
0
VERTEX
8
0
10
306.153846
20
349.769231
0
VERTEX
8
0
10
303.846154
20
348.230769
0
VERTEX
8
0
10
281.000000
20
333.000000
0
VERTEX
8
0
10
271.000000
20
323.000000
0
VERTEX
8
0
10
266.300000
20
311.900000
0
VERTEX
8
0
10
264.647059
20
306.088235
0
VERTEX
8
0
10
260.000000
20
277.000000
0
VERTEX
8
0
10
260.000000
20
268.000000
0
VERTEX
8
0
10
261.200000
20
266.100000
0
VERTEX
8
0
10
262.000000
20
265.000000
0
SEQEND
0
POLYLINE
8
0
6
CONTINUOUS
66
1
62
7
10
0.0
20
0.0
30
0.000000
0
VERTEX
8
0
10
392.000000
20
264.000000
0
VERTEX
8
0
10
394.000000
20
269.000000
0
VERTEX
8
0
10
391.430769
20
295.053846
0
VERTEX
8
0
10
389.615385
20
306.923077
0
VERTEX
8
0
10
383.760000
20
318.820000
0
VERTEX
8
0
10
379.000000
20
326.000000
0
VERTEX
8
0
10
362.204918
20
341.245902
0
VERTEX
8
0
10
351.804878
20
349.756098
0
VERTEX
8
0
10
346.000000
20
352.000000
0
VERTEX
8
0
10
344.000000
20
350.000000
0
VERTEX
8
0
10
342.000000
20
338.000000
0
VERTEX
8
0
10
342.000000
20
313.000000
0
VERTEX
8
0
10
345.200000
20
304.100000
0
VERTEX
8
0
10
349.769231
20
296.846154
0
VERTEX
8
0
10
357.000000
20
289.000000
0
VERTEX
8
0
10
378.204918
20
271.245902
0
VERTEX
8
0
10
386.100000
20
266.200000
0
VERTEX
8
0
10
392.000000
20
264.000000
0
SEQEND
0
POLYLINE
8
0
6
CONTINUOUS
66
1
62
7
10
0.0
20
0.0
30
0.000000
0
VERTEX
8
0
10
160.000000
20
254.000000
0
VERTEX
8
0
10
163.000000
20
255.000000
0
VERTEX
8
0
10
165.294118
20
259.176471
0
VERTEX
8
0
10
166.420000
20
264.940000
0
VERTEX
8
0
10
167.000000
20
273.000000
0
VERTEX
8
0
10
163.647059
20
283.911765
0
VERTEX
8
0
10
162.760000
20
285.820000
0
VERTEX
8
0
10
156.000000
20
294.000000
0
VERTEX
8
0
10
151.820000
20
296.760000
0
VERTEX
8
0
10
141.000000
20
302.000000
0
VERTEX
8
0
10
132.000000
20
294.000000
0
VERTEX
8
0
10
131.000000
20
288.000000
0
VERTEX
8
0
10
135.000000
20
283.000000
0
VERTEX
8
0
10
136.000000
20
283.000000
0
VERTEX
8
0
10
146.230769
20
272.153846
0
VERTEX
8
0
10
148.594595
20
267.932432
0
VERTEX
8
0
10
150.000000
20
258.000000
0
VERTEX
8
0
10
153.000000
20
255.000000
0
VERTEX
8
0
10
157.088235
20
254.352941
0
VERTEX
8
0
10
160.000000
20
254.000000
0
SEQEND
0
POLYLINE
8
0
6
CONTINUOUS
66
1
62
7
10
0.0
20
0.0
30
0.000000
0
VERTEX
8
0
10
230.000000
20
254.000000
0
VERTEX
8
0
10
231.088235
20
254.647059
0
VERTEX
8
0
10
234.000000
20
255.000000
0
VERTEX
8
0
10
237.000000
20
258.000000
0
VERTEX
8
0
10
237.529231
20
268.026154
0
VERTEX
8
0
10
239.000000
20
286.000000
0
VERTEX
8
0
10
239.000000
20
316.000000
0
VERTEX
8
0
10
238.384615
20
317.076923
0
VERTEX
8
0
10
236.000000
20
326.000000
0
VERTEX
8
0
10
226.000000
20
336.000000
0
VERTEX
8
0
10
198.900000
20
351.800000
0
VERTEX
8
0
10
198.100000
20
352.200000
0
VERTEX
8
0
10
183.000000
20
359.000000
0
VERTEX
8
0
10
176.000000
20
359.000000
0
VERTEX
8
0
10
169.000000
20
354.000000
0
VERTEX
8
0
10
168.000000
20
352.000000
0
VERTEX
8
0
10
169.800000
20
347.900000
0
VERTEX
8
0
10
170.000000
20
347.000000
0
VERTEX
8
0
10
177.846154
20
341.769231
0
VERTEX
8
0
10
189.153846
20
334.230769
0
VERTEX
8
0
10
206.000000
20
324.000000
0
VERTEX
8
0
10
216.000000
20
314.000000
0
VERTEX
8
0
10
216.647059
20
311.911765
0
VERTEX
8
0
10
217.352941
20
309.088235
0
VERTEX
8
0
10
223.000000
20
257.000000
0
VERTEX
8
0
10
225.000000
20
255.000000
0
VERTEX
8
0
10
227.088235
20
254.352941
0
VERTEX
8
0
10
230.000000
20
254.000000
0
SEQEND
0
POLYLINE
8
0
6
CONTINUOUS
66
1
62
7
10
0.0
20
0.0
30
0.000000
0
VERTEX
8
0
10
196.000000
20
253.000000
0
VERTEX
8
0
10
200.000000
20
255.000000
0
VERTEX
8
0
10
202.544828
20
264.037931
0
VERTEX
8
0
10
204.000000
20
276.000000
0
VERTEX
8
0
10
203.445545
20
290.044554
0
VERTEX
8
0
10
202.300000
20
300.100000
0
VERTEX
8
0
10
199.760000
20
306.820000
0
VERTEX
8
0
10
197.000000
20
311.000000
0
VERTEX
8
0
10
192.100000
20
315.200000
0
VERTEX
8
0
10
171.900000
20
325.700000
0
VERTEX
8
0
10
170.100000
20
326.300000
0
VERTEX
8
0
10
162.000000
20
329.000000
0
VERTEX
8
0
10
153.000000
20
329.000000
0
VERTEX
8
0
10
151.000000
20
328.000000
0
VERTEX
8
0
10
149.800000
20
326.100000
0
VERTEX
8
0
10
149.000000
20
325.000000
0
VERTEX
8
0
10
149.800000
20
321.900000
0
VERTEX
8
0
10
151.000000
20
319.000000
0
VERTEX
8
0
10
157.000000
20
313.000000
0
VERTEX
8
0
10
169.100000
20
305.200000
0
VERTEX
8
0
10
176.000000
20
300.000000
0
VERTEX
8
0
10
180.800000
20
290.900000
0
VERTEX
8
0
10
184.800000
20
257.900000
0
VERTEX
8
0
10
188.000000
20
254.000000
0
VERTEX
8
0
10
192.076923
20
253.384615
0
VERTEX
8
0
10
196.000000
20
253.000000
0
SEQEND
0
POLYLINE
8
0
6
CONTINUOUS
66
1
62
7
10
0.0
20
0.0
30
0.000000
0
VERTEX
8
0
10
427.000000
20
253.000000
0
VERTEX
8
0
10
431.000000
20
254.000000
0
VERTEX
8
0
10
432.230769
20
255.846154
0
VERTEX
8
0
10
433.258824
20
258.164706
0
VERTEX
8
0
10
438.200000
20
307.900000
0
VERTEX
8
0
10
438.800000
20
309.100000
0
VERTEX
8
0
10
441.000000
20
313.000000
0
VERTEX
8
0
10
445.000000
20
317.000000
0
VERTEX
8
0
10
479.180000
20
338.760000
0
VERTEX
8
0
10
484.000000
20
342.000000
0
VERTEX
8
0
10
486.200000
20
344.900000
0
VERTEX
8
0
10
488.000000
20
348.000000
0
VERTEX
8
0
10
486.200000
20
352.100000
0
VERTEX
8
0
10
485.000000
20
355.000000
0
VERTEX
8
0
10
483.100000
20
356.200000
0
VERTEX
8
0
10
482.000000
20
357.000000
0
VERTEX
8
0
10
478.000000
20
357.000000
0
VERTEX
8
0
10
474.088235
20
355.647059
0
VERTEX
8
0
10
452.900000
20
346.200000
0
VERTEX
8
0
10
430.000000
20
335.000000
0
VERTEX
8
0
10
422.000000
20
327.000000
0
VERTEX
8
0
10
417.000000
20
313.000000
0
VERTEX
8
0
10
417.535398
20
281.969027
0
VERTEX
8
0
10
419.700000
20
257.900000
0
VERTEX
8
0
10
420.000000
20
256.000000
0
VERTEX
8
0
10
422.000000
20
254.000000
0
VERTEX
8
0
10
424.088235
20
253.352941
0
VERTEX
8
0
10
427.000000
20
253.000000
0
SEQEND
0
POLYLINE
8
0
6
CONTINUOUS
66
1
62
7
10
0.0
20
0.0
30
0.000000
0
VERTEX
8
0
10
463.000000
20
250.000000
0
VERTEX
8
0
10
467.000000
20
252.000000
0
VERTEX
8
0
10
472.800000
20
289.100000
0
VERTEX
8
0
10
481.000000
20
298.000000
0
VERTEX
8
0
10
492.153846
20
305.769231
0
VERTEX
8
0
10
504.000000
20
315.000000
0
VERTEX
8
0
10
507.000000
20
320.000000
0
VERTEX
8
0
10
506.000000
20
323.000000
0
VERTEX
8
0
10
504.000000
20
325.000000
0
VERTEX
8
0
10
495.000000
20
326.000000
0
VERTEX
8
0
10
484.100000
20
322.700000
0
VERTEX
8
0
10
478.900000
20
320.200000
0
VERTEX
8
0
10
468.820000
20
314.240000
0
VERTEX
8
0
10
463.000000
20
310.000000
0
VERTEX
8
0
10
454.000000
20
301.000000
0
VERTEX
8
0
10
453.200000
20
298.900000
0
VERTEX
8
0
10
452.800000
20
298.100000
0
VERTEX
8
0
10
450.000000
20
287.000000
0
VERTEX
8
0
10
450.000000
20
264.000000
0
VERTEX
8
0
10
452.400000
20
256.200000
0
VERTEX
8
0
10
454.000000
20
253.000000
0
VERTEX
8
0
10
456.000000
20
251.000000
0
VERTEX
8
0
10
463.000000
20
250.000000
0
SEQEND
0
POLYLINE
8
0
6
CONTINUOUS
66
1
62
7
10
0.0
20
0.0
30
0.000000
0
VERTEX
8
0
10
498.000000
20
249.000000
0
VERTEX
8
0
10
501.756098
20
253.195122
0
VERTEX
8
0
10
506.800000
20
263.100000
0
VERTEX
8
0
10
512.760000
20
273.180000
0
VERTEX
8
0
10
521.752941
20
284.211765
0
VERTEX
8
0
10
523.000000
20
287.000000
0
VERTEX
8
0
10
520.000000
20
292.000000
0
VERTEX
8
0
10
517.100000
20
294.200000
0
VERTEX
8
0
10
512.000000
20
296.000000
0
VERTEX
8
0
10
507.000000
20
296.000000
0
VERTEX
8
0
10
500.000000
20
293.000000
0
VERTEX
8
0
10
489.245902
20
280.795082
0
VERTEX
8
0
10
487.352941
20
276.911765
0
VERTEX
8
0
10
486.647059
20
274.088235
0
VERTEX
8
0
10
486.000000
20
273.000000
0
VERTEX
8
0
10
486.594595
20
264.932432
0
VERTEX
8
0
10
489.000000
20
254.000000
0
VERTEX
8
0
10
493.000000
20
250.000000
0
VERTEX
8
0
10
496.100000
20
249.300000
0
VERTEX
8
0
10
498.000000
20
249.000000
0
SEQEND
0
POLYLINE
8
0
6
CONTINUOUS
66
1
62
7
10
0.0
20
0.0
30
0.000000
0
VERTEX
8
0
10
110.000000
20
235.000000
0
VERTEX
8
0
10
111.100000
20
235.800000
0
VERTEX
8
0
10
114.000000
20
237.000000
0
VERTEX
8
0
10
120.000000
20
243.000000
0
VERTEX
8
0
10
122.000000
20
247.000000
0
VERTEX
8
0
10
122.000000
20
257.000000
0
VERTEX
8
0
10
120.000000
20
261.000000
0
VERTEX
8
0
10
111.000000
20
269.000000
0
VERTEX
8
0
10
99.000000
20
269.000000
0
VERTEX
8
0
10
97.000000
20
268.000000
0
VERTEX
8
0
10
88.800000
20
259.100000
0
VERTEX
8
0
10
88.000000
20
258.000000
0
VERTEX
8
0
10
88.000000
20
247.000000
0
VERTEX
8
0
10
89.000000
20
244.000000
0
VERTEX
8
0
10
96.000000
20
237.000000
0
VERTEX
8
0
10
100.040984
20
235.450820
0
VERTEX
8
0
10
110.000000
20
235.000000
0
SEQEND
0
POLYLINE
8
0
6
CONTINUOUS
66
1
62
7
10
0.0
20
0.0
30
0.000000
0
VERTEX
8
0
10
553.000000
20
230.000000
0
VERTEX
8
0
10
554.100000
20
230.800000
0
VERTEX
8
0
10
560.000000
20
233.000000
0
VERTEX
8
0
10
564.200000
20
237.900000
0
VERTEX
8
0
10
567.000000
20
244.000000
0
VERTEX
8
0
10
567.000000
20
250.000000
0
VERTEX
8
0
10
565.400000
20
253.700000
0
VERTEX
8
0
10
563.240000
20
257.180000
0
VERTEX
8
0
10
558.000000
20
263.000000
0
VERTEX
8
0
10
556.100000
20
263.300000
0
VERTEX
8
0
10
555.000000
20
264.000000
0
VERTEX
8
0
10
544.000000
20
264.000000
0
VERTEX
8
0
10
538.000000
20
260.000000
0
VERTEX
8
0
10
536.000000
20
258.000000
0
VERTEX
8
0
10
532.000000
20
248.000000
0
VERTEX
8
0
10
532.000000
20
246.000000
0
VERTEX
8
0
10
537.000000
20
235.000000
0
VERTEX
8
0
10
539.000000
20
233.000000
0
VERTEX
8
0
10
545.048780
20
230.439024
0
VERTEX
8
0
10
553.000000
20
230.000000
0
SEQEND
0
POLYLINE
8
0
6
CONTINUOUS
66
1
62
7
10
0.0
20
0.0
30
0.000000
0
VERTEX
8
0
10
380.000000
20
225.000000
0
VERTEX
8
0
10
386.000000
20
233.000000
0
VERTEX
8
0
10
385.200000
20
236.100000
0
VERTEX
8
0
10
383.000000
20
240.000000
0
VERTEX
8
0
10
345.846154
20
264.769231
0
VERTEX
8
0
10
345.100000
20
265.200000
0
VERTEX
8
0
10
335.911765
20
269.647059
0
VERTEX
8
0
10
333.088235
20
270.352941
0
VERTEX
8
0
10
327.000000
20
271.000000
0
VERTEX
8
0
10
315.088235
20
267.647059
0
VERTEX
8
0
10
281.100000
20
250.800000
0
VERTEX
8
0
10
274.153846
20
246.769231
0
VERTEX
8
0
10
266.000000
20
241.000000
0
VERTEX
8
0
10
265.000000
20
235.000000
0
VERTEX
8
0
10
269.000000
20
228.000000
0
VERTEX
8
0
10
269.846154
20
227.769231
0
VERTEX
8
0
10
272.000000
20
226.000000
0
VERTEX
8
0
10
278.000000
20
226.000000
0
VERTEX
8
0
10
297.900000
20
236.200000
0
VERTEX
8
0
10
311.900000
20
244.200000
0
VERTEX
8
0
10
318.067568
20
246.594595
0
VERTEX
8
0
10
324.000000
20
248.000000
0
VERTEX
8
0
10
332.088235
20
246.352941
0
VERTEX
8
0
10
334.911765
20
245.647059
0
VERTEX
8
0
10
368.900000
20
227.800000
0
VERTEX
8
0
10
374.060000
20
225.420000
0
VERTEX
8
0
10
380.000000
20
225.000000
0
SEQEND
0
POLYLINE
8
0
6
CONTINUOUS
66
1
62
7
10
0.0
20
0.0
30
0.000000
0
VERTEX
8
0
10
290.000000
20
191.000000
0
VERTEX
8
0
10
293.900000
20
193.200000
0
VERTEX
8
0
10
320.088235
20
208.647059
0
VERTEX
8
0
10
324.000000
20
210.000000
0
VERTEX
8
0
10
327.088235
20
209.352941
0
VERTEX
8
0
10
329.911765
20
208.647059
0
VERTEX
8
0
10
335.846154
20
205.769231
0
VERTEX
8
0
10
346.100000
20
200.300000
0
VERTEX
8
0
10
347.900000
20
199.700000
0
VERTEX
8
0
10
361.000000
20
195.000000
0
VERTEX
8
0
10
364.900000
20
196.200000
0
VERTEX
8
0
10
366.100000
20
196.800000
0
VERTEX
8
0
10
370.000000
20
200.000000
0
VERTEX
8
0
10
371.000000
20
204.000000
0
VERTEX
8
0
10
363.000000
20
212.000000
0
VERTEX
8
0
10
347.846154
20
222.769231
0
VERTEX
8
0
10
342.100000
20
226.200000
0
VERTEX
8
0
10
329.000000
20
232.000000
0
VERTEX
8
0
10
318.088235
20
229.647059
0
VERTEX
8
0
10
295.100000
20
217.800000
0
VERTEX
8
0
10
286.100000
20
212.800000
0
VERTEX
8
0
10
281.000000
20
210.000000
0
VERTEX
8
0
10
281.000000
20
205.000000
0
VERTEX
8
0
10
284.769231
20
196.846154
0
VERTEX
8
0
10
290.000000
20
191.000000
0
SEQEND
0
POLYLINE
8
0
6
CONTINUOUS
66
1
62
7
10
0.0
20
0.0
30
0.000000
0
VERTEX
8
0
10
342.000000
20
164.000000
0
VERTEX
8
0
10
345.900000
20
166.200000
0
VERTEX
8
0
10
350.000000
20
169.000000
0
VERTEX
8
0
10
353.000000
20
176.000000
0
VERTEX
8
0
10
343.153846
20
183.230769
0
VERTEX
8
0
10
340.153846
20
185.230769
0
VERTEX
8
0
10
331.000000
20
190.000000
0
VERTEX
8
0
10
325.000000
20
190.000000
0
VERTEX
8
0
10
320.076923
20
188.615385
0
VERTEX
8
0
10
311.153846
20
184.769231
0
VERTEX
8
0
10
302.000000
20
178.000000
0
VERTEX
8
0
10
301.300000
20
175.900000
0
VERTEX
8
0
10
300.000000
20
173.000000
0
VERTEX
8
0
10
300.800000
20
169.900000
0
VERTEX
8
0
10
301.000000
20
169.000000
0
VERTEX
8
0
10
307.000000
20
166.000000
0
VERTEX
8
0
10
326.000000
20
168.000000
0
VERTEX
8
0
10
331.900000
20
165.700000
0
VERTEX
8
0
10
342.000000
20
164.000000
0
SEQEND
0
POLYLINE
8
0
6
CONTINUOUS
66
1
62
7
10
0.0
20
0.0
30
0.000000
0
VERTEX
8
0
10
326.000000
20
103.000000
0
VERTEX
8
0
10
330.923077
20
104.384615
0
VERTEX
8
0
10
334.820000
20
106.240000
0
VERTEX
8
0
10
339.000000
20
109.000000
0
VERTEX
8
0
10
342.200000
20
114.900000
0
VERTEX
8
0
10
343.000000
20
116.000000
0
VERTEX
8
0
10
343.000000
20
126.000000
0
VERTEX
8
0
10
341.000000
20
130.000000
0
VERTEX
8
0
10
335.153846
20
135.230769
0
VERTEX
8
0
10
329.000000
20
138.000000
0
VERTEX
8
0
10
323.000000
20
138.000000
0
VERTEX
8
0
10
319.206897
20
136.482759
0
VERTEX
8
0
10
316.846154
20
135.230769
0
VERTEX
8
0
10
310.000000
20
129.000000
0
VERTEX
8
0
10
309.700000
20
127.100000
0
VERTEX
8
0
10
309.000000
20
126.000000
0
VERTEX
8
0
10
309.000000
20
115.000000
0
VERTEX
8
0
10
312.000000
20
110.000000
0
VERTEX
8
0
10
317.180000
20
106.240000
0
VERTEX
8
0
10
321.076923
20
104.384615
0
VERTEX
8
0
10
326.000000
20
103.000000
0
SEQEND
0
POLYLINE
8
0
6
CONTINUOUS
66
1
62
7
10
0.0
20
0.0
30
0.000000
0
VERTEX
8
0
10
328.000000
20
71.000000
0
VERTEX
8
0
10
343.100000
20
74.800000
0
VERTEX
8
0
10
357.000000
20
82.000000
0
VERTEX
8
0
10
360.000000
20
85.000000
0
VERTEX
8
0
10
368.800000
20
97.100000
0
VERTEX
8
0
10
369.200000
20
97.900000
0
VERTEX
8
0
10
375.000000
20
113.000000
0
VERTEX
8
0
10
375.000000
20
129.000000
0
VERTEX
8
0
10
370.800000
20
140.900000
0
VERTEX
8
0
10
370.000000
20
142.000000
0
VERTEX
8
0
10
379.800000
20
156.100000
0
VERTEX
8
0
10
380.200000
20
156.900000
0
VERTEX
8
0
10
383.647059
20
165.088235
0
VERTEX
8
0
10
384.800000
20
169.100000
0
VERTEX
8
0
10
395.760000
20
181.180000
0
VERTEX
8
0
10
398.200000
20
184.900000
0
VERTEX
8
0
10
400.615385
20
190.076923
0
VERTEX
8
0
10
402.000000
20
202.000000
0
VERTEX
8
0
10
410.751381
20
211.223757
0
VERTEX
8
0
10
414.800000
20
219.100000
0
VERTEX
8
0
10
417.000000
20
222.000000
0
VERTEX
8
0
10
420.911765
20
220.647059
0
VERTEX
8
0
10
422.000000
20
220.000000
0
VERTEX
8
0
10
427.088235
20
220.647059
0
VERTEX
8
0
10
429.911765
20
221.352941
0
VERTEX
8
0
10
441.000000
20
223.000000
0
VERTEX
8
0
10
443.900000
20
221.700000
0
VERTEX
8
0
10
453.000000
20
218.000000
0
VERTEX
8
0
10
468.000000
20
218.000000
0
VERTEX
8
0
10
473.932432
20
219.405405
0
VERTEX
8
0
10
477.900000
20
221.200000
0
VERTEX
8
0
10
479.000000
20
222.000000
0
VERTEX
8
0
10
481.100000
20
221.200000
0
VERTEX
8
0
10
481.900000
20
220.800000
0
VERTEX
8
0
10
487.053846
20
218.430769
0
VERTEX
8
0
10
493.946154
20
217.569231
0
VERTEX
8
0
10
502.000000
20
217.000000
0
VERTEX
8
0
10
503.088235
20
217.647059
0
VERTEX
8
0
10
509.000000
20
219.000000
0
VERTEX
8
0
10
511.000000
20
217.000000
0
VERTEX
8
0
10
511.000000
20
216.000000
0
VERTEX
8
0
10
519.846154
20
207.769231
0
VERTEX
8
0
10
522.900000
20
205.800000
0
VERTEX
8
0
10
536.900000
20
199.700000
0
VERTEX
8
0
10
540.911765
20
198.647059
0
VERTEX
8
0
10
542.000000
20
198.000000
0
VERTEX
8
0
10
557.000000
20
198.000000
0
VERTEX
8
0
10
560.911765
20
199.352941
0
VERTEX
8
0
10
575.100000
20
204.800000
0
VERTEX
8
0
10
580.000000
20
208.000000
0
VERTEX
8
0
10
588.230769
20
216.846154
0
VERTEX
8
0
10
593.769231
20
225.153846
0
VERTEX
8
0
10
596.700000
20
233.100000
0
VERTEX
8
0
10
597.300000
20
234.900000
0
VERTEX
8
0
10
599.000000
20
240.000000
0
VERTEX
8
0
10
599.000000
20
250.000000
0
VERTEX
8
0
10
597.580000
20
256.940000
0
VERTEX
8
0
10
596.615385
20
261.923077
0
VERTEX
8
0
10
590.760000
20
274.820000
0
VERTEX
8
0
10
588.240000
20
278.180000
0
VERTEX
8
0
10
583.000000
20
284.000000
0
VERTEX
8
0
10
578.820000
20
286.760000
0
VERTEX
8
0
10
567.900000
20
292.700000
0
VERTEX
8
0
10
564.911765
20
293.647059
0
VERTEX
8
0
10
554.000000
20
296.000000
0
VERTEX
8
0
10
552.000000
20
298.000000
0
VERTEX
8
0
10
551.200000
20
302.100000
0
VERTEX
8
0
10
547.000000
20
310.000000
0
VERTEX
8
0
10
538.000000
20
318.000000
0
VERTEX
8
0
10
537.544828
20
328.962069
0
VERTEX
8
0
10
536.800000
20
330.900000
0
VERTEX
8
0
10
535.200000
20
334.100000
0
VERTEX
8
0
10
530.000000
20
344.000000
0
VERTEX
8
0
10
521.000000
20
351.000000
0
VERTEX
8
0
10
519.000000
20
353.000000
0
VERTEX
8
0
10
517.647059
20
358.911765
0
VERTEX
8
0
10
512.760000
20
369.820000
0
VERTEX
8
0
10
509.500000
20
375.000000
0
VERTEX
8
0
10
513.200000
20
380.900000
0
VERTEX
8
0
10
514.200000
20
382.900000
0
VERTEX
8
0
10
518.569231
20
393.053846
0
VERTEX
8
0
10
519.000000
20
400.000000
0
VERTEX
8
0
10
521.000000
20
402.000000
0
VERTEX
8
0
10
522.000000
20
402.000000
0
VERTEX
8
0
10
530.200000
20
411.900000
0
VERTEX
8
0
10
532.200000
20
415.900000
0
VERTEX
8
0
10
534.647059
20
421.088235
0
VERTEX
8
0
10
535.000000
20
424.000000
0
VERTEX
8
0
10
539.000000
20
428.000000
0
VERTEX
8
0
10
540.000000
20
428.000000
0
VERTEX
8
0
10
544.000000
20
432.000000
0
VERTEX
8
0
10
548.800000
20
440.100000
0
VERTEX
8
0
10
549.200000
20
440.900000
0
VERTEX
8
0
10
553.800000
20
452.100000
0
VERTEX
8
0
10
554.000000
20
453.000000
0
VERTEX
8
0
10
570.100000
20
456.800000
0
VERTEX
8
0
10
581.000000
20
462.000000
0
VERTEX
8
0
10
590.243902
20
471.804878
0
VERTEX
8
0
10
595.769231
20
479.153846
0
VERTEX
8
0
10
599.647059
20
491.088235
0
VERTEX
8
0
10
601.384615
20
498.923077
0
VERTEX
8
0
10
602.000000
20
506.000000
0
VERTEX
8
0
10
600.352941
20
512.088235
0
VERTEX
8
0
10
596.800000
20
521.900000
0
VERTEX
8
0
10
595.200000
20
525.100000
0
VERTEX
8
0
10
588.000000
20
537.000000
0
VERTEX
8
0
10
584.000000
20
541.000000
0
VERTEX
8
0
10
571.900000
20
547.800000
0
VERTEX
8
0
10
571.100000
20
548.200000
0
VERTEX
8
0
10
562.946154
20
550.569231
0
VERTEX
8
0
10
549.000000
20
552.000000
0
VERTEX
8
0
10
534.088235
20
548.647059
0
VERTEX
8
0
10
530.900000
20
547.200000
0
VERTEX
8
0
10
521.000000
20
541.000000
0
VERTEX
8
0
10
514.000000
20
534.000000
0
VERTEX
8
0
10
511.000000
20
529.000000
0
VERTEX
8
0
10
506.000000
20
531.000000
0
VERTEX
8
0
10
489.000000
20
531.000000
0
VERTEX
8
0
10
484.000000
20
529.000000
0
VERTEX
8
0
10
481.000000
20
529.000000
0
VERTEX
8
0
10
479.100000
20
530.200000
0
VERTEX
8
0
10
469.940000
20
532.580000
0
VERTEX
8
0
10
464.060000
20
533.420000
0
VERTEX
8
0
10
457.000000
20
534.000000
0
VERTEX
8
0
10
449.000000
20
531.000000
0
VERTEX
8
0
10
436.970817
20
534.533074
0
VERTEX
8
0
10
422.000000
20
535.000000
0
VERTEX
8
0
10
420.000000
20
537.000000
0
VERTEX
8
0
10
416.000000
20
546.000000
0
VERTEX
8
0
10
407.000000
20
555.000000
0
VERTEX
8
0
10
406.000000
20
555.000000
0
VERTEX
8
0
10
402.200000
20
570.100000
0
VERTEX
8
0
10
401.200000
20
572.100000
0
VERTEX
8
0
10
396.000000
20
581.000000
0
VERTEX
8
0
10
392.180000
20
584.240000
0
VERTEX
8
0
10
386.000000
20
589.000000
0
VERTEX
8
0
10
385.200000
20
595.100000
0
VERTEX
8
0
10
380.760000
20
603.820000
0
VERTEX
8
0
10
374.000000
20
612.000000
0
VERTEX
8
0
10
374.700000
20
614.100000
0
VERTEX
8
0
10
376.300000
20
618.900000
0
VERTEX
8
0
10
380.000000
20
629.000000
0
VERTEX
8
0
10
380.000000
20
644.000000
0
VERTEX
8
0
10
378.647059
20
647.911765
0
VERTEX
8
0
10
378.300000
20
649.100000
0
VERTEX
8
0
10
374.769231
20
658.846154
0
VERTEX
8
0
10
369.230769
20
667.153846
0
VERTEX
8
0
10
365.000000
20
672.000000
0
VERTEX
8
0
10
356.100000
20
678.200000
0
VERTEX
8
0
10
350.000000
20
682.000000
0
VERTEX
8
0
10
351.000000
20
683.000000
0
VERTEX
8
0
10
351.000000
20
689.000000
0
VERTEX
8
0
10
344.000000
20
702.000000
0
VERTEX
8
0
10
342.000000
20
704.000000
0
VERTEX
8
0
10
332.000000
20
708.000000
0
VERTEX
8
0
10
324.000000
20
708.000000
0
VERTEX
8
0
10
314.000000
20
704.000000
0
VERTEX
8
0
10
312.000000
20
702.000000
0
VERTEX
8
0
10
305.000000
20
689.000000
0
VERTEX
8
0
10
305.000000
20
680.000000
0
VERTEX
8
0
10
306.000000
20
678.000000
0
VERTEX
8
0
10
301.180000
20
674.760000
0
VERTEX
8
0
10
297.820000
20
672.240000
0
VERTEX
8
0
10
292.000000
20
667.000000
0
VERTEX
8
0
10
289.240000
20
662.820000
0
VERTEX
8
0
10
288.200000
20
660.900000
0
VERTEX
8
0
10
283.700000
20
649.100000
0
VERTEX
8
0
10
282.000000
20
644.000000
0
VERTEX
8
0
10
282.000000
20
627.000000
0
VERTEX
8
0
10
283.700000
20
621.900000
0
VERTEX
8
0
10
287.000000
20
614.000000
0
VERTEX
8
0
10
282.000000
20
610.000000
0
VERTEX
8
0
10
281.800000
20
609.100000
0
VERTEX
8
0
10
275.352941
20
594.911765
0
VERTEX
8
0
10
274.000000
20
586.000000
0
VERTEX
8
0
10
270.000000
20
584.000000
0
VERTEX
8
0
10
262.243902
20
574.804878
0
VERTEX
8
0
10
257.352941
20
565.911765
0
VERTEX
8
0
10
255.200000
20
557.900000
0
VERTEX
8
0
10
253.000000
20
555.000000
0
VERTEX
8
0
10
252.000000
20
555.000000
0
VERTEX
8
0
10
242.800000
20
545.100000
0
VERTEX
8
0
10
237.000000
20
536.000000
0
VERTEX
8
0
10
226.037931
20
535.544828
0
VERTEX
8
0
10
221.076923
20
534.615385
0
VERTEX
8
0
10
219.900000
20
534.300000
0
VERTEX
8
0
10
211.000000
20
532.000000
0
VERTEX
8
0
10
202.076923
20
534.384615
0
VERTEX
8
0
10
196.000000
20
535.000000
0
VERTEX
8
0
10
182.088235
20
531.647059
0
VERTEX
8
0
10
179.900000
20
531.800000
0
VERTEX
8
0
10
175.100000
20
534.200000
0
VERTEX
8
0
10
163.000000
20
538.000000
0
VERTEX
8
0
10
158.000000
20
538.000000
0
VERTEX
8
0
10
153.076923
20
536.615385
0
VERTEX
8
0
10
151.911765
20
536.352941
0
VERTEX
8
0
10
147.000000
20
535.000000
0
VERTEX
8
0
10
146.000000
20
536.000000
0
VERTEX
8
0
10
144.000000
20
540.000000
0
VERTEX
8
0
10
137.000000
20
547.000000
0
VERTEX
8
0
10
125.900000
20
553.800000
0
VERTEX
8
0
10
121.088235
20
555.352941
0
VERTEX
8
0
10
113.000000
20
558.000000
0
VERTEX
8
0
10
102.000000
20
558.000000
0
VERTEX
8
0
10
95.060000
20
556.580000
0
VERTEX
8
0
10
86.900000
20
554.200000
0
VERTEX
8
0
10
74.000000
20
547.000000
0
VERTEX
8
0
10
68.000000
20
541.000000
0
VERTEX
8
0
10
61.200000
20
529.900000
0
VERTEX
8
0
10
59.800000
20
527.100000
0
VERTEX
8
0
10
57.420000
20
518.940000
0
VERTEX
8
0
10
56.580000
20
513.060000
0
VERTEX
8
0
10
56.000000
20
506.000000
0
VERTEX
8
0
10
58.384615
20
494.076923
0
VERTEX
8
0
10
58.800000
20
492.900000
0
VERTEX
8
0
10
64.240000
20
482.180000
0
VERTEX
8
0
10
67.000000
20
478.000000
0
VERTEX
8
0
10
78.820000
20
467.760000
0
VERTEX
8
0
10
84.100000
20
464.200000
0
VERTEX
8
0
10
93.911765
20
460.647059
0
VERTEX
8
0
10
95.053846
20
460.430769
0
VERTEX
8
0
10
102.000000
20
460.000000
0
VERTEX
8
0
10
104.000000
20
458.000000
0
VERTEX
8
0
10
105.800000
20
451.900000
0
VERTEX
8
0
10
108.769231
20
446.846154
0
VERTEX
8
0
10
113.000000
20
440.000000
0
VERTEX
8
0
10
120.000000
20
434.000000
0
VERTEX
8
0
10
120.445545
20
425.044554
0
VERTEX
8
0
10
123.200000
20
418.100000
0
VERTEX
8
0
10
124.800000
20
414.900000
0
VERTEX
8
0
10
133.000000
20
404.000000
0
VERTEX
8
0
10
137.000000
20
402.000000
0
VERTEX
8
0
10
138.647059
20
398.911765
0
VERTEX
8
0
10
140.352941
20
392.088235
0
VERTEX
8
0
10
145.230769
20
383.153846
0
VERTEX
8
0
10
147.200000
20
380.100000
0
VERTEX
8
0
10
146.756098
20
377.195122
0
VERTEX
8
0
10
139.800000
20
368.100000
0
VERTEX
8
0
10
136.647059
20
359.088235
0
VERTEX
8
0
10
135.000000
20
355.000000
0
VERTEX
8
0
10
134.100000
20
354.800000
0
VERTEX
8
0
10
127.000000
20
350.000000
0
VERTEX
8
0
10
124.240000
20
345.820000
0
VERTEX
8
0
10
118.384615
20
334.923077
0
VERTEX
8
0
10
117.405405
20
329.932432
0
VERTEX
8
0
10
115.949045
20
325.573248
0
VERTEX
8
0
10
110.756098
20
318.195122
0
VERTEX
8
0
10
99.000000
20
301.000000
0
VERTEX
8
0
10
95.911765
20
300.352941
0
VERTEX
8
0
10
84.100000
20
296.800000
0
VERTEX
8
0
10
77.846154
20
293.230769
0
VERTEX
8
0
10
66.000000
20
282.000000
0
VERTEX
8
0
10
61.230769
20
274.846154
0
VERTEX
8
0
10
57.352941
20
263.911765
0
VERTEX
8
0
10
56.647059
20
261.088235
0
VERTEX
8
0
10
56.000000
20
260.000000
0
VERTEX
8
0
10
56.000000
20
245.000000
0
VERTEX
8
0
10
59.352941
20
234.088235
0
VERTEX
8
0
10
60.300000
20
231.100000
0
VERTEX
8
0
10
65.000000
20
223.000000
0
VERTEX
8
0
10
75.000000
20
213.000000
0
VERTEX
8
0
10
87.088235
20
206.352941
0
VERTEX
8
0
10
89.911765
20
205.647059
0
VERTEX
8
0
10
97.000000
20
203.000000
0
VERTEX
8
0
10
113.000000
20
203.000000
0
VERTEX
8
0
10
126.900000
20
208.200000
0
VERTEX
8
0
10
128.100000
20
208.800000
0
VERTEX
8
0
10
134.000000
20
212.000000
0
VERTEX
8
0
10
143.000000
20
221.000000
0
VERTEX
8
0
10
143.000000
20
222.000000
0
VERTEX
8
0
10
145.000000
20
224.000000
0
VERTEX
8
0
10
153.940000
20
222.580000
0
VERTEX
8
0
10
163.000000
20
222.000000
0
VERTEX
8
0
10
173.000000
20
225.000000
0
VERTEX
8
0
10
179.100000
20
223.300000
0
VERTEX
8
0
10
180.900000
20
222.700000
0
VERTEX
8
0
10
185.000000
20
221.000000
0
VERTEX
8
0
10
198.000000
20
221.000000
0
VERTEX
8
0
10
204.940000
20
222.420000
0
VERTEX
8
0
10
206.088235
20
222.647059
0
VERTEX
8
0
10
210.900000
20
224.200000
0
VERTEX
8
0
10
212.000000
20
225.000000
0
VERTEX
8
0
10
226.000000
20
221.000000
0
VERTEX
8
0
10
234.000000
20
222.000000
0
VERTEX
8
0
10
242.230769
20
211.153846
0
VERTEX
8
0
10
248.527027
20
202.662162
0
VERTEX
8
0
10
251.700000
20
191.900000
0
VERTEX
8
0
10
252.300000
20
190.100000
0
VERTEX
8
0
10
259.200000
20
178.100000
0
VERTEX
8
0
10
263.000000
20
172.000000
0
VERTEX
8
0
10
264.000000
20
172.000000
0
VERTEX
8
0
10
269.000000
20
167.000000
0
VERTEX
8
0
10
269.384615
20
163.076923
0
VERTEX
8
0
10
273.200000
20
153.100000
0
VERTEX
8
0
10
274.800000
20
149.900000
0
VERTEX
8
0
10
278.000000
20
146.000000
0
VERTEX
8
0
10
279.000000
20
146.000000
0
VERTEX
8
0
10
282.000000
20
143.000000
0
VERTEX
8
0
10
277.000000
20
129.000000
0
VERTEX
8
0
10
277.000000
20
111.000000
0
VERTEX
8
0
10
282.200000
20
98.100000
0
VERTEX
8
0
10
282.800000
20
96.900000
0
VERTEX
8
0
10
295.000000
20
82.000000
0
VERTEX
8
0
10
310.100000
20
74.200000
0
VERTEX
8
0
10
310.900000
20
73.800000
0
VERTEX
8
0
10
323.067568
20
71.405405
0
VERTEX
8
0
10
328.000000
20
71.000000
0
SEQEND
0
ENDSEC
0
EOF
