0
SECTION
2
HEADER
9
$ACADVER
1
AC1003
9
$INSBASE
10
0.0
20
0.0
30
0.0
9
$EXTMIN
10
0.000
20
0.000
30
0.0
9
$EXTMAX
10
739.000
20
723.000
30
0.0
9
$LIMMIN
10
0.000
20
0.000
9
$LIMMAX
10
739.000
20
723.000
9
$LTSCALE
40
1.0
9
$LUNITS
70
2
9
$LUPREC
70
3
9
$LIMCHECK
70
0
9
$UCSNAME
2

9
$UCSORG
10
0.0
20
0.0
30
0.0
9
$UCSXDIR
10
1.0
20
0.0
30
0.0
9
$UCSYDIR
10
0.0
20
1.0
30
0.0
9
$WORLDVIEW
70
1
9
$UNITMODE
70
0
0
ENDSEC
0
SECTION
2
TABLES
0
TABLE
2
VPORT
70
1
0
VPORT
2
*ACTIVE
70
0
10
0.0
20
0.0
11
1.0
21
1.0
12
369.500
22
361.500
13
0.0
23
0.0
14
1.0
24
1.0
15
0.0
25
0.0
16
0.0
26
0.0
36
1.0
17
0.0
27
0.0
37
0.0
40
500.0
41
0.978
42
50.0
43
0.0
44
0.0
50
0.0
51
0.0
71
0
72
100
73
1
74
1
75
0
76
0
77
0
78
0
0
ENDTAB
0
TABLE
2
LTYPE
70
1
0
LTYPE
2
CONTINUOUS
70
64
3
Solid line
72
65
73
0
40
0.000
0
ENDTAB
0
TABLE
2
LAYER
70
1
0
LAYER
2
0
70
64
62
7
6
CONTINUOUS
0
ENDTAB
0
ENDSEC
0
SECTION
2
BLOCKS
0
ENDSEC
0
SECTION
2
ENTITIES
0
POLYLINE
8
0
6
CONTINUOUS
66
1
62
7
10
0.0
20
0.0
30
0.000000
0
VERTEX
8
0
10
370.000000
20
666.000000
0
VERTEX
8
0
10
371.100000
20
666.700000
0
VERTEX
8
0
10
373.000000
20
667.000000
0
VERTEX
8
0
10
378.000000
20
672.000000
0
VERTEX
8
0
10
378.000000
20
677.000000
0
VERTEX
8
0
10
376.800000
20
678.900000
0
VERTEX
8
0
10
375.000000
20
682.000000
0
VERTEX
8
0
10
374.100000
20
682.200000
0
VERTEX
8
0
10
373.000000
20
683.000000
0
VERTEX
8
0
10
366.000000
20
683.000000
0
VERTEX
8
0
10
364.000000
20
682.000000
0
VERTEX
8
0
10
361.000000
20
678.000000
0
VERTEX
8
0
10
361.000000
20
672.000000
0
VERTEX
8
0
10
366.000000
20
667.000000
0
VERTEX
8
0
10
370.000000
20
666.000000
0
SEQEND
0
POLYLINE
8
0
6
CONTINUOUS
66
1
62
7
10
0.0
20
0.0
30
0.000000
0
VERTEX
8
0
10
317.000000
20
627.000000
0
VERTEX
8
0
10
318.000000
20
628.000000
0
SEQEND
0
POLYLINE
8
0
6
CONTINUOUS
66
1
62
7
10
0.0
20
0.0
30
0.000000
0
VERTEX
8
0
10
452.000000
20
620.000000
0
VERTEX
8
0
10
449.000000
20
621.000000
0
SEQEND
0
POLYLINE
8
0
6
CONTINUOUS
66
1
62
7
10
0.0
20
0.0
30
0.000000
0
VERTEX
8
0
10
289.000000
20
619.000000
0
VERTEX
8
0
10
289.000000
20
620.000000
0
VERTEX
8
0
10
313.088235
20
626.647059
0
VERTEX
8
0
10
317.000000
20
627.000000
0
SEQEND
0
POLYLINE
8
0
6
CONTINUOUS
66
1
62
7
10
0.0
20
0.0
30
0.000000
0
VERTEX
8
0
10
454.000000
20
619.000000
0
VERTEX
8
0
10
452.000000
20
620.000000
0
SEQEND
0
POLYLINE
8
0
6
CONTINUOUS
66
1
62
7
10
0.0
20
0.0
30
0.000000
0
VERTEX
8
0
10
453.000000
20
618.000000
0
VERTEX
8
0
10
452.000000
20
620.000000
0
SEQEND
0
POLYLINE
8
0
6
CONTINUOUS
66
1
62
7
10
0.0
20
0.0
30
0.000000
0
VERTEX
8
0
10
453.000000
20
618.000000
0
VERTEX
8
0
10
454.000000
20
619.000000
0
SEQEND
0
POLYLINE
8
0
6
CONTINUOUS
66
1
62
7
10
0.0
20
0.0
30
0.000000
0
VERTEX
8
0
10
289.000000
20
619.000000
0
VERTEX
8
0
10
298.955446
20
618.554455
0
VERTEX
8
0
10
305.900000
20
615.800000
0
VERTEX
8
0
10
307.100000
20
615.200000
0
VERTEX
8
0
10
311.000000
20
614.000000
0
VERTEX
8
0
10
313.000000
20
616.000000
0
VERTEX
8
0
10
316.800000
20
626.100000
0
VERTEX
8
0
10
317.000000
20
627.000000
0
SEQEND
0
POLYLINE
8
0
6
CONTINUOUS
66
1
62
7
10
0.0
20
0.0
30
0.000000
0
VERTEX
8
0
10
269.000000
20
613.000000
0
VERTEX
8
0
10
272.900000
20
614.200000
0
VERTEX
8
0
10
282.088235
20
617.647059
0
VERTEX
8
0
10
289.000000
20
619.000000
0
SEQEND
0
POLYLINE
8
0
6
CONTINUOUS
66
1
62
7
10
0.0
20
0.0
30
0.000000
0
VERTEX
8
0
10
362.000000
20
555.000000
0
VERTEX
8
0
10
371.955446
20
556.445545
0
VERTEX
8
0
10
376.800000
20
557.600000
0
VERTEX
8
0
10
380.000000
20
559.000000
0
VERTEX
8
0
10
382.200000
20
562.900000
0
VERTEX
8
0
10
383.000000
20
564.000000
0
VERTEX
8
0
10
381.405405
20
581.067568
0
VERTEX
8
0
10
380.594595
20
585.932432
0
VERTEX
8
0
10
378.800000
20
589.900000
0
VERTEX
8
0
10
378.200000
20
591.100000
0
VERTEX
8
0
10
363.000000
20
608.000000
0
VERTEX
8
0
10
352.900000
20
614.800000
0
VERTEX
8
0
10
350.000000
20
616.000000
0
VERTEX
8
0
10
346.000000
20
612.000000
0
VERTEX
8
0
10
343.300000
20
605.900000
0
VERTEX
8
0
10
342.700000
20
604.100000
0
VERTEX
8
0
10
338.000000
20
591.000000
0
VERTEX
8
0
10
338.000000
20
585.000000
0
VERTEX
8
0
10
345.300000
20
567.100000
0
VERTEX
8
0
10
346.800000
20
563.900000
0
VERTEX
8
0
10
348.000000
20
561.000000
0
VERTEX
8
0
10
353.000000
20
556.000000
0
VERTEX
8
0
10
356.060000
20
555.420000
0
VERTEX
8
0
10
362.000000
20
555.000000
0
SEQEND
0
POLYLINE
8
0
6
CONTINUOUS
66
1
62
7
10
0.0
20
0.0
30
0.000000
0
VERTEX
8
0
10
419.000000
20
549.000000
0
VERTEX
8
0
10
423.000000
20
551.000000
0
VERTEX
8
0
10
426.700000
20
557.100000
0
VERTEX
8
0
10
427.300000
20
558.900000
0
VERTEX
8
0
10
429.000000
20
566.000000
0
VERTEX
8
0
10
429.000000
20
587.000000
0
VERTEX
8
0
10
427.580000
20
593.940000
0
VERTEX
8
0
10
427.200000
20
595.100000
0
VERTEX
8
0
10
424.000000
20
599.000000
0
VERTEX
8
0
10
422.000000
20
599.000000
0
VERTEX
8
0
10
415.153846
20
594.769231
0
VERTEX
8
0
10
409.000000
20
591.000000
0
VERTEX
8
0
10
405.754098
20
587.204918
0
VERTEX
8
0
10
399.230769
20
578.846154
0
VERTEX
8
0
10
395.200000
20
569.900000
0
VERTEX
8
0
10
393.700000
20
566.100000
0
VERTEX
8
0
10
393.000000
20
565.000000
0
VERTEX
8
0
10
393.000000
20
559.000000
0
VERTEX
8
0
10
397.000000
20
555.000000
0
VERTEX
8
0
10
409.040984
20
549.450820
0
VERTEX
8
0
10
419.000000
20
549.000000
0
SEQEND
0
POLYLINE
8
0
6
CONTINUOUS
66
1
62
7
10
0.0
20
0.0
30
0.000000
0
VERTEX
8
0
10
317.000000
20
534.000000
0
VERTEX
8
0
10
320.100000
20
535.800000
0
VERTEX
8
0
10
329.000000
20
541.000000
0
VERTEX
8
0
10
338.000000
20
550.000000
0
VERTEX
8
0
10
339.000000
20
553.000000
0
VERTEX
8
0
10
339.000000
20
555.000000
0
VERTEX
8
0
10
334.000000
20
566.000000
0
VERTEX
8
0
10
331.000000
20
569.000000
0
VERTEX
8
0
10
316.100000
20
578.200000
0
VERTEX
8
0
10
314.900000
20
578.800000
0
VERTEX
8
0
10
305.959016
20
581.549180
0
VERTEX
8
0
10
296.377358
20
583.320755
0
VERTEX
8
0
10
292.000000
20
586.000000
0
VERTEX
8
0
10
290.000000
20
586.000000
0
VERTEX
8
0
10
288.000000
20
584.000000
0
VERTEX
8
0
10
287.700000
20
582.100000
0
VERTEX
8
0
10
287.000000
20
581.000000
0
VERTEX
8
0
10
287.000000
20
567.000000
0
VERTEX
8
0
10
289.352941
20
557.088235
0
VERTEX
8
0
10
292.000000
20
550.000000
0
VERTEX
8
0
10
293.820000
20
548.760000
0
VERTEX
8
0
10
305.180000
20
540.240000
0
VERTEX
8
0
10
313.100000
20
536.200000
0
VERTEX
8
0
10
317.000000
20
534.000000
0
SEQEND
0
POLYLINE
8
0
6
CONTINUOUS
66
1
62
7
10
0.0
20
0.0
30
0.000000
0
VERTEX
8
0
10
445.000000
20
526.000000
0
VERTEX
8
0
10
449.000000
20
528.000000
0
VERTEX
8
0
10
454.200000
20
534.900000
0
VERTEX
8
0
10
456.300000
20
539.900000
0
VERTEX
8
0
10
458.000000
20
544.000000
0
VERTEX
8
0
10
458.000000
20
558.000000
0
VERTEX
8
0
10
456.000000
20
564.000000
0
VERTEX
8
0
10
451.000000
20
564.000000
0
VERTEX
8
0
10
446.100000
20
561.800000
0
VERTEX
8
0
10
442.000000
20
560.000000
0
VERTEX
8
0
10
438.769231
20
556.153846
0
VERTEX
8
0
10
430.000000
20
541.000000
0
VERTEX
8
0
10
430.800000
20
538.900000
0
VERTEX
8
0
10
433.000000
20
534.000000
0
VERTEX
8
0
10
440.900000
20
527.800000
0
VERTEX
8
0
10
445.000000
20
526.000000
0
SEQEND
0
POLYLINE
8
0
6
CONTINUOUS
66
1
62
7
10
0.0
20
0.0
30
0.000000
0
VERTEX
8
0
10
294.000000
20
502.000000
0
VERTEX
8
0
10
298.000000
20
504.000000
0
VERTEX
8
0
10
301.200000
20
508.900000
0
VERTEX
8
0
10
303.200000
20
512.900000
0
VERTEX
8
0
10
309.000000
20
524.000000
0
VERTEX
8
0
10
309.000000
20
529.000000
0
VERTEX
8
0
10
307.000000
20
531.000000
0
VERTEX
8
0
10
277.911765
20
535.647059
0
VERTEX
8
0
10
275.088235
20
536.352941
0
VERTEX
8
0
10
261.100000
20
541.200000
0
VERTEX
8
0
10
260.000000
20
542.000000
0
VERTEX
8
0
10
258.000000
20
540.000000
0
VERTEX
8
0
10
258.000000
20
537.000000
0
VERTEX
8
0
10
263.300000
20
519.100000
0
VERTEX
8
0
10
264.200000
20
517.100000
0
VERTEX
8
0
10
268.000000
20
511.000000
0
VERTEX
8
0
10
272.900000
20
507.800000
0
VERTEX
8
0
10
282.060000
20
503.420000
0
VERTEX
8
0
10
294.000000
20
502.000000
0
SEQEND
0
POLYLINE
8
0
6
CONTINUOUS
66
1
62
7
10
0.0
20
0.0
30
0.000000
0
VERTEX
8
0
10
458.000000
20
496.000000
0
VERTEX
8
0
10
472.153846
20
503.769231
0
VERTEX
8
0
10
481.000000
20
511.000000
0
VERTEX
8
0
10
485.754098
20
517.204918
0
VERTEX
8
0
10
494.800000
20
531.100000
0
VERTEX
8
0
10
495.200000
20
531.900000
0
VERTEX
8
0
10
498.000000
20
538.000000
0
VERTEX
8
0
10
496.000000
20
540.000000
0
VERTEX
8
0
10
482.000000
20
540.000000
0
VERTEX
8
0
10
472.000000
20
537.000000
0
VERTEX
8
0
10
468.000000
20
533.000000
0
VERTEX
8
0
10
455.800000
20
514.100000
0
VERTEX
8
0
10
454.000000
20
511.000000
0
VERTEX
8
0
10
454.000000
20
501.000000
0
VERTEX
8
0
10
455.000000
20
498.000000
0
VERTEX
8
0
10
458.000000
20
496.000000
0
SEQEND
0
POLYLINE
8
0
6
CONTINUOUS
66
1
62
7
10
0.0
20
0.0
30
0.000000
0
VERTEX
8
0
10
486.000000
20
468.000000
0
VERTEX
8
0
10
495.100000
20
472.800000
0
VERTEX
8
0
10
522.000000
20
492.000000
0
VERTEX
8
0
10
521.000000
20
496.000000
0
VERTEX
8
0
10
514.180000
20
502.240000
0
VERTEX
8
0
10
508.900000
20
505.800000
0
VERTEX
8
0
10
497.000000
20
509.000000
0
VERTEX
8
0
10
474.900000
20
492.200000
0
VERTEX
8
0
10
460.000000
20
483.000000
0
VERTEX
8
0
10
458.000000
20
481.000000
0
VERTEX
8
0
10
458.000000
20
476.000000
0
VERTEX
8
0
10
459.000000
20
474.000000
0
VERTEX
8
0
10
464.900000
20
469.800000
0
VERTEX
8
0
10
469.026154
20
468.470769
0
VERTEX
8
0
10
486.000000
20
468.000000
0
SEQEND
0
POLYLINE
8
0
6
CONTINUOUS
66
1
62
7
10
0.0
20
0.0
30
0.000000
0
VERTEX
8
0
10
283.000000
20
459.000000
0
VERTEX
8
0
10
290.000000
20
462.000000
0
VERTEX
8
0
10
292.200000
20
465.900000
0
VERTEX
8
0
10
294.000000
20
469.000000
0
VERTEX
8
0
10
294.000000
20
479.000000
0
VERTEX
8
0
10
291.700000
20
485.900000
0
VERTEX
8
0
10
289.000000
20
491.000000
0
VERTEX
8
0
10
284.100000
20
494.200000
0
VERTEX
8
0
10
278.000000
20
496.000000
0
VERTEX
8
0
10
274.000000
20
496.000000
0
VERTEX
8
0
10
265.180000
20
490.760000
0
VERTEX
8
0
10
257.000000
20
485.000000
0
VERTEX
8
0
10
245.769231
20
473.153846
0
VERTEX
8
0
10
243.000000
20
469.000000
0
VERTEX
8
0
10
244.000000
20
468.000000
0
VERTEX
8
0
10
253.900000
20
463.700000
0
VERTEX
8
0
10
278.067568
20
459.405405
0
VERTEX
8
0
10
283.000000
20
459.000000
0
SEQEND
0
POLYLINE
8
0
6
CONTINUOUS
66
1
62
7
10
0.0
20
0.0
30
0.000000
0
VERTEX
8
0
10
479.000000
20
421.000000
0
VERTEX
8
0
10
491.100000
20
425.800000
0
VERTEX
8
0
10
515.100000
20
437.800000
0
VERTEX
8
0
10
518.000000
20
439.000000
0
VERTEX
8
0
10
519.000000
20
441.000000
0
VERTEX
8
0
10
517.200000
20
445.100000
0
VERTEX
8
0
10
513.000000
20
455.000000
0
VERTEX
8
0
10
507.000000
20
459.000000
0
VERTEX
8
0
10
496.000000
20
459.000000
0
VERTEX
8
0
10
468.048780
20
456.560976
0
VERTEX
8
0
10
466.911765
20
456.352941
0
VERTEX
8
0
10
461.000000
20
455.000000
0
VERTEX
8
0
10
456.000000
20
450.000000
0
VERTEX
8
0
10
451.000000
20
437.000000
0
VERTEX
8
0
10
451.000000
20
435.000000
0
VERTEX
8
0
10
459.000000
20
427.000000
0
VERTEX
8
0
10
474.911765
20
421.647059
0
VERTEX
8
0
10
479.000000
20
421.000000
0
SEQEND
0
POLYLINE
8
0
6
CONTINUOUS
66
1
62
7
10
0.0
20
0.0
30
0.000000
0
VERTEX
8
0
10
286.000000
20
414.000000
0
VERTEX
8
0
10
294.100000
20
416.800000
0
VERTEX
8
0
10
303.000000
20
422.000000
0
VERTEX
8
0
10
307.000000
20
428.000000
0
VERTEX
8
0
10
306.200000
20
430.100000
0
VERTEX
8
0
10
303.800000
20
434.900000
0
VERTEX
8
0
10
300.300000
20
443.100000
0
VERTEX
8
0
10
300.000000
20
445.000000
0
VERTEX
8
0
10
297.000000
20
448.000000
0
VERTEX
8
0
10
292.000000
20
449.000000
0
VERTEX
8
0
10
285.000000
20
449.000000
0
VERTEX
8
0
10
267.900000
20
443.200000
0
VERTEX
8
0
10
261.900000
20
440.200000
0
VERTEX
8
0
10
251.000000
20
432.000000
0
VERTEX
8
0
10
249.000000
20
425.000000
0
VERTEX
8
0
10
253.900000
20
421.800000
0
VERTEX
8
0
10
255.900000
20
420.800000
0
VERTEX
8
0
10
272.067568
20
415.405405
0
VERTEX
8
0
10
286.000000
20
414.000000
0
SEQEND
0
POLYLINE
8
0
6
CONTINUOUS
66
1
62
7
10
0.0
20
0.0
30
0.000000
0
VERTEX
8
0
10
378.000000
20
401.000000
0
VERTEX
8
0
10
397.088235
20
404.647059
0
VERTEX
8
0
10
406.900000
20
408.200000
0
VERTEX
8
0
10
416.180000
20
413.760000
0
VERTEX
8
0
10
429.000000
20
425.000000
0
VERTEX
8
0
10
435.200000
20
432.900000
0
VERTEX
8
0
10
445.300000
20
451.900000
0
VERTEX
8
0
10
446.384615
20
456.923077
0
VERTEX
8
0
10
450.000000
20
475.000000
0
VERTEX
8
0
10
450.000000
20
481.000000
0
VERTEX
8
0
10
448.615385
20
485.923077
0
VERTEX
8
0
10
442.800000
20
502.900000
0
VERTEX
8
0
10
441.200000
20
507.100000
0
VERTEX
8
0
10
431.000000
20
523.000000
0
VERTEX
8
0
10
414.804878
20
536.756098
0
VERTEX
8
0
10
406.900000
20
540.800000
0
VERTEX
8
0
10
402.100000
20
543.200000
0
VERTEX
8
0
10
385.000000
20
547.000000
0
VERTEX
8
0
10
365.000000
20
547.000000
0
VERTEX
8
0
10
355.100000
20
543.700000
0
VERTEX
8
0
10
353.911765
20
543.352941
0
VERTEX
8
0
10
343.900000
20
539.200000
0
VERTEX
8
0
10
335.900000
20
535.200000
0
VERTEX
8
0
10
319.000000
20
519.000000
0
VERTEX
8
0
10
313.230769
20
509.846154
0
VERTEX
8
0
10
307.352941
20
496.911765
0
VERTEX
8
0
10
306.647059
20
494.088235
0
VERTEX
8
0
10
305.000000
20
487.000000
0
VERTEX
8
0
10
305.000000
20
466.000000
0
VERTEX
8
0
10
307.384615
20
455.076923
0
VERTEX
8
0
10
309.800000
20
447.900000
0
VERTEX
8
0
10
317.240000
20
434.180000
0
VERTEX
8
0
10
319.760000
20
430.820000
0
VERTEX
8
0
10
322.000000
20
427.000000
0
VERTEX
8
0
10
334.000000
20
415.000000
0
VERTEX
8
0
10
336.100000
20
414.200000
0
VERTEX
8
0
10
342.900000
20
409.800000
0
VERTEX
8
0
10
359.076923
20
403.384615
0
VERTEX
8
0
10
378.000000
20
401.000000
0
SEQEND
0
POLYLINE
8
0
6
CONTINUOUS
66
1
62
7
10
0.0
20
0.0
30
0.000000
0
VERTEX
8
0
10
280.000000
20
377.000000
0
VERTEX
8
0
10
281.060000
20
377.580000
0
VERTEX
8
0
10
291.000000
20
380.000000
0
VERTEX
8
0
10
293.000000
20
382.000000
0
VERTEX
8
0
10
294.580000
20
392.060000
0
VERTEX
8
0
10
296.000000
20
399.000000
0
VERTEX
8
0
10
295.000000
20
404.000000
0
VERTEX
8
0
10
293.000000
20
406.000000
0
VERTEX
8
0
10
278.000000
20
406.000000
0
VERTEX
8
0
10
266.000000
20
403.000000
0
VERTEX
8
0
10
264.800000
20
401.100000
0
VERTEX
8
0
10
264.000000
20
400.000000
0
VERTEX
8
0
10
264.000000
20
387.000000
0
VERTEX
8
0
10
265.200000
20
385.100000
0
VERTEX
8
0
10
268.000000
20
380.000000
0
VERTEX
8
0
10
268.900000
20
379.800000
0
VERTEX
8
0
10
275.067568
20
377.405405
0
VERTEX
8
0
10
280.000000
20
377.000000
0
SEQEND
0
POLYLINE
8
0
6
CONTINUOUS
66
1
62
7
10
0.0
20
0.0
30
0.000000
0
VERTEX
8
0
10
466.000000
20
376.000000
0
VERTEX
8
0
10
471.000000
20
379.000000
0
VERTEX
8
0
10
471.000000
20
390.000000
0
VERTEX
8
0
10
468.647059
20
397.911765
0
VERTEX
8
0
10
462.754098
20
409.795082
0
VERTEX
8
0
10
458.000000
20
416.000000
0
VERTEX
8
0
10
449.000000
20
424.000000
0
VERTEX
8
0
10
442.000000
20
423.000000
0
VERTEX
8
0
10
438.769231
20
419.153846
0
VERTEX
8
0
10
433.000000
20
409.000000
0
VERTEX
8
0
10
433.000000
20
398.000000
0
VERTEX
8
0
10
437.000000
20
390.000000
0
VERTEX
8
0
10
447.000000
20
380.000000
0
VERTEX
8
0
10
455.037931
20
376.455172
0
VERTEX
8
0
10
466.000000
20
376.000000
0
SEQEND
0
POLYLINE
8
0
6
CONTINUOUS
66
1
62
7
10
0.0
20
0.0
30
0.000000
0
VERTEX
8
0
10
319.000000
20
357.000000
0
VERTEX
8
0
10
320.076923
20
357.615385
0
VERTEX
8
0
10
330.000000
20
361.000000
0
VERTEX
8
0
10
335.000000
20
366.000000
0
VERTEX
8
0
10
340.700000
20
380.100000
0
VERTEX
8
0
10
341.300000
20
381.900000
0
VERTEX
8
0
10
342.000000
20
383.000000
0
VERTEX
8
0
10
342.000000
20
388.000000
0
VERTEX
8
0
10
340.615385
20
392.923077
0
VERTEX
8
0
10
339.200000
20
396.100000
0
VERTEX
8
0
10
335.000000
20
403.000000
0
VERTEX
8
0
10
334.180000
20
403.240000
0
VERTEX
8
0
10
318.000000
20
414.000000
0
VERTEX
8
0
10
314.000000
20
414.000000
0
VERTEX
8
0
10
312.000000
20
412.000000
0
VERTEX
8
0
10
311.300000
20
409.900000
0
VERTEX
8
0
10
308.000000
20
392.000000
0
VERTEX
8
0
10
308.549180
20
369.959016
0
VERTEX
8
0
10
309.450820
20
360.040984
0
VERTEX
8
0
10
311.000000
20
357.000000
0
VERTEX
8
0
10
319.000000
20
357.000000
0
SEQEND
0
POLYLINE
8
0
6
CONTINUOUS
66
1
62
7
10
0.0
20
0.0
30
0.000000
0
VERTEX
8
0
10
364.000000
20
341.000000
0
VERTEX
8
0
10
367.100000
20
342.800000
0
VERTEX
8
0
10
379.000000
20
350.000000
0
VERTEX
8
0
10
383.000000
20
355.000000
0
VERTEX
8
0
10
380.300000
20
365.100000
0
VERTEX
8
0
10
378.647059
20
370.911765
0
VERTEX
8
0
10
373.700000
20
385.900000
0
VERTEX
8
0
10
372.769231
20
387.846154
0
VERTEX
8
0
10
370.000000
20
392.000000
0
VERTEX
8
0
10
360.000000
20
394.000000
0
VERTEX
8
0
10
357.000000
20
391.000000
0
VERTEX
8
0
10
354.200000
20
383.900000
0
VERTEX
8
0
10
353.800000
20
383.100000
0
VERTEX
8
0
10
352.000000
20
375.000000
0
VERTEX
8
0
10
352.000000
20
368.000000
0
VERTEX
8
0
10
353.405405
20
362.067568
0
VERTEX
8
0
10
354.352941
20
358.088235
0
VERTEX
8
0
10
361.240000
20
344.180000
0
VERTEX
8
0
10
364.000000
20
341.000000
0
SEQEND
0
POLYLINE
8
0
6
CONTINUOUS
66
1
62
7
10
0.0
20
0.0
30
0.000000
0
VERTEX
8
0
10
415.000000
20
340.000000
0
VERTEX
8
0
10
418.000000
20
342.000000
0
VERTEX
8
0
10
418.450820
20
351.959016
0
VERTEX
8
0
10
423.700000
20
372.100000
0
VERTEX
8
0
10
426.000000
20
381.000000
0
VERTEX
8
0
10
425.352941
20
387.088235
0
VERTEX
8
0
10
422.000000
20
397.000000
0
VERTEX
8
0
10
418.000000
20
399.000000
0
VERTEX
8
0
10
410.000000
20
399.000000
0
VERTEX
8
0
10
398.100000
20
395.700000
0
VERTEX
8
0
10
396.900000
20
395.200000
0
VERTEX
8
0
10
388.000000
20
391.000000
0
VERTEX
8
0
10
385.000000
20
387.000000
0
VERTEX
8
0
10
385.000000
20
383.000000
0
VERTEX
8
0
10
388.200000
20
374.100000
0
VERTEX
8
0
10
389.800000
20
370.900000
0
VERTEX
8
0
10
397.230769
20
357.153846
0
VERTEX
8
0
10
404.000000
20
347.000000
0
VERTEX
8
0
10
407.846154
20
343.769231
0
VERTEX
8
0
10
415.000000
20
340.000000
0
SEQEND
0
POLYLINE
8
0
6
CONTINUOUS
66
1
62
7
10
0.0
20
0.0
30
0.000000
0
VERTEX
8
0
10
293.000000
20
209.000000
0
VERTEX
8
0
10
295.900000
20
210.300000
0
VERTEX
8
0
10
305.804878
20
215.243902
0
VERTEX
8
0
10
311.000000
20
219.000000
0
VERTEX
8
0
10
318.200000
20
228.900000
0
VERTEX
8
0
10
320.300000
20
233.900000
0
VERTEX
8
0
10
322.000000
20
237.000000
0
VERTEX
8
0
10
322.000000
20
242.000000
0
VERTEX
8
0
10
320.615385
20
246.923077
0
VERTEX
8
0
10
320.200000
20
248.100000
0
VERTEX
8
0
10
311.000000
20
266.000000
0
VERTEX
8
0
10
306.000000
20
271.000000
0
VERTEX
8
0
10
294.900000
20
277.800000
0
VERTEX
8
0
10
279.900000
20
283.700000
0
VERTEX
8
0
10
267.900000
20
287.800000
0
VERTEX
8
0
10
245.153846
20
297.230769
0
VERTEX
8
0
10
237.000000
20
302.000000
0
VERTEX
8
0
10
234.760000
20
304.820000
0
VERTEX
8
0
10
232.240000
20
308.180000
0
VERTEX
8
0
10
231.000000
20
313.000000
0
VERTEX
8
0
10
231.250000
20
313.750000
0
VERTEX
8
0
10
233.800000
20
313.600000
0
VERTEX
8
0
10
236.153846
20
312.230769
0
VERTEX
8
0
10
250.900000
20
301.800000
0
VERTEX
8
0
10
254.911765
20
300.647059
0
VERTEX
8
0
10
291.100000
20
290.200000
0
VERTEX
8
0
10
301.900000
20
284.800000
0
VERTEX
8
0
10
314.000000
20
276.000000
0
VERTEX
8
0
10
321.000000
20
269.000000
0
VERTEX
8
0
10
326.700000
20
256.900000
0
VERTEX
8
0
10
330.000000
20
247.000000
0
VERTEX
8
0
10
333.000000
20
244.000000
0
VERTEX
8
0
10
336.000000
20
247.000000
0
VERTEX
8
0
10
337.800000
20
251.100000
0
VERTEX
8
0
10
338.200000
20
251.900000
0
VERTEX
8
0
10
340.384615
20
258.923077
0
VERTEX
8
0
10
343.000000
20
272.000000
0
VERTEX
8
0
10
343.000000
20
278.000000
0
VERTEX
8
0
10
340.594595
20
292.932432
0
VERTEX
8
0
10
340.300000
20
294.100000
0
VERTEX
8
0
10
333.760000
20
311.820000
0
VERTEX
8
0
10
330.760000
20
315.820000
0
VERTEX
8
0
10
323.000000
20
326.000000
0
VERTEX
8
0
10
306.100000
20
336.200000
0
VERTEX
8
0
10
304.900000
20
336.800000
0
VERTEX
8
0
10
286.932432
20
341.594595
0
VERTEX
8
0
10
236.060000
20
348.420000
0
VERTEX
8
0
10
213.100000
20
354.300000
0
VERTEX
8
0
10
209.088235
20
355.352941
0
VERTEX
8
0
10
208.000000
20
356.000000
0
VERTEX
8
0
10
207.000000
20
355.000000
0
VERTEX
8
0
10
207.000000
20
339.000000
0
VERTEX
8
0
10
209.420000
20
311.060000
0
VERTEX
8
0
10
211.420000
20
298.060000
0
VERTEX
8
0
10
216.352941
20
278.088235
0
VERTEX
8
0
10
222.300000
20
261.100000
0
VERTEX
8
0
10
227.769231
20
249.846154
0
VERTEX
8
0
10
236.760000
20
237.820000
0
VERTEX
8
0
10
251.000000
20
223.000000
0
VERTEX
8
0
10
255.846154
20
220.769231
0
VERTEX
8
0
10
266.100000
20
215.300000
0
VERTEX
8
0
10
270.900000
20
213.700000
0
VERTEX
8
0
10
283.067568
20
210.405405
0
VERTEX
8
0
10
293.000000
20
209.000000
0
SEQEND
0
POLYLINE
8
0
6
CONTINUOUS
66
1
62
7
10
0.0
20
0.0
30
0.000000
0
VERTEX
8
0
10
523.000000
20
107.000000
0
VERTEX
8
0
10
542.200000
20
135.900000
0
VERTEX
8
0
10
573.700000
20
198.100000
0
VERTEX
8
0
10
574.615385
20
201.076923
0
VERTEX
8
0
10
576.000000
20
208.000000
0
VERTEX
8
0
10
574.554455
20
217.955446
0
VERTEX
8
0
10
571.800000
20
224.900000
0
VERTEX
8
0
10
569.000000
20
231.000000
0
VERTEX
8
0
10
561.153846
20
238.230769
0
VERTEX
8
0
10
555.100000
20
242.200000
0
VERTEX
8
0
10
546.932432
20
244.594595
0
VERTEX
8
0
10
526.911765
20
246.647059
0
VERTEX
8
0
10
504.100000
20
252.300000
0
VERTEX
8
0
10
483.088235
20
259.352941
0
VERTEX
8
0
10
443.932432
20
269.594595
0
VERTEX
8
0
10
427.000000
20
272.000000
0
VERTEX
8
0
10
426.000000
20
273.000000
0
VERTEX
8
0
10
428.300000
20
279.900000
0
VERTEX
8
0
10
430.580000
20
290.060000
0
VERTEX
8
0
10
434.000000
20
313.000000
0
VERTEX
8
0
10
442.000000
20
320.000000
0
VERTEX
8
0
10
448.647059
20
333.088235
0
VERTEX
8
0
10
450.384615
20
340.923077
0
VERTEX
8
0
10
451.250000
20
343.750000
0
VERTEX
8
0
10
466.000000
20
343.000000
0
VERTEX
8
0
10
481.900000
20
347.300000
0
VERTEX
8
0
10
485.846154
20
349.230769
0
VERTEX
8
0
10
494.000000
20
355.000000
0
VERTEX
8
0
10
501.200000
20
364.900000
0
VERTEX
8
0
10
505.000000
20
380.000000
0
VERTEX
8
0
10
503.000000
20
395.000000
0
VERTEX
8
0
10
520.900000
20
404.200000
0
VERTEX
8
0
10
541.000000
20
416.000000
0
VERTEX
8
0
10
547.200000
20
424.900000
0
VERTEX
8
0
10
549.615385
20
431.076923
0
VERTEX
8
0
10
552.000000
20
445.000000
0
VERTEX
8
0
10
548.700000
20
454.900000
0
VERTEX
8
0
10
543.000000
20
467.000000
0
VERTEX
8
0
10
549.200000
20
472.900000
0
VERTEX
8
0
10
553.580000
20
482.060000
0
VERTEX
8
0
10
555.000000
20
489.000000
0
VERTEX
8
0
10
554.405405
20
499.067568
0
VERTEX
8
0
10
553.594595
20
503.932432
0
VERTEX
8
0
10
548.760000
20
513.820000
0
VERTEX
8
0
10
546.000000
20
518.000000
0
VERTEX
8
0
10
532.788235
20
529.752941
0
VERTEX
8
0
10
532.000000
20
530.000000
0
VERTEX
8
0
10
530.000000
20
532.000000
0
VERTEX
8
0
10
529.535398
20
545.969027
0
VERTEX
8
0
10
528.800000
20
547.900000
0
VERTEX
8
0
10
525.200000
20
555.100000
0
VERTEX
8
0
10
524.000000
20
558.000000
0
VERTEX
8
0
10
516.000000
20
566.000000
0
VERTEX
8
0
10
509.900000
20
568.800000
0
VERTEX
8
0
10
509.100000
20
569.200000
0
VERTEX
8
0
10
500.964706
20
571.541176
0
VERTEX
8
0
10
489.000000
20
572.000000
0
VERTEX
8
0
10
487.000000
20
574.000000
0
VERTEX
8
0
10
484.200000
20
581.100000
0
VERTEX
8
0
10
484.000000
20
582.000000
0
VERTEX
8
0
10
474.153846
20
591.230769
0
VERTEX
8
0
10
471.846154
20
592.769231
0
VERTEX
8
0
10
461.000000
20
596.000000
0
VERTEX
8
0
10
459.000000
20
598.000000
0
VERTEX
8
0
10
457.200000
20
608.100000
0
VERTEX
8
0
10
453.000000
20
618.000000
0
SEQEND
0
POLYLINE
8
0
6
CONTINUOUS
66
1
62
7
10
0.0
20
0.0
30
0.000000
0
VERTEX
8
0
10
523.000000
20
107.000000
0
VERTEX
8
0
10
552.000000
20
127.000000
0
VERTEX
8
0
10
586.000000
20
161.000000
0
VERTEX
8
0
10
615.200000
20
201.900000
0
VERTEX
8
0
10
625.200000
20
220.900000
0
VERTEX
8
0
10
634.700000
20
239.100000
0
VERTEX
8
0
10
646.700000
20
276.100000
0
VERTEX
8
0
10
652.580000
20
309.060000
0
VERTEX
8
0
10
653.420000
20
314.940000
0
VERTEX
8
0
10
655.000000
20
322.000000
0
VERTEX
8
0
10
655.000000
20
371.000000
0
VERTEX
8
0
10
647.700000
20
412.900000
0
VERTEX
8
0
10
645.300000
20
421.100000
0
VERTEX
8
0
10
633.800000
20
454.900000
0
VERTEX
8
0
10
622.200000
20
479.100000
0
VERTEX
8
0
10
613.769231
20
494.846154
0
VERTEX
8
0
10
610.230769
20
500.153846
0
VERTEX
8
0
10
592.750408
20
525.764274
0
VERTEX
8
0
10
559.000000
20
561.000000
0
VERTEX
8
0
10
528.820000
20
583.760000
0
VERTEX
8
0
10
506.100000
20
597.200000
0
VERTEX
8
0
10
480.900000
20
609.700000
0
VERTEX
8
0
10
454.000000
20
619.000000
0
SEQEND
0
POLYLINE
8
0
6
CONTINUOUS
66
1
62
7
10
0.0
20
0.0
30
0.000000
0
VERTEX
8
0
10
518.000000
20
103.000000
0
VERTEX
8
0
10
519.000000
20
103.000000
0
VERTEX
8
0
10
523.000000
20
107.000000
0
SEQEND
0
POLYLINE
8
0
6
CONTINUOUS
66
1
62
7
10
0.0
20
0.0
30
0.000000
0
VERTEX
8
0
10
332.000000
20
84.000000
0
VERTEX
8
0
10
334.000000
20
86.000000
0
VERTEX
8
0
10
327.200000
20
104.100000
0
VERTEX
8
0
10
326.800000
20
104.900000
0
VERTEX
8
0
10
318.352941
20
130.088235
0
VERTEX
8
0
10
317.647059
20
132.911765
0
VERTEX
8
0
10
316.000000
20
138.000000
0
VERTEX
8
0
10
316.000000
20
156.000000
0
VERTEX
8
0
10
319.200000
20
169.900000
0
VERTEX
8
0
10
321.800000
20
175.100000
0
VERTEX
8
0
10
334.240000
20
197.820000
0
VERTEX
8
0
10
339.760000
20
205.180000
0
VERTEX
8
0
10
379.800000
20
251.100000
0
VERTEX
8
0
10
382.200000
20
254.900000
0
VERTEX
8
0
10
390.700000
20
270.100000
0
VERTEX
8
0
10
393.200000
20
276.900000
0
VERTEX
8
0
10
397.594595
20
291.067568
0
VERTEX
8
0
10
400.405405
20
307.932432
0
VERTEX
8
0
10
402.000000
20
333.000000
0
VERTEX
8
0
10
399.769231
20
336.846154
0
VERTEX
8
0
10
396.000000
20
342.000000
0
VERTEX
8
0
10
395.100000
20
342.200000
0
VERTEX
8
0
10
392.000000
20
344.000000
0
VERTEX
8
0
10
389.000000
20
344.000000
0
VERTEX
8
0
10
387.000000
20
342.000000
0
VERTEX
8
0
10
385.647059
20
336.088235
0
VERTEX
8
0
10
385.352941
20
293.911765
0
VERTEX
8
0
10
383.300000
20
285.900000
0
VERTEX
8
0
10
379.769231
20
277.153846
0
VERTEX
8
0
10
371.230769
20
263.846154
0
VERTEX
8
0
10
355.245902
20
243.795082
0
VERTEX
8
0
10
327.248276
20
211.779310
0
VERTEX
8
0
10
314.800000
20
197.100000
0
VERTEX
8
0
10
310.800000
20
187.100000
0
VERTEX
8
0
10
307.384615
20
173.923077
0
VERTEX
8
0
10
305.615385
20
165.076923
0
VERTEX
8
0
10
305.000000
20
164.000000
0
VERTEX
8
0
10
305.000000
20
151.000000
0
VERTEX
8
0
10
306.458824
20
138.035294
0
VERTEX
8
0
10
306.615385
20
136.923077
0
VERTEX
8
0
10
312.300000
20
110.100000
0
VERTEX
8
0
10
314.300000
20
105.100000
0
VERTEX
8
0
10
322.000000
20
86.000000
0
VERTEX
8
0
10
332.000000
20
84.000000
0
SEQEND
0
POLYLINE
8
0
6
CONTINUOUS
66
1
62
7
10
0.0
20
0.0
30
0.000000
0
VERTEX
8
0
10
417.000000
20
80.000000
0
VERTEX
8
0
10
435.100000
20
84.700000
0
VERTEX
8
0
10
451.846154
20
92.230769
0
VERTEX
8
0
10
463.100000
20
98.800000
0
VERTEX
8
0
10
489.000000
20
119.000000
0
VERTEX
8
0
10
497.000000
20
127.000000
0
VERTEX
8
0
10
502.760000
20
135.180000
0
VERTEX
8
0
10
520.769231
20
165.153846
0
VERTEX
8
0
10
523.230769
20
169.846154
0
VERTEX
8
0
10
543.000000
20
208.000000
0
VERTEX
8
0
10
543.000000
20
210.000000
0
VERTEX
8
0
10
541.000000
20
212.000000
0
VERTEX
8
0
10
532.946154
20
213.569231
0
VERTEX
8
0
10
526.053846
20
214.430769
0
VERTEX
8
0
10
501.911765
20
219.647059
0
VERTEX
8
0
10
490.100000
20
223.300000
0
VERTEX
8
0
10
438.955446
20
237.554455
0
VERTEX
8
0
10
430.044554
20
238.445545
0
VERTEX
8
0
10
405.000000
20
239.000000
0
VERTEX
8
0
10
402.100000
20
237.700000
0
VERTEX
8
0
10
398.088235
20
236.647059
0
VERTEX
8
0
10
383.100000
20
230.800000
0
VERTEX
8
0
10
373.000000
20
224.000000
0
VERTEX
8
0
10
359.800000
20
209.100000
0
VERTEX
8
0
10
351.300000
20
193.900000
0
VERTEX
8
0
10
350.700000
20
192.100000
0
VERTEX
8
0
10
343.000000
20
167.000000
0
VERTEX
8
0
10
343.000000
20
145.000000
0
VERTEX
8
0
10
344.000000
20
144.000000
0
VERTEX
8
0
10
347.248276
20
147.779310
0
VERTEX
8
0
10
355.000000
20
157.000000
0
VERTEX
8
0
10
365.820000
20
166.240000
0
VERTEX
8
0
10
374.153846
20
171.769231
0
VERTEX
8
0
10
383.100000
20
175.800000
0
VERTEX
8
0
10
383.900000
20
176.200000
0
VERTEX
8
0
10
388.060000
20
177.580000
0
VERTEX
8
0
10
395.035294
20
178.541176
0
VERTEX
8
0
10
418.000000
20
180.000000
0
VERTEX
8
0
10
437.067568
20
176.405405
0
VERTEX
8
0
10
471.000000
20
171.000000
0
VERTEX
8
0
10
477.088235
20
172.647059
0
VERTEX
8
0
10
496.000000
20
178.000000
0
VERTEX
8
0
10
497.000000
20
177.000000
0
VERTEX
8
0
10
496.300000
20
174.900000
0
VERTEX
8
0
10
496.000000
20
173.000000
0
VERTEX
8
0
10
488.100000
20
166.800000
0
VERTEX
8
0
10
467.000000
20
162.000000
0
VERTEX
8
0
10
445.053846
20
164.430769
0
VERTEX
8
0
10
420.000000
20
168.000000
0
VERTEX
8
0
10
404.000000
20
168.000000
0
VERTEX
8
0
10
387.088235
20
165.647059
0
VERTEX
8
0
10
377.100000
20
161.800000
0
VERTEX
8
0
10
375.000000
20
161.000000
0
VERTEX
8
0
10
364.756098
20
150.195122
0
VERTEX
8
0
10
361.243902
20
145.804878
0
VERTEX
8
0
10
356.300000
20
135.900000
0
VERTEX
8
0
10
355.700000
20
134.100000
0
VERTEX
8
0
10
353.000000
20
125.000000
0
VERTEX
8
0
10
353.000000
20
119.000000
0
VERTEX
8
0
10
356.200000
20
109.100000
0
VERTEX
8
0
10
356.800000
20
107.900000
0
VERTEX
8
0
10
359.000000
20
103.000000
0
VERTEX
8
0
10
370.000000
20
92.000000
0
VERTEX
8
0
10
374.100000
20
90.200000
0
VERTEX
8
0
10
379.100000
20
87.200000
0
VERTEX
8
0
10
394.100000
20
81.300000
0
VERTEX
8
0
10
395.900000
20
80.700000
0
VERTEX
8
0
10
417.000000
20
80.000000
0
SEQEND
0
POLYLINE
8
0
6
CONTINUOUS
66
1
62
7
10
0.0
20
0.0
30
0.000000
0
VERTEX
8
0
10
291.000000
20
74.000000
0
VERTEX
8
0
10
280.647059
20
101.911765
0
VERTEX
8
0
10
273.464602
20
132.030973
0
VERTEX
8
0
10
272.535398
20
145.969027
0
VERTEX
8
0
10
272.000000
20
168.000000
0
VERTEX
8
0
10
273.420000
20
174.940000
0
VERTEX
8
0
10
274.000000
20
176.000000
0
VERTEX
8
0
10
274.000000
20
177.000000
0
VERTEX
8
0
10
272.000000
20
179.000000
0
VERTEX
8
0
10
260.900000
20
181.800000
0
VERTEX
8
0
10
252.900000
20
185.800000
0
VERTEX
8
0
10
231.204918
20
197.245902
0
VERTEX
8
0
10
225.795082
20
201.754098
0
VERTEX
8
0
10
212.000000
20
215.000000
0
VERTEX
8
0
10
199.230769
20
234.153846
0
VERTEX
8
0
10
197.230769
20
237.153846
0
VERTEX
8
0
10
185.700000
20
264.900000
0
VERTEX
8
0
10
184.647059
20
268.911765
0
VERTEX
8
0
10
178.384615
20
296.076923
0
VERTEX
8
0
10
176.554455
20
309.955446
0
VERTEX
8
0
10
174.000000
20
338.000000
0
VERTEX
8
0
10
174.000000
20
356.000000
0
VERTEX
8
0
10
175.405405
20
361.932432
0
VERTEX
8
0
10
177.800000
20
370.100000
0
VERTEX
8
0
10
181.000000
20
375.000000
0
VERTEX
8
0
10
189.000000
20
383.000000
0
VERTEX
8
0
10
200.000000
20
388.000000
0
VERTEX
8
0
10
212.000000
20
388.000000
0
VERTEX
8
0
10
231.000000
20
383.000000
0
VERTEX
8
0
10
232.000000
20
384.000000
0
VERTEX
8
0
10
231.458824
20
385.035294
0
VERTEX
8
0
10
231.000000
20
397.000000
0
VERTEX
8
0
10
222.248619
20
406.223757
0
VERTEX
8
0
10
218.300000
20
414.100000
0
VERTEX
8
0
10
217.700000
20
415.900000
0
VERTEX
8
0
10
217.000000
20
417.000000
0
VERTEX
8
0
10
217.000000
20
434.000000
0
VERTEX
8
0
10
220.300000
20
441.900000
0
VERTEX
8
0
10
221.000000
20
443.000000
0
VERTEX
8
0
10
221.000000
20
444.000000
0
VERTEX
8
0
10
216.245902
20
449.204918
0
VERTEX
8
0
10
212.200000
20
457.100000
0
VERTEX
8
0
10
210.700000
20
460.900000
0
VERTEX
8
0
10
210.000000
20
462.000000
0
VERTEX
8
0
10
210.000000
20
476.000000
0
VERTEX
8
0
10
216.249592
20
489.764274
0
VERTEX
8
0
10
233.000000
20
507.000000
0
VERTEX
8
0
10
231.300000
20
512.100000
0
VERTEX
8
0
10
229.800000
20
515.900000
0
VERTEX
8
0
10
226.000000
20
532.000000
0
VERTEX
8
0
10
226.000000
20
547.000000
0
VERTEX
8
0
10
227.300000
20
549.900000
0
VERTEX
8
0
10
227.647059
20
551.088235
0
VERTEX
8
0
10
230.000000
20
559.000000
0
VERTEX
8
0
10
239.000000
20
568.000000
0
VERTEX
8
0
10
253.000000
20
573.000000
0
VERTEX
8
0
10
255.000000
20
575.000000
0
VERTEX
8
0
10
255.455172
20
585.962069
0
VERTEX
8
0
10
257.352941
20
593.911765
0
VERTEX
8
0
10
258.800000
20
597.100000
0
VERTEX
8
0
10
263.243902
20
604.804878
0
VERTEX
8
0
10
269.000000
20
613.000000
0
SEQEND
0
POLYLINE
8
0
6
CONTINUOUS
66
1
62
7
10
0.0
20
0.0
30
0.000000
0
VERTEX
8
0
10
290.000000
20
73.000000
0
VERTEX
8
0
10
258.900000
20
84.700000
0
VERTEX
8
0
10
222.900000
20
102.800000
0
VERTEX
8
0
10
218.100000
20
105.200000
0
VERTEX
8
0
10
190.180000
20
126.240000
0
VERTEX
8
0
10
186.820000
20
128.760000
0
VERTEX
8
0
10
182.000000
20
132.000000
0
VERTEX
8
0
10
164.000000
20
150.000000
0
VERTEX
8
0
10
144.769231
20
171.846154
0
VERTEX
8
0
10
121.800000
20
205.900000
0
VERTEX
8
0
10
103.300000
20
245.100000
0
VERTEX
8
0
10
91.700000
20
281.900000
0
VERTEX
8
0
10
85.000000
20
323.000000
0
VERTEX
8
0
10
85.000000
20
369.000000
0
VERTEX
8
0
10
89.430769
20
400.946154
0
VERTEX
8
0
10
97.300000
20
429.900000
0
VERTEX
8
0
10
101.352941
20
443.911765
0
VERTEX
8
0
10
105.200000
20
452.900000
0
VERTEX
8
0
10
105.800000
20
454.100000
0
VERTEX
8
0
10
121.230769
20
486.846154
0
VERTEX
8
0
10
122.769231
20
489.153846
0
VERTEX
8
0
10
143.245902
20
519.795082
0
VERTEX
8
0
10
169.000000
20
550.000000
0
VERTEX
8
0
10
186.795082
20
565.245902
0
VERTEX
8
0
10
207.180000
20
581.760000
0
VERTEX
8
0
10
246.100000
20
603.800000
0
VERTEX
8
0
10
269.000000
20
613.000000
0
SEQEND
0
POLYLINE
8
0
6
CONTINUOUS
66
1
62
7
10
0.0
20
0.0
30
0.000000
0
VERTEX
8
0
10
290.000000
20
73.000000
0
VERTEX
8
0
10
291.000000
20
74.000000
0
SEQEND
0
POLYLINE
8
0
6
CONTINUOUS
66
1
62
7
10
0.0
20
0.0
30
0.000000
0
VERTEX
8
0
10
290.000000
20
73.000000
0
VERTEX
8
0
10
291.000000
20
72.000000
0
VERTEX
8
0
10
292.000000
20
73.000000
0
VERTEX
8
0
10
291.000000
20
74.000000
0
SEQEND
0
POLYLINE
8
0
6
CONTINUOUS
66
1
62
7
10
0.0
20
0.0
30
0.000000
0
VERTEX
8
0
10
377.000000
20
19.000000
0
VERTEX
8
0
10
414.955446
20
22.445545
0
VERTEX
8
0
10
438.923077
20
27.384615
0
VERTEX
8
0
10
453.923077
20
30.384615
0
VERTEX
8
0
10
462.900000
20
33.200000
0
VERTEX
8
0
10
493.900000
20
44.300000
0
VERTEX
8
0
10
514.900000
20
54.200000
0
VERTEX
8
0
10
534.100000
20
63.800000
0
VERTEX
8
0
10
545.820000
20
70.240000
0
VERTEX
8
0
10
549.180000
20
72.760000
0
VERTEX
8
0
10
582.000000
20
97.000000
0
VERTEX
8
0
10
619.000000
20
134.000000
0
VERTEX
8
0
10
621.760000
20
138.180000
0
VERTEX
8
0
10
645.760000
20
171.180000
0
VERTEX
8
0
10
655.800000
20
189.100000
0
VERTEX
8
0
10
666.800000
20
209.100000
0
VERTEX
8
0
10
674.700000
20
228.100000
0
VERTEX
8
0
10
683.700000
20
253.100000
0
VERTEX
8
0
10
691.615385
20
287.076923
0
VERTEX
8
0
10
692.384615
20
290.923077
0
VERTEX
8
0
10
694.541176
20
302.035294
0
VERTEX
8
0
10
695.458824
20
313.964706
0
VERTEX
8
0
10
697.000000
20
354.000000
0
VERTEX
8
0
10
693.554455
20
393.955446
0
VERTEX
8
0
10
685.615385
20
430.923077
0
VERTEX
8
0
10
684.647059
20
434.911765
0
VERTEX
8
0
10
668.800000
20
478.900000
0
VERTEX
8
0
10
667.700000
20
481.900000
0
VERTEX
8
0
10
646.800000
20
520.900000
0
VERTEX
8
0
10
645.800000
20
522.900000
0
VERTEX
8
0
10
637.756098
20
534.804878
0
VERTEX
8
0
10
634.243902
20
539.195122
0
VERTEX
8
0
10
614.000000
20
566.000000
0
VERTEX
8
0
10
584.764274
20
593.750408
0
VERTEX
8
0
10
570.153846
20
606.230769
0
VERTEX
8
0
10
564.846154
20
609.769231
0
VERTEX
8
0
10
530.100000
20
632.200000
0
VERTEX
8
0
10
489.900000
20
651.700000
0
VERTEX
8
0
10
441.076923
20
666.384615
0
VERTEX
8
0
10
439.932432
20
666.594595
0
VERTEX
8
0
10
400.000000
20
673.000000
0
VERTEX
8
0
10
399.000000
20
674.000000
0
VERTEX
8
0
10
400.000000
20
675.000000
0
VERTEX
8
0
10
396.200000
20
688.100000
0
VERTEX
8
0
10
390.000000
20
697.000000
0
VERTEX
8
0
10
383.153846
20
701.230769
0
VERTEX
8
0
10
378.911765
20
703.647059
0
VERTEX
8
0
10
376.088235
20
704.352941
0
VERTEX
8
0
10
375.000000
20
705.000000
0
VERTEX
8
0
10
363.000000
20
705.000000
0
VERTEX
8
0
10
358.100000
20
702.800000
0
VERTEX
8
0
10
356.900000
20
702.200000
0
VERTEX
8
0
10
350.000000
20
698.000000
0
VERTEX
8
0
10
346.000000
20
694.000000
0
VERTEX
8
0
10
343.200000
20
688.900000
0
VERTEX
8
0
10
342.800000
20
688.100000
0
VERTEX
8
0
10
340.430769
20
680.946154
0
VERTEX
8
0
10
339.750000
20
673.250000
0
VERTEX
8
0
10
299.067568
20
666.594595
0
VERTEX
8
0
10
297.923077
20
666.384615
0
VERTEX
8
0
10
249.100000
20
651.700000
0
VERTEX
8
0
10
208.900000
20
632.200000
0
VERTEX
8
0
10
174.153846
20
609.769231
0
VERTEX
8
0
10
168.846154
20
606.230769
0
VERTEX
8
0
10
154.235726
20
593.750408
0
VERTEX
8
0
10
125.000000
20
566.000000
0
VERTEX
8
0
10
101.243902
20
534.804878
0
VERTEX
8
0
10
98.240000
20
530.820000
0
VERTEX
8
0
10
92.200000
20
520.900000
0
VERTEX
8
0
10
91.800000
20
520.100000
0
VERTEX
8
0
10
71.300000
20
481.900000
0
VERTEX
8
0
10
69.800000
20
478.100000
0
VERTEX
8
0
10
54.352941
20
434.911765
0
VERTEX
8
0
10
52.615385
20
427.076923
0
VERTEX
8
0
10
45.445545
20
393.955446
0
VERTEX
8
0
10
44.554455
20
385.044554
0
VERTEX
8
0
10
42.000000
20
354.000000
0
VERTEX
8
0
10
42.000000
20
337.000000
0
VERTEX
8
0
10
45.384615
20
297.076923
0
VERTEX
8
0
10
48.384615
20
282.076923
0
VERTEX
8
0
10
55.300000
20
253.100000
0
VERTEX
8
0
10
64.700000
20
226.900000
0
VERTEX
8
0
10
72.800000
20
207.900000
0
VERTEX
8
0
10
83.800000
20
187.900000
0
VERTEX
8
0
10
93.240000
20
171.180000
0
VERTEX
8
0
10
119.760000
20
134.820000
0
VERTEX
8
0
10
157.000000
20
97.000000
0
VERTEX
8
0
10
193.180000
20
70.240000
0
VERTEX
8
0
10
208.100000
20
62.200000
0
VERTEX
8
0
10
226.100000
20
53.200000
0
VERTEX
8
0
10
246.900000
20
43.700000
0
VERTEX
8
0
10
276.900000
20
32.800000
0
VERTEX
8
0
10
288.923077
20
29.615385
0
VERTEX
8
0
10
303.923077
20
26.615385
0
VERTEX
8
0
10
324.044554
20
22.445545
0
VERTEX
8
0
10
332.955446
20
21.554455
0
VERTEX
8
0
10
377.000000
20
19.000000
0
SEQEND
0
ENDSEC
0
EOF
