0
SECTION
2
HEADER
9
$ACADVER
1
AC1003
9
$INSBASE
10
0.0
20
0.0
30
0.0
9
$EXTMIN
10
0.000
20
0.000
30
0.0
9
$EXTMAX
10
669.000
20
724.000
30
0.0
9
$LIMMIN
10
0.000
20
0.000
9
$LIMMAX
10
669.000
20
724.000
9
$LTSCALE
40
1.0
9
$LUNITS
70
2
9
$LUPREC
70
3
9
$LIMCHECK
70
0
9
$UCSNAME
2

9
$UCSORG
10
0.0
20
0.0
30
0.0
9
$UCSXDIR
10
1.0
20
0.0
30
0.0
9
$UCSYDIR
10
0.0
20
1.0
30
0.0
9
$WORLDVIEW
70
1
9
$UNITMODE
70
0
0
ENDSEC
0
SECTION
2
TABLES
0
TABLE
2
VPORT
70
1
0
VPORT
2
*ACTIVE
70
0
10
0.0
20
0.0
11
1.0
21
1.0
12
334.500
22
362.000
13
0.0
23
0.0
14
1.0
24
1.0
15
0.0
25
0.0
16
0.0
26
0.0
36
1.0
17
0.0
27
0.0
37
0.0
40
500.0
41
1.082
42
50.0
43
0.0
44
0.0
50
0.0
51
0.0
71
0
72
100
73
1
74
1
75
0
76
0
77
0
78
0
0
ENDTAB
0
TABLE
2
LTYPE
70
1
0
LTYPE
2
CONTINUOUS
70
64
3
Solid line
72
65
73
0
40
0.000
0
ENDTAB
0
TABLE
2
LAYER
70
1
0
LAYER
2
0
70
64
62
7
6
CONTINUOUS
0
ENDTAB
0
ENDSEC
0
SECTION
2
BLOCKS
0
ENDSEC
0
SECTION
2
ENTITIES
0
POLYLINE
8
0
6
CONTINUOUS
66
1
62
7
10
0.0
20
0.0
30
0.000000
0
VERTEX
8
0
10
329.000000
20
648.000000
0
VERTEX
8
0
10
333.000000
20
650.000000
0
VERTEX
8
0
10
336.000000
20
655.000000
0
VERTEX
8
0
10
336.000000
20
661.000000
0
VERTEX
8
0
10
334.000000
20
665.000000
0
VERTEX
8
0
10
329.000000
20
668.000000
0
VERTEX
8
0
10
323.000000
20
668.000000
0
VERTEX
8
0
10
321.900000
20
667.300000
0
VERTEX
8
0
10
320.000000
20
667.000000
0
VERTEX
8
0
10
317.000000
20
664.000000
0
VERTEX
8
0
10
316.000000
20
661.000000
0
VERTEX
8
0
10
316.000000
20
655.000000
0
VERTEX
8
0
10
317.000000
20
652.000000
0
VERTEX
8
0
10
320.000000
20
649.000000
0
VERTEX
8
0
10
329.000000
20
648.000000
0
SEQEND
0
POLYLINE
8
0
6
CONTINUOUS
66
1
62
7
10
0.0
20
0.0
30
0.000000
0
VERTEX
8
0
10
308.000000
20
583.000000
0
VERTEX
8
0
10
307.000000
20
583.000000
0
SEQEND
0
POLYLINE
8
0
6
CONTINUOUS
66
1
62
7
10
0.0
20
0.0
30
0.000000
0
VERTEX
8
0
10
341.000000
20
583.000000
0
VERTEX
8
0
10
339.000000
20
583.000000
0
SEQEND
0
POLYLINE
8
0
6
CONTINUOUS
66
1
62
7
10
0.0
20
0.0
30
0.000000
0
VERTEX
8
0
10
341.000000
20
583.000000
0
VERTEX
8
0
10
342.100000
20
583.800000
0
VERTEX
8
0
10
366.100000
20
586.700000
0
VERTEX
8
0
10
373.804878
20
590.243902
0
VERTEX
8
0
10
384.000000
20
599.000000
0
VERTEX
8
0
10
386.760000
20
603.180000
0
VERTEX
8
0
10
387.647059
20
605.088235
0
VERTEX
8
0
10
389.000000
20
612.000000
0
VERTEX
8
0
10
388.300000
20
613.100000
0
VERTEX
8
0
10
386.000000
20
619.000000
0
VERTEX
8
0
10
382.153846
20
622.230769
0
VERTEX
8
0
10
375.911765
20
625.647059
0
VERTEX
8
0
10
359.000000
20
630.000000
0
VERTEX
8
0
10
298.000000
20
630.000000
0
VERTEX
8
0
10
287.076923
20
627.615385
0
VERTEX
8
0
10
274.180000
20
622.760000
0
VERTEX
8
0
10
267.000000
20
617.000000
0
VERTEX
8
0
10
266.769231
20
616.153846
0
VERTEX
8
0
10
261.000000
20
606.000000
0
VERTEX
8
0
10
261.000000
20
598.000000
0
VERTEX
8
0
10
263.000000
20
594.000000
0
VERTEX
8
0
10
268.000000
20
589.000000
0
VERTEX
8
0
10
276.053846
20
586.430769
0
VERTEX
8
0
10
307.000000
20
583.000000
0
SEQEND
0
POLYLINE
8
0
6
CONTINUOUS
66
1
62
7
10
0.0
20
0.0
30
0.000000
0
VERTEX
8
0
10
232.000000
20
309.000000
0
VERTEX
8
0
10
233.000000
20
312.000000
0
SEQEND
0
POLYLINE
8
0
6
CONTINUOUS
66
1
62
7
10
0.0
20
0.0
30
0.000000
0
VERTEX
8
0
10
437.000000
20
297.000000
0
VERTEX
8
0
10
436.000000
20
299.000000
0
SEQEND
0
POLYLINE
8
0
6
CONTINUOUS
66
1
62
7
10
0.0
20
0.0
30
0.000000
0
VERTEX
8
0
10
437.000000
20
296.000000
0
VERTEX
8
0
10
437.000000
20
297.000000
0
SEQEND
0
POLYLINE
8
0
6
CONTINUOUS
66
1
62
7
10
0.0
20
0.0
30
0.000000
0
VERTEX
8
0
10
439.000000
20
296.000000
0
VERTEX
8
0
10
437.000000
20
297.000000
0
SEQEND
0
POLYLINE
8
0
6
CONTINUOUS
66
1
62
7
10
0.0
20
0.0
30
0.000000
0
VERTEX
8
0
10
438.000000
20
295.000000
0
VERTEX
8
0
10
437.000000
20
296.000000
0
SEQEND
0
POLYLINE
8
0
6
CONTINUOUS
66
1
62
7
10
0.0
20
0.0
30
0.000000
0
VERTEX
8
0
10
439.000000
20
295.000000
0
VERTEX
8
0
10
438.000000
20
295.000000
0
SEQEND
0
POLYLINE
8
0
6
CONTINUOUS
66
1
62
7
10
0.0
20
0.0
30
0.000000
0
VERTEX
8
0
10
439.000000
20
295.000000
0
VERTEX
8
0
10
439.000000
20
296.000000
0
SEQEND
0
POLYLINE
8
0
6
CONTINUOUS
66
1
62
7
10
0.0
20
0.0
30
0.000000
0
VERTEX
8
0
10
439.000000
20
295.000000
0
VERTEX
8
0
10
442.000000
20
291.000000
0
VERTEX
8
0
10
446.820000
20
286.760000
0
VERTEX
8
0
10
450.180000
20
284.240000
0
VERTEX
8
0
10
461.088235
20
279.352941
0
VERTEX
8
0
10
472.000000
20
277.000000
0
VERTEX
8
0
10
473.200000
20
275.100000
0
VERTEX
8
0
10
475.800000
20
269.900000
0
VERTEX
8
0
10
484.000000
20
257.000000
0
VERTEX
8
0
10
493.000000
20
248.000000
0
VERTEX
8
0
10
498.100000
20
245.200000
0
VERTEX
8
0
10
498.900000
20
244.800000
0
VERTEX
8
0
10
509.067568
20
241.405405
0
VERTEX
8
0
10
517.000000
20
240.000000
0
VERTEX
8
0
10
527.000000
20
225.000000
0
VERTEX
8
0
10
536.000000
20
216.000000
0
VERTEX
8
0
10
540.180000
20
213.240000
0
VERTEX
8
0
10
552.076923
20
207.384615
0
VERTEX
8
0
10
557.000000
20
206.000000
0
VERTEX
8
0
10
571.000000
20
206.000000
0
VERTEX
8
0
10
576.932432
20
207.405405
0
VERTEX
8
0
10
582.900000
20
210.200000
0
VERTEX
8
0
10
588.804878
20
214.243902
0
VERTEX
8
0
10
597.000000
20
221.000000
0
VERTEX
8
0
10
600.200000
20
225.900000
0
VERTEX
8
0
10
604.647059
20
237.088235
0
VERTEX
8
0
10
606.300000
20
242.900000
0
VERTEX
8
0
10
610.560976
20
262.048780
0
VERTEX
8
0
10
611.439024
20
269.951220
0
VERTEX
8
0
10
614.000000
20
300.000000
0
VERTEX
8
0
10
614.000000
20
336.000000
0
VERTEX
8
0
10
612.531034
20
352.972414
0
VERTEX
8
0
10
609.554455
20
385.955446
0
VERTEX
8
0
10
602.580000
20
432.940000
0
VERTEX
8
0
10
598.615385
20
449.923077
0
VERTEX
8
0
10
586.700000
20
486.900000
0
VERTEX
8
0
10
583.200000
20
494.100000
0
VERTEX
8
0
10
572.230769
20
514.153846
0
VERTEX
8
0
10
569.240000
20
518.180000
0
VERTEX
8
0
10
559.000000
20
533.000000
0
VERTEX
8
0
10
535.769968
20
554.750799
0
VERTEX
8
0
10
517.846154
20
567.769231
0
VERTEX
8
0
10
503.900000
20
574.800000
0
VERTEX
8
0
10
485.100000
20
582.300000
0
VERTEX
8
0
10
477.088235
20
584.352941
0
VERTEX
8
0
10
461.000000
20
588.000000
0
VERTEX
8
0
10
448.000000
20
588.000000
0
VERTEX
8
0
10
434.067568
20
585.594595
0
VERTEX
8
0
10
425.100000
20
582.800000
0
VERTEX
8
0
10
418.900000
20
580.300000
0
VERTEX
8
0
10
413.153846
20
577.769231
0
VERTEX
8
0
10
410.195122
20
575.756098
0
VERTEX
8
0
10
406.000000
20
572.000000
0
VERTEX
8
0
10
404.200000
20
575.100000
0
VERTEX
8
0
10
403.000000
20
578.000000
0
VERTEX
8
0
10
410.760000
20
587.180000
0
VERTEX
8
0
10
414.700000
20
597.100000
0
VERTEX
8
0
10
415.300000
20
598.900000
0
VERTEX
8
0
10
416.000000
20
600.000000
0
VERTEX
8
0
10
416.000000
20
618.000000
0
VERTEX
8
0
10
410.800000
20
630.900000
0
VERTEX
8
0
10
404.000000
20
641.000000
0
VERTEX
8
0
10
400.153846
20
644.230769
0
VERTEX
8
0
10
392.100000
20
649.200000
0
VERTEX
8
0
10
368.962069
20
656.544828
0
VERTEX
8
0
10
356.000000
20
658.000000
0
VERTEX
8
0
10
350.800000
20
672.900000
0
VERTEX
8
0
10
348.000000
20
677.000000
0
VERTEX
8
0
10
339.900000
20
683.700000
0
VERTEX
8
0
10
338.100000
20
684.300000
0
VERTEX
8
0
10
332.000000
20
687.000000
0
VERTEX
8
0
10
320.000000
20
687.000000
0
VERTEX
8
0
10
316.088235
20
685.647059
0
VERTEX
8
0
10
314.900000
20
685.200000
0
VERTEX
8
0
10
310.000000
20
683.000000
0
VERTEX
8
0
10
301.000000
20
674.000000
0
VERTEX
8
0
10
298.300000
20
666.900000
0
VERTEX
8
0
10
297.000000
20
659.000000
0
VERTEX
8
0
10
276.900000
20
653.300000
0
VERTEX
8
0
10
273.900000
20
652.300000
0
VERTEX
8
0
10
259.180000
20
646.760000
0
VERTEX
8
0
10
255.000000
20
644.000000
0
VERTEX
8
0
10
244.760000
20
633.180000
0
VERTEX
8
0
10
242.240000
20
629.820000
0
VERTEX
8
0
10
236.300000
20
619.900000
0
VERTEX
8
0
10
233.700000
20
612.100000
0
VERTEX
8
0
10
233.000000
20
611.000000
0
VERTEX
8
0
10
233.000000
20
597.000000
0
VERTEX
8
0
10
235.352941
20
587.088235
0
VERTEX
8
0
10
245.000000
20
571.000000
0
VERTEX
8
0
10
242.000000
20
566.000000
0
VERTEX
8
0
10
241.000000
20
566.000000
0
VERTEX
8
0
10
233.100000
20
572.200000
0
VERTEX
8
0
10
214.923077
20
579.615385
0
VERTEX
8
0
10
202.951220
20
581.560976
0
VERTEX
8
0
10
188.000000
20
583.000000
0
VERTEX
8
0
10
178.044554
20
581.554455
0
VERTEX
8
0
10
171.100000
20
578.800000
0
VERTEX
8
0
10
168.100000
20
577.700000
0
VERTEX
8
0
10
141.153846
20
563.769231
0
VERTEX
8
0
10
125.846154
20
553.230769
0
VERTEX
8
0
10
118.000000
20
547.000000
0
VERTEX
8
0
10
96.249057
20
523.771698
0
VERTEX
8
0
10
92.200000
20
517.900000
0
VERTEX
8
0
10
86.240000
20
508.820000
0
VERTEX
8
0
10
74.200000
20
489.900000
0
VERTEX
8
0
10
66.800000
20
475.100000
0
VERTEX
8
0
10
62.352941
20
464.911765
0
VERTEX
8
0
10
60.300000
20
457.900000
0
VERTEX
8
0
10
55.352941
20
437.911765
0
VERTEX
8
0
10
53.594595
20
429.067568
0
VERTEX
8
0
10
49.538071
20
390.032995
0
VERTEX
8
0
10
46.000000
20
322.000000
0
VERTEX
8
0
10
46.533074
20
301.970817
0
VERTEX
8
0
10
47.466926
20
287.029183
0
VERTEX
8
0
10
50.420000
20
252.060000
0
VERTEX
8
0
10
53.300000
20
238.100000
0
VERTEX
8
0
10
55.700000
20
230.900000
0
VERTEX
8
0
10
60.230769
20
220.153846
0
VERTEX
8
0
10
64.769231
20
212.846154
0
VERTEX
8
0
10
67.000000
20
209.000000
0
VERTEX
8
0
10
74.000000
20
202.000000
0
VERTEX
8
0
10
76.100000
20
201.200000
0
VERTEX
8
0
10
76.900000
20
200.800000
0
VERTEX
8
0
10
92.000000
20
195.000000
0
VERTEX
8
0
10
108.000000
20
195.000000
0
VERTEX
8
0
10
112.923077
20
196.384615
0
VERTEX
8
0
10
114.100000
20
196.700000
0
VERTEX
8
0
10
131.000000
20
204.000000
0
VERTEX
8
0
10
140.760000
20
216.180000
0
VERTEX
8
0
10
146.800000
20
226.100000
0
VERTEX
8
0
10
149.000000
20
235.000000
0
VERTEX
8
0
10
151.000000
20
237.000000
0
VERTEX
8
0
10
155.088235
20
237.647059
0
VERTEX
8
0
10
170.000000
20
244.000000
0
VERTEX
8
0
10
179.000000
20
253.000000
0
VERTEX
8
0
10
181.760000
20
257.180000
0
VERTEX
8
0
10
189.800000
20
272.100000
0
VERTEX
8
0
10
190.200000
20
272.900000
0
VERTEX
8
0
10
192.000000
20
276.000000
0
VERTEX
8
0
10
198.946154
20
276.430769
0
VERTEX
8
0
10
206.900000
20
280.200000
0
VERTEX
8
0
10
211.788235
20
283.247059
0
VERTEX
8
0
10
223.000000
20
293.000000
0
VERTEX
8
0
10
223.200000
20
293.900000
0
VERTEX
8
0
10
231.000000
20
309.000000
0
VERTEX
8
0
10
232.000000
20
309.000000
0
SEQEND
0
POLYLINE
8
0
6
CONTINUOUS
66
1
62
7
10
0.0
20
0.0
30
0.000000
0
VERTEX
8
0
10
307.000000
20
583.000000
0
VERTEX
8
0
10
292.900000
20
576.200000
0
VERTEX
8
0
10
282.180000
20
569.760000
0
VERTEX
8
0
10
274.000000
20
564.000000
0
VERTEX
8
0
10
268.800000
20
556.100000
0
VERTEX
8
0
10
267.200000
20
552.900000
0
VERTEX
8
0
10
262.352941
20
540.911765
0
VERTEX
8
0
10
261.647059
20
538.088235
0
VERTEX
8
0
10
261.000000
20
537.000000
0
VERTEX
8
0
10
261.000000
20
527.000000
0
VERTEX
8
0
10
268.245902
20
512.204918
0
VERTEX
8
0
10
273.000000
20
506.000000
0
VERTEX
8
0
10
277.900000
20
501.800000
0
VERTEX
8
0
10
279.846154
20
500.769231
0
VERTEX
8
0
10
293.100000
20
493.300000
0
VERTEX
8
0
10
298.911765
20
491.647059
0
VERTEX
8
0
10
309.750000
20
488.750000
0
VERTEX
8
0
10
310.000000
20
488.000000
0
VERTEX
8
0
10
311.000000
20
485.000000
0
VERTEX
8
0
10
308.000000
20
482.000000
0
VERTEX
8
0
10
287.900000
20
479.200000
0
VERTEX
8
0
10
280.153846
20
473.769231
0
VERTEX
8
0
10
268.200000
20
465.600000
0
VERTEX
8
0
10
265.846154
20
466.769231
0
VERTEX
8
0
10
259.000000
20
472.000000
0
VERTEX
8
0
10
254.352941
20
480.088235
0
VERTEX
8
0
10
251.580000
20
496.940000
0
VERTEX
8
0
10
249.700000
20
502.900000
0
VERTEX
8
0
10
242.200000
20
523.100000
0
VERTEX
8
0
10
230.000000
20
539.000000
0
VERTEX
8
0
10
221.820000
20
544.760000
0
VERTEX
8
0
10
211.900000
20
550.800000
0
VERTEX
8
0
10
209.100000
20
552.200000
0
VERTEX
8
0
10
202.000000
20
554.000000
0
VERTEX
8
0
10
184.000000
20
554.000000
0
VERTEX
8
0
10
179.100000
20
551.700000
0
VERTEX
8
0
10
177.900000
20
551.200000
0
VERTEX
8
0
10
151.195122
20
536.756098
0
VERTEX
8
0
10
133.000000
20
522.000000
0
VERTEX
8
0
10
114.756098
20
501.195122
0
VERTEX
8
0
10
106.769231
20
489.153846
0
VERTEX
8
0
10
94.300000
20
466.900000
0
VERTEX
8
0
10
89.700000
20
455.100000
0
VERTEX
8
0
10
85.352941
20
440.911765
0
VERTEX
8
0
10
83.647059
20
434.088235
0
VERTEX
8
0
10
80.569231
20
417.053846
0
VERTEX
8
0
10
79.430769
20
407.946154
0
VERTEX
8
0
10
74.000000
20
321.000000
0
VERTEX
8
0
10
74.000000
20
296.000000
0
VERTEX
8
0
10
78.615385
20
255.923077
0
VERTEX
8
0
10
79.647059
20
250.911765
0
VERTEX
8
0
10
85.200000
20
232.100000
0
VERTEX
8
0
10
90.000000
20
225.000000
0
VERTEX
8
0
10
101.000000
20
223.000000
0
VERTEX
8
0
10
112.000000
20
226.000000
0
VERTEX
8
0
10
119.200000
20
234.900000
0
VERTEX
8
0
10
126.700000
20
255.100000
0
VERTEX
8
0
10
132.200000
20
268.900000
0
VERTEX
8
0
10
136.000000
20
275.000000
0
VERTEX
8
0
10
137.200000
20
273.100000
0
VERTEX
8
0
10
140.000000
20
268.000000
0
VERTEX
8
0
10
145.000000
20
265.000000
0
VERTEX
8
0
10
153.000000
20
267.000000
0
VERTEX
8
0
10
154.240000
20
268.820000
0
VERTEX
8
0
10
162.760000
20
280.180000
0
VERTEX
8
0
10
173.800000
20
306.100000
0
VERTEX
8
0
10
174.700000
20
308.100000
0
VERTEX
8
0
10
178.000000
20
317.000000
0
VERTEX
8
0
10
179.000000
20
318.000000
0
VERTEX
8
0
10
181.000000
20
316.000000
0
VERTEX
8
0
10
182.800000
20
307.900000
0
VERTEX
8
0
10
185.000000
20
305.000000
0
VERTEX
8
0
10
192.000000
20
303.000000
0
VERTEX
8
0
10
201.000000
20
311.000000
0
VERTEX
8
0
10
205.769231
20
320.153846
0
VERTEX
8
0
10
207.800000
20
324.100000
0
VERTEX
8
0
10
223.000000
20
352.000000
0
VERTEX
8
0
10
226.000000
20
355.000000
0
VERTEX
8
0
10
231.088235
20
357.647059
0
VERTEX
8
0
10
238.000000
20
359.000000
0
VERTEX
8
0
10
241.100000
20
357.300000
0
VERTEX
8
0
10
246.820000
20
354.760000
0
VERTEX
8
0
10
250.180000
20
352.240000
0
VERTEX
8
0
10
256.000000
20
347.000000
0
VERTEX
8
0
10
263.000000
20
329.000000
0
VERTEX
8
0
10
263.000000
20
322.000000
0
VERTEX
8
0
10
258.647059
20
298.088235
0
VERTEX
8
0
10
258.300000
20
296.900000
0
VERTEX
8
0
10
241.800000
20
256.100000
0
VERTEX
8
0
10
239.700000
20
251.100000
0
VERTEX
8
0
10
215.800000
20
199.100000
0
VERTEX
8
0
10
213.800000
20
195.100000
0
VERTEX
8
0
10
193.300000
20
150.900000
0
VERTEX
8
0
10
189.700000
20
141.100000
0
VERTEX
8
0
10
183.420000
20
122.940000
0
VERTEX
8
0
10
182.580000
20
117.060000
0
VERTEX
8
0
10
182.000000
20
116.000000
0
VERTEX
8
0
10
182.000000
20
101.000000
0
VERTEX
8
0
10
183.352941
20
97.088235
0
VERTEX
8
0
10
184.800000
20
93.900000
0
VERTEX
8
0
10
188.000000
20
90.000000
0
VERTEX
8
0
10
191.153846
20
88.230769
0
VERTEX
8
0
10
198.100000
20
85.300000
0
VERTEX
8
0
10
199.900000
20
84.700000
0
VERTEX
8
0
10
215.000000
20
80.000000
0
VERTEX
8
0
10
343.000000
20
80.000000
0
VERTEX
8
0
10
451.030973
20
83.535398
0
VERTEX
8
0
10
464.969027
20
84.464602
0
VERTEX
8
0
10
472.911765
20
86.352941
0
VERTEX
8
0
10
476.100000
20
87.800000
0
VERTEX
8
0
10
481.000000
20
90.000000
0
VERTEX
8
0
10
487.000000
20
96.000000
0
VERTEX
8
0
10
487.800000
20
98.100000
0
VERTEX
8
0
10
488.200000
20
98.900000
0
VERTEX
8
0
10
492.000000
20
110.000000
0
VERTEX
8
0
10
492.000000
20
121.000000
0
VERTEX
8
0
10
486.800000
20
134.900000
0
VERTEX
8
0
10
486.200000
20
136.100000
0
VERTEX
8
0
10
441.769231
20
222.846154
0
VERTEX
8
0
10
425.200000
20
255.100000
0
VERTEX
8
0
10
404.700000
20
301.900000
0
VERTEX
8
0
10
402.200000
20
309.100000
0
VERTEX
8
0
10
399.000000
20
322.000000
0
VERTEX
8
0
10
399.000000
20
341.000000
0
VERTEX
8
0
10
400.352941
20
344.911765
0
VERTEX
8
0
10
400.700000
20
346.100000
0
VERTEX
8
0
10
405.000000
20
354.000000
0
VERTEX
8
0
10
409.000000
20
358.000000
0
VERTEX
8
0
10
424.000000
20
364.000000
0
VERTEX
8
0
10
428.000000
20
361.000000
0
VERTEX
8
0
10
433.240000
20
355.180000
0
VERTEX
8
0
10
439.800000
20
345.900000
0
VERTEX
8
0
10
459.000000
20
314.000000
0
VERTEX
8
0
10
466.000000
20
307.000000
0
VERTEX
8
0
10
471.000000
20
305.000000
0
VERTEX
8
0
10
477.000000
20
305.000000
0
VERTEX
8
0
10
479.200000
20
307.900000
0
VERTEX
8
0
10
480.554455
20
315.044554
0
VERTEX
8
0
10
481.000000
20
324.000000
0
VERTEX
8
0
10
482.000000
20
325.000000
0
VERTEX
8
0
10
487.200000
20
314.100000
0
VERTEX
8
0
10
490.700000
20
305.900000
0
VERTEX
8
0
10
503.240000
20
278.180000
0
VERTEX
8
0
10
508.000000
20
272.000000
0
VERTEX
8
0
10
516.000000
20
268.000000
0
VERTEX
8
0
10
519.000000
20
269.000000
0
VERTEX
8
0
10
521.200000
20
271.900000
0
VERTEX
8
0
10
521.800000
20
273.100000
0
VERTEX
8
0
10
526.000000
20
282.000000
0
VERTEX
8
0
10
528.000000
20
284.000000
0
VERTEX
8
0
10
537.200000
20
265.100000
0
VERTEX
8
0
10
544.800000
20
248.900000
0
VERTEX
8
0
10
547.000000
20
245.000000
0
VERTEX
8
0
10
555.000000
20
237.000000
0
VERTEX
8
0
10
561.000000
20
234.000000
0
VERTEX
8
0
10
567.000000
20
234.000000
0
VERTEX
8
0
10
569.800000
20
235.400000
0
VERTEX
8
0
10
575.000000
20
239.000000
0
VERTEX
8
0
10
575.800000
20
241.100000
0
VERTEX
8
0
10
579.352941
20
249.911765
0
VERTEX
8
0
10
580.352941
20
253.911765
0
VERTEX
8
0
10
584.522642
20
283.020755
0
VERTEX
8
0
10
585.477358
20
304.979245
0
VERTEX
8
0
10
586.000000
20
332.000000
0
VERTEX
8
0
10
582.544828
20
373.962069
0
VERTEX
8
0
10
581.560976
20
382.951220
0
VERTEX
8
0
10
576.594595
20
417.932432
0
VERTEX
8
0
10
576.384615
20
419.076923
0
VERTEX
8
0
10
567.800000
20
456.900000
0
VERTEX
8
0
10
565.700000
20
462.900000
0
VERTEX
8
0
10
553.200000
20
492.100000
0
VERTEX
8
0
10
551.200000
20
496.100000
0
VERTEX
8
0
10
542.000000
20
509.000000
0
VERTEX
8
0
10
518.000000
20
533.000000
0
VERTEX
8
0
10
505.820000
20
541.760000
0
VERTEX
8
0
10
484.900000
20
552.700000
0
VERTEX
8
0
10
474.100000
20
556.300000
0
VERTEX
8
0
10
456.000000
20
560.000000
0
VERTEX
8
0
10
447.000000
20
560.000000
0
VERTEX
8
0
10
441.067568
20
558.594595
0
VERTEX
8
0
10
432.100000
20
555.800000
0
VERTEX
8
0
10
428.900000
20
554.200000
0
VERTEX
8
0
10
425.000000
20
552.000000
0
VERTEX
8
0
10
416.000000
20
543.000000
0
VERTEX
8
0
10
407.800000
20
529.100000
0
VERTEX
8
0
10
407.300000
20
527.900000
0
VERTEX
8
0
10
395.352941
20
486.911765
0
VERTEX
8
0
10
393.647059
20
480.088235
0
VERTEX
8
0
10
390.000000
20
473.000000
0
VERTEX
8
0
10
384.800000
20
469.400000
0
VERTEX
8
0
10
380.000000
20
468.000000
0
VERTEX
8
0
10
367.820000
20
476.760000
0
VERTEX
8
0
10
361.932432
20
479.594595
0
VERTEX
8
0
10
349.923077
20
481.615385
0
VERTEX
8
0
10
343.000000
20
483.000000
0
VERTEX
8
0
10
340.000000
20
486.000000
0
VERTEX
8
0
10
340.000000
20
488.000000
0
VERTEX
8
0
10
342.900000
20
489.300000
0
VERTEX
8
0
10
361.100000
20
493.800000
0
VERTEX
8
0
10
368.846154
20
499.230769
0
VERTEX
8
0
10
375.000000
20
504.000000
0
VERTEX
8
0
10
382.769231
20
515.153846
0
VERTEX
8
0
10
386.800000
20
524.100000
0
VERTEX
8
0
10
387.200000
20
524.900000
0
VERTEX
8
0
10
389.000000
20
528.000000
0
VERTEX
8
0
10
389.000000
20
542.000000
0
VERTEX
8
0
10
387.700000
20
544.900000
0
VERTEX
8
0
10
387.300000
20
546.100000
0
VERTEX
8
0
10
379.000000
20
564.000000
0
VERTEX
8
0
10
374.000000
20
569.000000
0
VERTEX
8
0
10
364.900000
20
574.800000
0
VERTEX
8
0
10
360.900000
20
576.800000
0
VERTEX
8
0
10
351.088235
20
580.352941
0
VERTEX
8
0
10
341.000000
20
583.000000
0
SEQEND
0
POLYLINE
8
0
6
CONTINUOUS
66
1
62
7
10
0.0
20
0.0
30
0.000000
0
VERTEX
8
0
10
232.000000
20
309.000000
0
VERTEX
8
0
10
230.647059
20
302.088235
0
VERTEX
8
0
10
222.800000
20
282.100000
0
VERTEX
8
0
10
220.700000
20
276.100000
0
VERTEX
8
0
10
209.800000
20
253.100000
0
VERTEX
8
0
10
198.200000
20
228.900000
0
VERTEX
8
0
10
166.700000
20
160.100000
0
VERTEX
8
0
10
161.700000
20
146.100000
0
VERTEX
8
0
10
156.384615
20
129.923077
0
VERTEX
8
0
10
154.000000
20
117.000000
0
VERTEX
8
0
10
154.000000
20
96.000000
0
VERTEX
8
0
10
156.700000
20
87.900000
0
VERTEX
8
0
10
161.000000
20
78.000000
0
VERTEX
8
0
10
171.000000
20
68.000000
0
VERTEX
8
0
10
182.153846
20
62.230769
0
VERTEX
8
0
10
194.100000
20
57.300000
0
VERTEX
8
0
10
195.900000
20
56.700000
0
VERTEX
8
0
10
212.000000
20
52.000000
0
VERTEX
8
0
10
344.000000
20
52.000000
0
VERTEX
8
0
10
451.981536
20
55.480059
0
VERTEX
8
0
10
467.970817
20
56.466926
0
VERTEX
8
0
10
476.923077
20
58.384615
0
VERTEX
8
0
10
480.911765
20
59.352941
0
VERTEX
8
0
10
491.900000
20
64.200000
0
VERTEX
8
0
10
493.100000
20
64.800000
0
VERTEX
8
0
10
498.000000
20
67.000000
0
VERTEX
8
0
10
507.000000
20
76.000000
0
VERTEX
8
0
10
513.800000
20
87.100000
0
VERTEX
8
0
10
515.300000
20
90.900000
0
VERTEX
8
0
10
517.580000
20
99.060000
0
VERTEX
8
0
10
519.420000
20
111.940000
0
VERTEX
8
0
10
520.000000
20
119.000000
0
VERTEX
8
0
10
518.580000
20
125.940000
0
VERTEX
8
0
10
515.200000
20
141.100000
0
VERTEX
8
0
10
514.300000
20
143.100000
0
VERTEX
8
0
10
466.200000
20
236.100000
0
VERTEX
8
0
10
463.800000
20
240.900000
0
VERTEX
8
0
10
440.300000
20
288.100000
0
VERTEX
8
0
10
438.000000
20
295.000000
0
SEQEND
0
ENDSEC
0
EOF
