0
SECTION
2
HEADER
9
$ACADVER
1
AC1003
9
$INSBASE
10
0.0
20
0.0
30
0.0
9
$EXTMIN
10
0.000
20
0.000
30
0.0
9
$EXTMAX
10
705.000
20
692.000
30
0.0
9
$LIMMIN
10
0.000
20
0.000
9
$LIMMAX
10
705.000
20
692.000
9
$LTSCALE
40
1.0
9
$LUNITS
70
2
9
$LUPREC
70
3
9
$LIMCHECK
70
0
9
$UCSNAME
2

9
$UCSORG
10
0.0
20
0.0
30
0.0
9
$UCSXDIR
10
1.0
20
0.0
30
0.0
9
$UCSYDIR
10
0.0
20
1.0
30
0.0
9
$WORLDVIEW
70
1
9
$UNITMODE
70
0
0
ENDSEC
0
SECTION
2
TABLES
0
TABLE
2
VPORT
70
1
0
VPORT
2
*ACTIVE
70
0
10
0.0
20
0.0
11
1.0
21
1.0
12
352.500
22
346.000
13
0.0
23
0.0
14
1.0
24
1.0
15
0.0
25
0.0
16
0.0
26
0.0
36
1.0
17
0.0
27
0.0
37
0.0
40
500.0
41
0.982
42
50.0
43
0.0
44
0.0
50
0.0
51
0.0
71
0
72
100
73
1
74
1
75
0
76
0
77
0
78
0
0
ENDTAB
0
TABLE
2
LTYPE
70
1
0
LTYPE
2
CONTINUOUS
70
64
3
Solid line
72
65
73
0
40
0.000
0
ENDTAB
0
TABLE
2
LAYER
70
1
0
LAYER
2
0
70
64
62
7
6
CONTINUOUS
0
ENDTAB
0
ENDSEC
0
SECTION
2
BLOCKS
0
ENDSEC
0
SECTION
2
ENTITIES
0
POLYLINE
8
0
6
CONTINUOUS
66
1
62
7
10
0.0
20
0.0
30
0.000000
0
VERTEX
8
0
10
354.000000
20
567.000000
0
VERTEX
8
0
10
358.000000
20
570.000000
0
VERTEX
8
0
10
359.000000
20
577.000000
0
VERTEX
8
0
10
355.000000
20
582.000000
0
VERTEX
8
0
10
348.000000
20
583.000000
0
VERTEX
8
0
10
343.000000
20
579.000000
0
VERTEX
8
0
10
342.000000
20
573.000000
0
VERTEX
8
0
10
347.000000
20
567.000000
0
VERTEX
8
0
10
354.000000
20
567.000000
0
SEQEND
0
POLYLINE
8
0
6
CONTINUOUS
66
1
62
7
10
0.0
20
0.0
30
0.000000
0
VERTEX
8
0
10
339.000000
20
540.000000
0
VERTEX
8
0
10
345.000000
20
544.000000
0
VERTEX
8
0
10
346.000000
20
551.000000
0
VERTEX
8
0
10
344.000000
20
554.000000
0
VERTEX
8
0
10
342.153846
20
555.230769
0
VERTEX
8
0
10
340.000000
20
557.000000
0
VERTEX
8
0
10
335.000000
20
557.000000
0
VERTEX
8
0
10
331.000000
20
554.000000
0
VERTEX
8
0
10
330.800000
20
553.100000
0
VERTEX
8
0
10
329.000000
20
550.000000
0
VERTEX
8
0
10
329.000000
20
547.000000
0
VERTEX
8
0
10
332.000000
20
542.000000
0
VERTEX
8
0
10
339.000000
20
540.000000
0
SEQEND
0
POLYLINE
8
0
6
CONTINUOUS
66
1
62
7
10
0.0
20
0.0
30
0.000000
0
VERTEX
8
0
10
365.000000
20
540.000000
0
VERTEX
8
0
10
366.100000
20
540.700000
0
VERTEX
8
0
10
368.000000
20
541.000000
0
VERTEX
8
0
10
371.200000
20
544.900000
0
VERTEX
8
0
10
372.000000
20
546.000000
0
VERTEX
8
0
10
372.000000
20
552.000000
0
VERTEX
8
0
10
367.100000
20
556.200000
0
VERTEX
8
0
10
366.000000
20
557.000000
0
VERTEX
8
0
10
359.000000
20
556.000000
0
VERTEX
8
0
10
356.000000
20
552.000000
0
VERTEX
8
0
10
356.000000
20
545.000000
0
VERTEX
8
0
10
359.900000
20
541.800000
0
VERTEX
8
0
10
365.000000
20
540.000000
0
SEQEND
0
POLYLINE
8
0
6
CONTINUOUS
66
1
62
7
10
0.0
20
0.0
30
0.000000
0
VERTEX
8
0
10
327.000000
20
514.000000
0
VERTEX
8
0
10
329.000000
20
515.000000
0
VERTEX
8
0
10
332.200000
20
518.900000
0
VERTEX
8
0
10
333.000000
20
520.000000
0
VERTEX
8
0
10
332.000000
20
527.000000
0
VERTEX
8
0
10
326.000000
20
531.000000
0
VERTEX
8
0
10
323.000000
20
531.000000
0
VERTEX
8
0
10
317.000000
20
527.000000
0
VERTEX
8
0
10
316.000000
20
520.000000
0
VERTEX
8
0
10
317.000000
20
518.000000
0
VERTEX
8
0
10
320.900000
20
514.800000
0
VERTEX
8
0
10
327.000000
20
514.000000
0
SEQEND
0
POLYLINE
8
0
6
CONTINUOUS
66
1
62
7
10
0.0
20
0.0
30
0.000000
0
VERTEX
8
0
10
353.000000
20
514.000000
0
VERTEX
8
0
10
358.000000
20
518.000000
0
VERTEX
8
0
10
359.000000
20
525.000000
0
VERTEX
8
0
10
352.000000
20
531.000000
0
VERTEX
8
0
10
349.000000
20
531.000000
0
VERTEX
8
0
10
343.000000
20
526.000000
0
VERTEX
8
0
10
342.000000
20
521.000000
0
VERTEX
8
0
10
348.000000
20
514.000000
0
VERTEX
8
0
10
353.000000
20
514.000000
0
SEQEND
0
POLYLINE
8
0
6
CONTINUOUS
66
1
62
7
10
0.0
20
0.0
30
0.000000
0
VERTEX
8
0
10
379.000000
20
514.000000
0
VERTEX
8
0
10
384.000000
20
518.000000
0
VERTEX
8
0
10
385.000000
20
525.000000
0
VERTEX
8
0
10
382.000000
20
529.000000
0
VERTEX
8
0
10
376.000000
20
531.000000
0
VERTEX
8
0
10
374.900000
20
530.300000
0
VERTEX
8
0
10
373.000000
20
530.000000
0
VERTEX
8
0
10
369.000000
20
526.000000
0
VERTEX
8
0
10
369.000000
20
519.000000
0
VERTEX
8
0
10
371.000000
20
516.000000
0
VERTEX
8
0
10
375.076923
20
514.384615
0
VERTEX
8
0
10
379.000000
20
514.000000
0
SEQEND
0
POLYLINE
8
0
6
CONTINUOUS
66
1
62
7
10
0.0
20
0.0
30
0.000000
0
VERTEX
8
0
10
314.000000
20
488.000000
0
VERTEX
8
0
10
316.000000
20
489.000000
0
VERTEX
8
0
10
318.200000
20
491.900000
0
VERTEX
8
0
10
318.800000
20
493.100000
0
VERTEX
8
0
10
320.000000
20
497.000000
0
VERTEX
8
0
10
317.000000
20
503.000000
0
VERTEX
8
0
10
316.100000
20
503.200000
0
VERTEX
8
0
10
313.000000
20
505.000000
0
VERTEX
8
0
10
310.000000
20
505.000000
0
VERTEX
8
0
10
306.000000
20
503.000000
0
VERTEX
8
0
10
304.000000
20
501.000000
0
VERTEX
8
0
10
303.000000
20
494.000000
0
VERTEX
8
0
10
304.000000
20
492.000000
0
VERTEX
8
0
10
306.846154
20
489.769231
0
VERTEX
8
0
10
314.000000
20
488.000000
0
SEQEND
0
POLYLINE
8
0
6
CONTINUOUS
66
1
62
7
10
0.0
20
0.0
30
0.000000
0
VERTEX
8
0
10
340.000000
20
488.000000
0
VERTEX
8
0
10
344.000000
20
491.000000
0
VERTEX
8
0
10
344.230769
20
491.846154
0
VERTEX
8
0
10
346.000000
20
494.000000
0
VERTEX
8
0
10
346.000000
20
499.000000
0
VERTEX
8
0
10
341.000000
20
504.000000
0
VERTEX
8
0
10
338.000000
20
505.000000
0
VERTEX
8
0
10
336.000000
20
505.000000
0
VERTEX
8
0
10
331.000000
20
502.000000
0
VERTEX
8
0
10
329.000000
20
497.000000
0
VERTEX
8
0
10
330.000000
20
492.000000
0
VERTEX
8
0
10
332.000000
20
490.000000
0
VERTEX
8
0
10
335.188679
20
488.660377
0
VERTEX
8
0
10
340.000000
20
488.000000
0
SEQEND
0
POLYLINE
8
0
6
CONTINUOUS
66
1
62
7
10
0.0
20
0.0
30
0.000000
0
VERTEX
8
0
10
366.000000
20
488.000000
0
VERTEX
8
0
10
370.000000
20
490.000000
0
VERTEX
8
0
10
371.300000
20
492.900000
0
VERTEX
8
0
10
372.000000
20
494.000000
0
VERTEX
8
0
10
372.000000
20
500.000000
0
VERTEX
8
0
10
369.000000
20
503.000000
0
VERTEX
8
0
10
363.000000
20
505.000000
0
VERTEX
8
0
10
359.000000
20
503.000000
0
VERTEX
8
0
10
356.000000
20
500.000000
0
VERTEX
8
0
10
356.000000
20
492.000000
0
VERTEX
8
0
10
358.000000
20
490.000000
0
VERTEX
8
0
10
361.188679
20
488.660377
0
VERTEX
8
0
10
366.000000
20
488.000000
0
SEQEND
0
POLYLINE
8
0
6
CONTINUOUS
66
1
62
7
10
0.0
20
0.0
30
0.000000
0
VERTEX
8
0
10
393.000000
20
488.000000
0
VERTEX
8
0
10
396.000000
20
490.000000
0
VERTEX
8
0
10
397.200000
20
491.900000
0
VERTEX
8
0
10
398.000000
20
493.000000
0
VERTEX
8
0
10
398.000000
20
500.000000
0
VERTEX
8
0
10
394.000000
20
504.000000
0
VERTEX
8
0
10
388.911765
20
504.352941
0
VERTEX
8
0
10
386.000000
20
504.000000
0
VERTEX
8
0
10
382.800000
20
500.100000
0
VERTEX
8
0
10
382.000000
20
499.000000
0
VERTEX
8
0
10
382.000000
20
494.000000
0
VERTEX
8
0
10
383.000000
20
491.000000
0
VERTEX
8
0
10
384.900000
20
489.800000
0
VERTEX
8
0
10
388.067568
20
488.405405
0
VERTEX
8
0
10
393.000000
20
488.000000
0
SEQEND
0
POLYLINE
8
0
6
CONTINUOUS
66
1
62
7
10
0.0
20
0.0
30
0.000000
0
VERTEX
8
0
10
196.000000
20
462.000000
0
VERTEX
8
0
10
198.000000
20
463.000000
0
VERTEX
8
0
10
201.000000
20
467.000000
0
VERTEX
8
0
10
201.000000
20
474.000000
0
VERTEX
8
0
10
197.100000
20
477.200000
0
VERTEX
8
0
10
196.000000
20
478.000000
0
VERTEX
8
0
10
190.000000
20
478.000000
0
VERTEX
8
0
10
185.800000
20
473.100000
0
VERTEX
8
0
10
185.000000
20
472.000000
0
VERTEX
8
0
10
185.000000
20
468.000000
0
VERTEX
8
0
10
190.000000
20
462.000000
0
VERTEX
8
0
10
196.000000
20
462.000000
0
SEQEND
0
POLYLINE
8
0
6
CONTINUOUS
66
1
62
7
10
0.0
20
0.0
30
0.000000
0
VERTEX
8
0
10
222.000000
20
462.000000
0
VERTEX
8
0
10
224.000000
20
463.000000
0
VERTEX
8
0
10
227.200000
20
466.900000
0
VERTEX
8
0
10
228.000000
20
468.000000
0
VERTEX
8
0
10
228.000000
20
472.000000
0
VERTEX
8
0
10
227.000000
20
474.000000
0
VERTEX
8
0
10
223.100000
20
477.200000
0
VERTEX
8
0
10
222.000000
20
478.000000
0
VERTEX
8
0
10
217.000000
20
478.000000
0
VERTEX
8
0
10
215.000000
20
477.000000
0
VERTEX
8
0
10
212.000000
20
474.000000
0
VERTEX
8
0
10
211.000000
20
471.000000
0
VERTEX
8
0
10
211.700000
20
467.900000
0
VERTEX
8
0
10
212.000000
20
466.000000
0
VERTEX
8
0
10
215.000000
20
463.000000
0
VERTEX
8
0
10
217.067568
20
462.405405
0
VERTEX
8
0
10
222.000000
20
462.000000
0
SEQEND
0
POLYLINE
8
0
6
CONTINUOUS
66
1
62
7
10
0.0
20
0.0
30
0.000000
0
VERTEX
8
0
10
248.000000
20
462.000000
0
VERTEX
8
0
10
253.000000
20
466.000000
0
VERTEX
8
0
10
254.000000
20
473.000000
0
VERTEX
8
0
10
251.000000
20
477.000000
0
VERTEX
8
0
10
250.100000
20
477.200000
0
VERTEX
8
0
10
249.000000
20
478.000000
0
VERTEX
8
0
10
242.000000
20
478.000000
0
VERTEX
8
0
10
237.800000
20
473.100000
0
VERTEX
8
0
10
237.000000
20
472.000000
0
VERTEX
8
0
10
238.000000
20
466.000000
0
VERTEX
8
0
10
241.000000
20
463.000000
0
VERTEX
8
0
10
243.067568
20
462.405405
0
VERTEX
8
0
10
248.000000
20
462.000000
0
SEQEND
0
POLYLINE
8
0
6
CONTINUOUS
66
1
62
7
10
0.0
20
0.0
30
0.000000
0
VERTEX
8
0
10
275.000000
20
462.000000
0
VERTEX
8
0
10
280.000000
20
468.000000
0
VERTEX
8
0
10
280.000000
20
472.000000
0
VERTEX
8
0
10
277.000000
20
477.000000
0
VERTEX
8
0
10
276.100000
20
477.200000
0
VERTEX
8
0
10
275.000000
20
478.000000
0
VERTEX
8
0
10
268.000000
20
478.000000
0
VERTEX
8
0
10
265.769231
20
475.153846
0
VERTEX
8
0
10
264.000000
20
473.000000
0
VERTEX
8
0
10
264.000000
20
466.000000
0
VERTEX
8
0
10
267.000000
20
463.000000
0
VERTEX
8
0
10
269.060000
20
462.420000
0
VERTEX
8
0
10
275.000000
20
462.000000
0
SEQEND
0
POLYLINE
8
0
6
CONTINUOUS
66
1
62
7
10
0.0
20
0.0
30
0.000000
0
VERTEX
8
0
10
301.000000
20
462.000000
0
VERTEX
8
0
10
306.000000
20
466.000000
0
VERTEX
8
0
10
307.000000
20
469.000000
0
VERTEX
8
0
10
306.000000
20
474.000000
0
VERTEX
8
0
10
301.000000
20
478.000000
0
VERTEX
8
0
10
294.000000
20
477.000000
0
VERTEX
8
0
10
290.000000
20
473.000000
0
VERTEX
8
0
10
290.000000
20
467.000000
0
VERTEX
8
0
10
294.000000
20
463.000000
0
VERTEX
8
0
10
296.067568
20
462.405405
0
VERTEX
8
0
10
301.000000
20
462.000000
0
SEQEND
0
POLYLINE
8
0
6
CONTINUOUS
66
1
62
7
10
0.0
20
0.0
30
0.000000
0
VERTEX
8
0
10
328.000000
20
462.000000
0
VERTEX
8
0
10
332.300000
20
467.900000
0
VERTEX
8
0
10
333.000000
20
471.000000
0
VERTEX
8
0
10
332.000000
20
474.000000
0
VERTEX
8
0
10
327.000000
20
478.000000
0
VERTEX
8
0
10
320.000000
20
477.000000
0
VERTEX
8
0
10
316.000000
20
473.000000
0
VERTEX
8
0
10
316.000000
20
467.000000
0
VERTEX
8
0
10
321.000000
20
462.000000
0
VERTEX
8
0
10
328.000000
20
462.000000
0
SEQEND
0
POLYLINE
8
0
6
CONTINUOUS
66
1
62
7
10
0.0
20
0.0
30
0.000000
0
VERTEX
8
0
10
353.000000
20
462.000000
0
VERTEX
8
0
10
358.000000
20
466.000000
0
VERTEX
8
0
10
359.000000
20
472.000000
0
VERTEX
8
0
10
354.000000
20
478.000000
0
VERTEX
8
0
10
347.000000
20
478.000000
0
VERTEX
8
0
10
343.000000
20
474.000000
0
VERTEX
8
0
10
342.000000
20
471.000000
0
VERTEX
8
0
10
343.000000
20
466.000000
0
VERTEX
8
0
10
346.000000
20
463.000000
0
VERTEX
8
0
10
348.067568
20
462.405405
0
VERTEX
8
0
10
353.000000
20
462.000000
0
SEQEND
0
POLYLINE
8
0
6
CONTINUOUS
66
1
62
7
10
0.0
20
0.0
30
0.000000
0
VERTEX
8
0
10
380.000000
20
462.000000
0
VERTEX
8
0
10
383.000000
20
464.000000
0
VERTEX
8
0
10
385.000000
20
468.000000
0
VERTEX
8
0
10
384.000000
20
475.000000
0
VERTEX
8
0
10
381.100000
20
477.200000
0
VERTEX
8
0
10
380.000000
20
478.000000
0
VERTEX
8
0
10
373.000000
20
478.000000
0
VERTEX
8
0
10
369.000000
20
473.000000
0
VERTEX
8
0
10
369.000000
20
466.000000
0
VERTEX
8
0
10
373.000000
20
462.000000
0
VERTEX
8
0
10
380.000000
20
462.000000
0
SEQEND
0
POLYLINE
8
0
6
CONTINUOUS
66
1
62
7
10
0.0
20
0.0
30
0.000000
0
VERTEX
8
0
10
407.000000
20
462.000000
0
VERTEX
8
0
10
410.700000
20
467.100000
0
VERTEX
8
0
10
411.352941
20
471.088235
0
VERTEX
8
0
10
411.000000
20
474.000000
0
VERTEX
8
0
10
407.100000
20
477.200000
0
VERTEX
8
0
10
406.000000
20
478.000000
0
VERTEX
8
0
10
398.000000
20
477.000000
0
VERTEX
8
0
10
395.000000
20
473.000000
0
VERTEX
8
0
10
395.000000
20
467.000000
0
VERTEX
8
0
10
396.000000
20
465.000000
0
VERTEX
8
0
10
398.000000
20
463.000000
0
VERTEX
8
0
10
401.060000
20
462.420000
0
VERTEX
8
0
10
407.000000
20
462.000000
0
SEQEND
0
POLYLINE
8
0
6
CONTINUOUS
66
1
62
7
10
0.0
20
0.0
30
0.000000
0
VERTEX
8
0
10
433.000000
20
462.000000
0
VERTEX
8
0
10
438.000000
20
469.000000
0
VERTEX
8
0
10
437.300000
20
472.100000
0
VERTEX
8
0
10
437.000000
20
474.000000
0
VERTEX
8
0
10
434.000000
20
477.000000
0
VERTEX
8
0
10
427.000000
20
478.000000
0
VERTEX
8
0
10
424.000000
20
477.000000
0
VERTEX
8
0
10
421.000000
20
473.000000
0
VERTEX
8
0
10
421.000000
20
467.000000
0
VERTEX
8
0
10
426.000000
20
462.000000
0
VERTEX
8
0
10
433.000000
20
462.000000
0
SEQEND
0
POLYLINE
8
0
6
CONTINUOUS
66
1
62
7
10
0.0
20
0.0
30
0.000000
0
VERTEX
8
0
10
458.000000
20
462.000000
0
VERTEX
8
0
10
461.000000
20
463.000000
0
VERTEX
8
0
10
463.000000
20
465.000000
0
VERTEX
8
0
10
464.000000
20
473.000000
0
VERTEX
8
0
10
460.000000
20
478.000000
0
VERTEX
8
0
10
452.000000
20
478.000000
0
VERTEX
8
0
10
448.000000
20
474.000000
0
VERTEX
8
0
10
448.000000
20
466.000000
0
VERTEX
8
0
10
451.900000
20
462.800000
0
VERTEX
8
0
10
458.000000
20
462.000000
0
SEQEND
0
POLYLINE
8
0
6
CONTINUOUS
66
1
62
7
10
0.0
20
0.0
30
0.000000
0
VERTEX
8
0
10
484.000000
20
462.000000
0
VERTEX
8
0
10
487.000000
20
463.000000
0
VERTEX
8
0
10
489.000000
20
465.000000
0
VERTEX
8
0
10
490.000000
20
468.000000
0
VERTEX
8
0
10
490.000000
20
472.000000
0
VERTEX
8
0
10
489.000000
20
475.000000
0
VERTEX
8
0
10
486.100000
20
477.200000
0
VERTEX
8
0
10
485.000000
20
478.000000
0
VERTEX
8
0
10
479.000000
20
478.000000
0
VERTEX
8
0
10
477.000000
20
477.000000
0
VERTEX
8
0
10
474.800000
20
474.100000
0
VERTEX
8
0
10
474.000000
20
473.000000
0
VERTEX
8
0
10
474.000000
20
467.000000
0
VERTEX
8
0
10
475.000000
20
465.000000
0
VERTEX
8
0
10
477.000000
20
463.000000
0
VERTEX
8
0
10
484.000000
20
462.000000
0
SEQEND
0
POLYLINE
8
0
6
CONTINUOUS
66
1
62
7
10
0.0
20
0.0
30
0.000000
0
VERTEX
8
0
10
512.000000
20
462.000000
0
VERTEX
8
0
10
517.000000
20
469.000000
0
VERTEX
8
0
10
516.200000
20
472.100000
0
VERTEX
8
0
10
515.000000
20
475.000000
0
VERTEX
8
0
10
511.000000
20
478.000000
0
VERTEX
8
0
10
503.000000
20
477.000000
0
VERTEX
8
0
10
500.000000
20
473.000000
0
VERTEX
8
0
10
500.000000
20
467.000000
0
VERTEX
8
0
10
505.000000
20
462.000000
0
VERTEX
8
0
10
512.000000
20
462.000000
0
SEQEND
0
POLYLINE
8
0
6
CONTINUOUS
66
1
62
7
10
0.0
20
0.0
30
0.000000
0
VERTEX
8
0
10
206.000000
20
435.000000
0
VERTEX
8
0
10
212.000000
20
437.000000
0
VERTEX
8
0
10
215.000000
20
443.000000
0
VERTEX
8
0
10
213.000000
20
449.000000
0
VERTEX
8
0
10
209.000000
20
452.000000
0
VERTEX
8
0
10
204.000000
20
452.000000
0
VERTEX
8
0
10
199.000000
20
448.000000
0
VERTEX
8
0
10
198.000000
20
446.000000
0
VERTEX
8
0
10
198.000000
20
441.000000
0
VERTEX
8
0
10
201.000000
20
437.000000
0
VERTEX
8
0
10
203.100000
20
436.300000
0
VERTEX
8
0
10
206.000000
20
435.000000
0
SEQEND
0
POLYLINE
8
0
6
CONTINUOUS
66
1
62
7
10
0.0
20
0.0
30
0.000000
0
VERTEX
8
0
10
234.000000
20
435.000000
0
VERTEX
8
0
10
240.000000
20
440.000000
0
VERTEX
8
0
10
241.000000
20
445.000000
0
VERTEX
8
0
10
239.000000
20
449.000000
0
VERTEX
8
0
10
235.000000
20
452.000000
0
VERTEX
8
0
10
230.000000
20
452.000000
0
VERTEX
8
0
10
227.000000
20
450.000000
0
VERTEX
8
0
10
225.000000
20
448.000000
0
VERTEX
8
0
10
224.000000
20
441.000000
0
VERTEX
8
0
10
229.000000
20
436.000000
0
VERTEX
8
0
10
231.088235
20
435.352941
0
VERTEX
8
0
10
234.000000
20
435.000000
0
SEQEND
0
POLYLINE
8
0
6
CONTINUOUS
66
1
62
7
10
0.0
20
0.0
30
0.000000
0
VERTEX
8
0
10
260.000000
20
435.000000
0
VERTEX
8
0
10
264.000000
20
437.000000
0
VERTEX
8
0
10
266.200000
20
439.900000
0
VERTEX
8
0
10
267.000000
20
441.000000
0
VERTEX
8
0
10
267.000000
20
446.000000
0
VERTEX
8
0
10
266.000000
20
448.000000
0
VERTEX
8
0
10
262.000000
20
452.000000
0
VERTEX
8
0
10
256.000000
20
452.000000
0
VERTEX
8
0
10
252.000000
20
449.000000
0
VERTEX
8
0
10
251.800000
20
448.100000
0
VERTEX
8
0
10
251.000000
20
447.000000
0
VERTEX
8
0
10
251.000000
20
440.000000
0
VERTEX
8
0
10
255.000000
20
436.000000
0
VERTEX
8
0
10
258.100000
20
435.300000
0
VERTEX
8
0
10
260.000000
20
435.000000
0
SEQEND
0
POLYLINE
8
0
6
CONTINUOUS
66
1
62
7
10
0.0
20
0.0
30
0.000000
0
VERTEX
8
0
10
285.000000
20
435.000000
0
VERTEX
8
0
10
286.088235
20
435.647059
0
VERTEX
8
0
10
289.000000
20
436.000000
0
VERTEX
8
0
10
293.000000
20
440.000000
0
VERTEX
8
0
10
293.000000
20
447.000000
0
VERTEX
8
0
10
292.000000
20
449.000000
0
VERTEX
8
0
10
288.000000
20
452.000000
0
VERTEX
8
0
10
283.000000
20
452.000000
0
VERTEX
8
0
10
278.000000
20
449.000000
0
VERTEX
8
0
10
277.000000
20
441.000000
0
VERTEX
8
0
10
280.000000
20
437.000000
0
VERTEX
8
0
10
285.000000
20
435.000000
0
SEQEND
0
POLYLINE
8
0
6
CONTINUOUS
66
1
62
7
10
0.0
20
0.0
30
0.000000
0
VERTEX
8
0
10
312.000000
20
435.000000
0
VERTEX
8
0
10
313.100000
20
435.700000
0
VERTEX
8
0
10
315.000000
20
436.000000
0
VERTEX
8
0
10
319.000000
20
440.000000
0
VERTEX
8
0
10
319.352941
20
442.911765
0
VERTEX
8
0
10
318.000000
20
449.000000
0
VERTEX
8
0
10
314.000000
20
452.000000
0
VERTEX
8
0
10
309.000000
20
452.000000
0
VERTEX
8
0
10
305.000000
20
450.000000
0
VERTEX
8
0
10
303.000000
20
446.000000
0
VERTEX
8
0
10
303.000000
20
441.000000
0
VERTEX
8
0
10
306.000000
20
437.000000
0
VERTEX
8
0
10
312.000000
20
435.000000
0
SEQEND
0
POLYLINE
8
0
6
CONTINUOUS
66
1
62
7
10
0.0
20
0.0
30
0.000000
0
VERTEX
8
0
10
339.000000
20
435.000000
0
VERTEX
8
0
10
346.000000
20
441.000000
0
VERTEX
8
0
10
346.000000
20
446.000000
0
VERTEX
8
0
10
343.000000
20
450.000000
0
VERTEX
8
0
10
342.153846
20
450.230769
0
VERTEX
8
0
10
340.000000
20
452.000000
0
VERTEX
8
0
10
335.000000
20
452.000000
0
VERTEX
8
0
10
332.000000
20
450.000000
0
VERTEX
8
0
10
329.000000
20
445.000000
0
VERTEX
8
0
10
330.000000
20
440.000000
0
VERTEX
8
0
10
334.000000
20
436.000000
0
VERTEX
8
0
10
336.088235
20
435.352941
0
VERTEX
8
0
10
339.000000
20
435.000000
0
SEQEND
0
POLYLINE
8
0
6
CONTINUOUS
66
1
62
7
10
0.0
20
0.0
30
0.000000
0
VERTEX
8
0
10
365.000000
20
435.000000
0
VERTEX
8
0
10
368.000000
20
436.000000
0
VERTEX
8
0
10
372.000000
20
441.000000
0
VERTEX
8
0
10
371.000000
20
449.000000
0
VERTEX
8
0
10
367.000000
20
452.000000
0
VERTEX
8
0
10
361.000000
20
452.000000
0
VERTEX
8
0
10
358.000000
20
450.000000
0
VERTEX
8
0
10
356.000000
20
448.000000
0
VERTEX
8
0
10
356.000000
20
440.000000
0
VERTEX
8
0
10
360.000000
20
436.000000
0
VERTEX
8
0
10
363.100000
20
435.300000
0
VERTEX
8
0
10
365.000000
20
435.000000
0
SEQEND
0
POLYLINE
8
0
6
CONTINUOUS
66
1
62
7
10
0.0
20
0.0
30
0.000000
0
VERTEX
8
0
10
391.000000
20
435.000000
0
VERTEX
8
0
10
394.000000
20
436.000000
0
VERTEX
8
0
10
398.000000
20
440.000000
0
VERTEX
8
0
10
398.000000
20
447.000000
0
VERTEX
8
0
10
393.000000
20
452.000000
0
VERTEX
8
0
10
387.000000
20
452.000000
0
VERTEX
8
0
10
382.000000
20
446.000000
0
VERTEX
8
0
10
383.000000
20
439.000000
0
VERTEX
8
0
10
386.000000
20
436.000000
0
VERTEX
8
0
10
391.000000
20
435.000000
0
SEQEND
0
POLYLINE
8
0
6
CONTINUOUS
66
1
62
7
10
0.0
20
0.0
30
0.000000
0
VERTEX
8
0
10
416.000000
20
435.000000
0
VERTEX
8
0
10
417.088235
20
435.647059
0
VERTEX
8
0
10
420.000000
20
436.000000
0
VERTEX
8
0
10
424.000000
20
440.000000
0
VERTEX
8
0
10
424.000000
20
447.000000
0
VERTEX
8
0
10
423.000000
20
449.000000
0
VERTEX
8
0
10
419.000000
20
452.000000
0
VERTEX
8
0
10
413.000000
20
452.000000
0
VERTEX
8
0
10
411.000000
20
451.000000
0
VERTEX
8
0
10
408.000000
20
446.000000
0
VERTEX
8
0
10
409.000000
20
439.000000
0
VERTEX
8
0
10
412.000000
20
436.000000
0
VERTEX
8
0
10
416.000000
20
435.000000
0
SEQEND
0
POLYLINE
8
0
6
CONTINUOUS
66
1
62
7
10
0.0
20
0.0
30
0.000000
0
VERTEX
8
0
10
444.000000
20
435.000000
0
VERTEX
8
0
10
451.000000
20
441.000000
0
VERTEX
8
0
10
451.000000
20
446.000000
0
VERTEX
8
0
10
448.000000
20
450.000000
0
VERTEX
8
0
10
447.153846
20
450.230769
0
VERTEX
8
0
10
445.000000
20
452.000000
0
VERTEX
8
0
10
440.000000
20
452.000000
0
VERTEX
8
0
10
436.000000
20
449.000000
0
VERTEX
8
0
10
434.000000
20
445.000000
0
VERTEX
8
0
10
435.000000
20
440.000000
0
VERTEX
8
0
10
439.000000
20
436.000000
0
VERTEX
8
0
10
441.088235
20
435.352941
0
VERTEX
8
0
10
444.000000
20
435.000000
0
SEQEND
0
POLYLINE
8
0
6
CONTINUOUS
66
1
62
7
10
0.0
20
0.0
30
0.000000
0
VERTEX
8
0
10
470.000000
20
435.000000
0
VERTEX
8
0
10
471.100000
20
435.700000
0
VERTEX
8
0
10
473.000000
20
436.000000
0
VERTEX
8
0
10
476.000000
20
439.000000
0
VERTEX
8
0
10
477.000000
20
446.000000
0
VERTEX
8
0
10
472.000000
20
452.000000
0
VERTEX
8
0
10
466.000000
20
452.000000
0
VERTEX
8
0
10
462.000000
20
449.000000
0
VERTEX
8
0
10
461.800000
20
448.100000
0
VERTEX
8
0
10
461.000000
20
447.000000
0
VERTEX
8
0
10
461.000000
20
440.000000
0
VERTEX
8
0
10
465.000000
20
436.000000
0
VERTEX
8
0
10
468.100000
20
435.300000
0
VERTEX
8
0
10
470.000000
20
435.000000
0
SEQEND
0
POLYLINE
8
0
6
CONTINUOUS
66
1
62
7
10
0.0
20
0.0
30
0.000000
0
VERTEX
8
0
10
496.000000
20
435.000000
0
VERTEX
8
0
10
497.100000
20
435.700000
0
VERTEX
8
0
10
499.000000
20
436.000000
0
VERTEX
8
0
10
502.200000
20
439.900000
0
VERTEX
8
0
10
503.000000
20
441.000000
0
VERTEX
8
0
10
503.000000
20
447.000000
0
VERTEX
8
0
10
498.100000
20
451.200000
0
VERTEX
8
0
10
497.000000
20
452.000000
0
VERTEX
8
0
10
493.000000
20
452.000000
0
VERTEX
8
0
10
487.000000
20
447.000000
0
VERTEX
8
0
10
487.000000
20
441.000000
0
VERTEX
8
0
10
488.000000
20
439.000000
0
VERTEX
8
0
10
491.000000
20
436.000000
0
VERTEX
8
0
10
494.100000
20
435.300000
0
VERTEX
8
0
10
496.000000
20
435.000000
0
SEQEND
0
POLYLINE
8
0
6
CONTINUOUS
66
1
62
7
10
0.0
20
0.0
30
0.000000
0
VERTEX
8
0
10
221.000000
20
409.000000
0
VERTEX
8
0
10
227.000000
20
414.000000
0
VERTEX
8
0
10
228.000000
20
419.000000
0
VERTEX
8
0
10
222.000000
20
426.000000
0
VERTEX
8
0
10
217.000000
20
426.000000
0
VERTEX
8
0
10
214.000000
20
424.000000
0
VERTEX
8
0
10
211.000000
20
420.000000
0
VERTEX
8
0
10
211.000000
20
415.000000
0
VERTEX
8
0
10
216.000000
20
410.000000
0
VERTEX
8
0
10
218.088235
20
409.352941
0
VERTEX
8
0
10
221.000000
20
409.000000
0
SEQEND
0
POLYLINE
8
0
6
CONTINUOUS
66
1
62
7
10
0.0
20
0.0
30
0.000000
0
VERTEX
8
0
10
248.000000
20
409.000000
0
VERTEX
8
0
10
254.000000
20
416.000000
0
VERTEX
8
0
10
253.000000
20
421.000000
0
VERTEX
8
0
10
247.000000
20
426.000000
0
VERTEX
8
0
10
244.000000
20
426.000000
0
VERTEX
8
0
10
238.000000
20
421.000000
0
VERTEX
8
0
10
237.000000
20
416.000000
0
VERTEX
8
0
10
243.000000
20
409.000000
0
VERTEX
8
0
10
248.000000
20
409.000000
0
SEQEND
0
POLYLINE
8
0
6
CONTINUOUS
66
1
62
7
10
0.0
20
0.0
30
0.000000
0
VERTEX
8
0
10
273.000000
20
409.000000
0
VERTEX
8
0
10
274.100000
20
409.700000
0
VERTEX
8
0
10
276.000000
20
410.000000
0
VERTEX
8
0
10
279.000000
20
413.000000
0
VERTEX
8
0
10
280.000000
20
420.000000
0
VERTEX
8
0
10
276.000000
20
425.000000
0
VERTEX
8
0
10
270.000000
20
426.000000
0
VERTEX
8
0
10
266.000000
20
424.000000
0
VERTEX
8
0
10
265.769231
20
423.153846
0
VERTEX
8
0
10
264.000000
20
421.000000
0
VERTEX
8
0
10
264.000000
20
414.000000
0
VERTEX
8
0
10
268.000000
20
410.000000
0
VERTEX
8
0
10
271.100000
20
409.300000
0
VERTEX
8
0
10
273.000000
20
409.000000
0
SEQEND
0
POLYLINE
8
0
6
CONTINUOUS
66
1
62
7
10
0.0
20
0.0
30
0.000000
0
VERTEX
8
0
10
299.000000
20
409.000000
0
VERTEX
8
0
10
305.000000
20
412.000000
0
VERTEX
8
0
10
306.300000
20
419.100000
0
VERTEX
8
0
10
305.700000
20
420.900000
0
VERTEX
8
0
10
304.000000
20
424.000000
0
VERTEX
8
0
10
301.000000
20
426.000000
0
VERTEX
8
0
10
296.000000
20
426.000000
0
VERTEX
8
0
10
294.100000
20
424.800000
0
VERTEX
8
0
10
291.000000
20
423.000000
0
VERTEX
8
0
10
290.000000
20
420.000000
0
VERTEX
8
0
10
290.000000
20
415.000000
0
VERTEX
8
0
10
291.000000
20
413.000000
0
VERTEX
8
0
10
295.900000
20
409.800000
0
VERTEX
8
0
10
299.000000
20
409.000000
0
SEQEND
0
POLYLINE
8
0
6
CONTINUOUS
66
1
62
7
10
0.0
20
0.0
30
0.000000
0
VERTEX
8
0
10
326.000000
20
409.000000
0
VERTEX
8
0
10
328.000000
20
410.000000
0
VERTEX
8
0
10
332.200000
20
414.900000
0
VERTEX
8
0
10
333.000000
20
416.000000
0
VERTEX
8
0
10
333.000000
20
419.000000
0
VERTEX
8
0
10
332.000000
20
421.000000
0
VERTEX
8
0
10
327.100000
20
425.200000
0
VERTEX
8
0
10
326.000000
20
426.000000
0
VERTEX
8
0
10
322.000000
20
426.000000
0
VERTEX
8
0
10
320.000000
20
425.000000
0
VERTEX
8
0
10
316.800000
20
421.100000
0
VERTEX
8
0
10
316.000000
20
420.000000
0
VERTEX
8
0
10
316.000000
20
416.000000
0
VERTEX
8
0
10
317.000000
20
414.000000
0
VERTEX
8
0
10
321.900000
20
409.800000
0
VERTEX
8
0
10
326.000000
20
409.000000
0
SEQEND
0
POLYLINE
8
0
6
CONTINUOUS
66
1
62
7
10
0.0
20
0.0
30
0.000000
0
VERTEX
8
0
10
352.000000
20
409.000000
0
VERTEX
8
0
10
356.000000
20
411.000000
0
VERTEX
8
0
10
359.000000
20
415.000000
0
VERTEX
8
0
10
358.000000
20
422.000000
0
VERTEX
8
0
10
355.000000
20
425.000000
0
VERTEX
8
0
10
349.000000
20
426.000000
0
VERTEX
8
0
10
347.000000
20
425.000000
0
VERTEX
8
0
10
343.000000
20
421.000000
0
VERTEX
8
0
10
342.000000
20
418.000000
0
VERTEX
8
0
10
342.700000
20
415.900000
0
VERTEX
8
0
10
343.000000
20
414.000000
0
VERTEX
8
0
10
347.000000
20
410.000000
0
VERTEX
8
0
10
350.100000
20
409.300000
0
VERTEX
8
0
10
352.000000
20
409.000000
0
SEQEND
0
POLYLINE
8
0
6
CONTINUOUS
66
1
62
7
10
0.0
20
0.0
30
0.000000
0
VERTEX
8
0
10
378.000000
20
409.000000
0
VERTEX
8
0
10
382.000000
20
411.000000
0
VERTEX
8
0
10
384.200000
20
413.900000
0
VERTEX
8
0
10
385.000000
20
415.000000
0
VERTEX
8
0
10
385.000000
20
420.000000
0
VERTEX
8
0
10
384.000000
20
423.000000
0
VERTEX
8
0
10
380.100000
20
425.200000
0
VERTEX
8
0
10
379.000000
20
426.000000
0
VERTEX
8
0
10
374.000000
20
426.000000
0
VERTEX
8
0
10
371.000000
20
424.000000
0
VERTEX
8
0
10
369.000000
20
422.000000
0
VERTEX
8
0
10
369.000000
20
414.000000
0
VERTEX
8
0
10
373.000000
20
410.000000
0
VERTEX
8
0
10
376.100000
20
409.300000
0
VERTEX
8
0
10
378.000000
20
409.000000
0
SEQEND
0
POLYLINE
8
0
6
CONTINUOUS
66
1
62
7
10
0.0
20
0.0
30
0.000000
0
VERTEX
8
0
10
404.000000
20
409.000000
0
VERTEX
8
0
10
405.100000
20
409.700000
0
VERTEX
8
0
10
407.000000
20
410.000000
0
VERTEX
8
0
10
411.000000
20
414.000000
0
VERTEX
8
0
10
411.000000
20
421.000000
0
VERTEX
8
0
10
406.100000
20
425.200000
0
VERTEX
8
0
10
405.000000
20
426.000000
0
VERTEX
8
0
10
400.900000
20
425.300000
0
VERTEX
8
0
10
399.000000
20
425.000000
0
VERTEX
8
0
10
395.000000
20
420.000000
0
VERTEX
8
0
10
396.000000
20
413.000000
0
VERTEX
8
0
10
399.000000
20
410.000000
0
VERTEX
8
0
10
402.100000
20
409.300000
0
VERTEX
8
0
10
404.000000
20
409.000000
0
SEQEND
0
POLYLINE
8
0
6
CONTINUOUS
66
1
62
7
10
0.0
20
0.0
30
0.000000
0
VERTEX
8
0
10
432.000000
20
409.000000
0
VERTEX
8
0
10
438.000000
20
416.000000
0
VERTEX
8
0
10
437.000000
20
421.000000
0
VERTEX
8
0
10
431.000000
20
426.000000
0
VERTEX
8
0
10
425.000000
20
425.000000
0
VERTEX
8
0
10
421.000000
20
420.000000
0
VERTEX
8
0
10
421.000000
20
415.000000
0
VERTEX
8
0
10
423.000000
20
412.000000
0
VERTEX
8
0
10
427.188679
20
409.660377
0
VERTEX
8
0
10
432.000000
20
409.000000
0
SEQEND
0
POLYLINE
8
0
6
CONTINUOUS
66
1
62
7
10
0.0
20
0.0
30
0.000000
0
VERTEX
8
0
10
457.000000
20
409.000000
0
VERTEX
8
0
10
460.000000
20
410.000000
0
VERTEX
8
0
10
463.200000
20
413.900000
0
VERTEX
8
0
10
464.000000
20
415.000000
0
VERTEX
8
0
10
464.000000
20
420.000000
0
VERTEX
8
0
10
463.000000
20
422.000000
0
VERTEX
8
0
10
460.000000
20
425.000000
0
VERTEX
8
0
10
457.000000
20
426.000000
0
VERTEX
8
0
10
451.000000
20
425.000000
0
VERTEX
8
0
10
449.000000
20
423.000000
0
VERTEX
8
0
10
447.000000
20
418.000000
0
VERTEX
8
0
10
447.700000
20
415.900000
0
VERTEX
8
0
10
448.000000
20
414.000000
0
VERTEX
8
0
10
452.000000
20
410.000000
0
VERTEX
8
0
10
455.100000
20
409.300000
0
VERTEX
8
0
10
457.000000
20
409.000000
0
SEQEND
0
POLYLINE
8
0
6
CONTINUOUS
66
1
62
7
10
0.0
20
0.0
30
0.000000
0
VERTEX
8
0
10
484.000000
20
409.000000
0
VERTEX
8
0
10
486.000000
20
410.000000
0
VERTEX
8
0
10
490.000000
20
415.000000
0
VERTEX
8
0
10
489.000000
20
422.000000
0
VERTEX
8
0
10
486.000000
20
425.000000
0
VERTEX
8
0
10
480.000000
20
426.000000
0
VERTEX
8
0
10
474.000000
20
421.000000
0
VERTEX
8
0
10
474.000000
20
414.000000
0
VERTEX
8
0
10
479.000000
20
409.000000
0
VERTEX
8
0
10
484.000000
20
409.000000
0
SEQEND
0
POLYLINE
8
0
6
CONTINUOUS
66
1
62
7
10
0.0
20
0.0
30
0.000000
0
VERTEX
8
0
10
235.000000
20
383.000000
0
VERTEX
8
0
10
240.000000
20
387.000000
0
VERTEX
8
0
10
240.352941
20
392.088235
0
VERTEX
8
0
10
240.000000
20
395.000000
0
VERTEX
8
0
10
236.000000
20
399.000000
0
VERTEX
8
0
10
229.000000
20
399.000000
0
VERTEX
8
0
10
225.000000
20
396.000000
0
VERTEX
8
0
10
224.000000
20
389.000000
0
VERTEX
8
0
10
228.000000
20
384.000000
0
VERTEX
8
0
10
235.000000
20
383.000000
0
SEQEND
0
POLYLINE
8
0
6
CONTINUOUS
66
1
62
7
10
0.0
20
0.0
30
0.000000
0
VERTEX
8
0
10
261.000000
20
383.000000
0
VERTEX
8
0
10
264.000000
20
384.000000
0
VERTEX
8
0
10
266.000000
20
386.000000
0
VERTEX
8
0
10
267.000000
20
394.000000
0
VERTEX
8
0
10
263.000000
20
399.000000
0
VERTEX
8
0
10
255.000000
20
399.000000
0
VERTEX
8
0
10
251.000000
20
395.000000
0
VERTEX
8
0
10
251.000000
20
387.000000
0
VERTEX
8
0
10
254.900000
20
383.800000
0
VERTEX
8
0
10
261.000000
20
383.000000
0
SEQEND
0
POLYLINE
8
0
6
CONTINUOUS
66
1
62
7
10
0.0
20
0.0
30
0.000000
0
VERTEX
8
0
10
287.000000
20
383.000000
0
VERTEX
8
0
10
293.000000
20
388.000000
0
VERTEX
8
0
10
293.000000
20
394.000000
0
VERTEX
8
0
10
289.000000
20
399.000000
0
VERTEX
8
0
10
284.000000
20
400.000000
0
VERTEX
8
0
10
282.900000
20
399.300000
0
VERTEX
8
0
10
281.000000
20
399.000000
0
VERTEX
8
0
10
277.000000
20
394.000000
0
VERTEX
8
0
10
277.000000
20
389.000000
0
VERTEX
8
0
10
279.000000
20
385.000000
0
VERTEX
8
0
10
287.000000
20
383.000000
0
SEQEND
0
POLYLINE
8
0
6
CONTINUOUS
66
1
62
7
10
0.0
20
0.0
30
0.000000
0
VERTEX
8
0
10
314.000000
20
383.000000
0
VERTEX
8
0
10
320.000000
20
390.000000
0
VERTEX
8
0
10
319.000000
20
395.000000
0
VERTEX
8
0
10
313.000000
20
400.000000
0
VERTEX
8
0
10
310.000000
20
400.000000
0
VERTEX
8
0
10
306.000000
20
398.000000
0
VERTEX
8
0
10
303.000000
20
394.000000
0
VERTEX
8
0
10
303.000000
20
389.000000
0
VERTEX
8
0
10
305.000000
20
386.000000
0
VERTEX
8
0
10
309.188679
20
383.660377
0
VERTEX
8
0
10
314.000000
20
383.000000
0
SEQEND
0
POLYLINE
8
0
6
CONTINUOUS
66
1
62
7
10
0.0
20
0.0
30
0.000000
0
VERTEX
8
0
10
340.000000
20
383.000000
0
VERTEX
8
0
10
343.000000
20
384.000000
0
VERTEX
8
0
10
346.000000
20
389.000000
0
VERTEX
8
0
10
346.000000
20
394.000000
0
VERTEX
8
0
10
344.000000
20
397.000000
0
VERTEX
8
0
10
342.000000
20
399.000000
0
VERTEX
8
0
10
334.000000
20
399.000000
0
VERTEX
8
0
10
330.000000
20
395.000000
0
VERTEX
8
0
10
329.000000
20
392.000000
0
VERTEX
8
0
10
330.000000
20
387.000000
0
VERTEX
8
0
10
333.000000
20
384.000000
0
VERTEX
8
0
10
335.067568
20
383.405405
0
VERTEX
8
0
10
340.000000
20
383.000000
0
SEQEND
0
POLYLINE
8
0
6
CONTINUOUS
66
1
62
7
10
0.0
20
0.0
30
0.000000
0
VERTEX
8
0
10
367.000000
20
383.000000
0
VERTEX
8
0
10
372.000000
20
389.000000
0
VERTEX
8
0
10
372.000000
20
394.000000
0
VERTEX
8
0
10
368.000000
20
399.000000
0
VERTEX
8
0
10
360.000000
20
399.000000
0
VERTEX
8
0
10
356.000000
20
395.000000
0
VERTEX
8
0
10
355.647059
20
389.911765
0
VERTEX
8
0
10
356.000000
20
387.000000
0
VERTEX
8
0
10
359.000000
20
384.000000
0
VERTEX
8
0
10
361.060000
20
383.420000
0
VERTEX
8
0
10
367.000000
20
383.000000
0
SEQEND
0
POLYLINE
8
0
6
CONTINUOUS
66
1
62
7
10
0.0
20
0.0
30
0.000000
0
VERTEX
8
0
10
393.000000
20
383.000000
0
VERTEX
8
0
10
398.000000
20
387.000000
0
VERTEX
8
0
10
398.000000
20
395.000000
0
VERTEX
8
0
10
394.000000
20
399.000000
0
VERTEX
8
0
10
387.000000
20
399.000000
0
VERTEX
8
0
10
384.000000
20
397.000000
0
VERTEX
8
0
10
382.700000
20
394.100000
0
VERTEX
8
0
10
382.000000
20
393.000000
0
VERTEX
8
0
10
382.000000
20
388.000000
0
VERTEX
8
0
10
385.000000
20
384.000000
0
VERTEX
8
0
10
393.000000
20
383.000000
0
SEQEND
0
POLYLINE
8
0
6
CONTINUOUS
66
1
62
7
10
0.0
20
0.0
30
0.000000
0
VERTEX
8
0
10
418.000000
20
383.000000
0
VERTEX
8
0
10
422.000000
20
385.000000
0
VERTEX
8
0
10
422.230769
20
385.846154
0
VERTEX
8
0
10
424.000000
20
388.000000
0
VERTEX
8
0
10
424.000000
20
395.000000
0
VERTEX
8
0
10
419.100000
20
399.200000
0
VERTEX
8
0
10
418.000000
20
400.000000
0
VERTEX
8
0
10
412.000000
20
399.000000
0
VERTEX
8
0
10
408.000000
20
394.000000
0
VERTEX
8
0
10
409.000000
20
386.000000
0
VERTEX
8
0
10
414.200000
20
383.600000
0
VERTEX
8
0
10
418.000000
20
383.000000
0
SEQEND
0
POLYLINE
8
0
6
CONTINUOUS
66
1
62
7
10
0.0
20
0.0
30
0.000000
0
VERTEX
8
0
10
445.000000
20
383.000000
0
VERTEX
8
0
10
448.000000
20
384.000000
0
VERTEX
8
0
10
449.400000
20
386.800000
0
VERTEX
8
0
10
451.000000
20
389.000000
0
VERTEX
8
0
10
451.000000
20
394.000000
0
VERTEX
8
0
10
449.000000
20
397.000000
0
VERTEX
8
0
10
447.000000
20
399.000000
0
VERTEX
8
0
10
443.000000
20
400.000000
0
VERTEX
8
0
10
440.900000
20
399.300000
0
VERTEX
8
0
10
439.000000
20
399.000000
0
VERTEX
8
0
10
434.800000
20
394.100000
0
VERTEX
8
0
10
434.000000
20
393.000000
0
VERTEX
8
0
10
435.000000
20
387.000000
0
VERTEX
8
0
10
438.000000
20
384.000000
0
VERTEX
8
0
10
440.067568
20
383.405405
0
VERTEX
8
0
10
445.000000
20
383.000000
0
SEQEND
0
POLYLINE
8
0
6
CONTINUOUS
66
1
62
7
10
0.0
20
0.0
30
0.000000
0
VERTEX
8
0
10
471.000000
20
383.000000
0
VERTEX
8
0
10
474.000000
20
384.000000
0
VERTEX
8
0
10
477.000000
20
389.000000
0
VERTEX
8
0
10
477.000000
20
394.000000
0
VERTEX
8
0
10
475.000000
20
397.000000
0
VERTEX
8
0
10
473.000000
20
399.000000
0
VERTEX
8
0
10
465.000000
20
399.000000
0
VERTEX
8
0
10
460.800000
20
394.100000
0
VERTEX
8
0
10
460.000000
20
393.000000
0
VERTEX
8
0
10
461.000000
20
387.000000
0
VERTEX
8
0
10
464.000000
20
384.000000
0
VERTEX
8
0
10
466.067568
20
383.405405
0
VERTEX
8
0
10
471.000000
20
383.000000
0
SEQEND
0
POLYLINE
8
0
6
CONTINUOUS
66
1
62
7
10
0.0
20
0.0
30
0.000000
0
VERTEX
8
0
10
248.000000
20
357.000000
0
VERTEX
8
0
10
250.000000
20
358.000000
0
VERTEX
8
0
10
254.000000
20
363.000000
0
VERTEX
8
0
10
254.000000
20
368.000000
0
VERTEX
8
0
10
249.000000
20
373.000000
0
VERTEX
8
0
10
242.000000
20
373.000000
0
VERTEX
8
0
10
237.800000
20
368.100000
0
VERTEX
8
0
10
237.000000
20
367.000000
0
VERTEX
8
0
10
237.700000
20
362.900000
0
VERTEX
8
0
10
238.000000
20
361.000000
0
VERTEX
8
0
10
241.000000
20
358.000000
0
VERTEX
8
0
10
243.067568
20
357.405405
0
VERTEX
8
0
10
248.000000
20
357.000000
0
SEQEND
0
POLYLINE
8
0
6
CONTINUOUS
66
1
62
7
10
0.0
20
0.0
30
0.000000
0
VERTEX
8
0
10
274.000000
20
357.000000
0
VERTEX
8
0
10
277.000000
20
358.000000
0
VERTEX
8
0
10
279.000000
20
360.000000
0
VERTEX
8
0
10
280.000000
20
368.000000
0
VERTEX
8
0
10
275.000000
20
373.000000
0
VERTEX
8
0
10
268.000000
20
373.000000
0
VERTEX
8
0
10
264.000000
20
369.000000
0
VERTEX
8
0
10
264.000000
20
361.000000
0
VERTEX
8
0
10
267.000000
20
358.000000
0
VERTEX
8
0
10
274.000000
20
357.000000
0
SEQEND
0
POLYLINE
8
0
6
CONTINUOUS
66
1
62
7
10
0.0
20
0.0
30
0.000000
0
VERTEX
8
0
10
302.000000
20
357.000000
0
VERTEX
8
0
10
306.000000
20
362.000000
0
VERTEX
8
0
10
305.000000
20
370.000000
0
VERTEX
8
0
10
301.000000
20
373.000000
0
VERTEX
8
0
10
295.000000
20
373.000000
0
VERTEX
8
0
10
291.000000
20
370.000000
0
VERTEX
8
0
10
290.800000
20
369.100000
0
VERTEX
8
0
10
290.000000
20
368.000000
0
VERTEX
8
0
10
290.000000
20
362.000000
0
VERTEX
8
0
10
294.000000
20
357.000000
0
VERTEX
8
0
10
302.000000
20
357.000000
0
SEQEND
0
POLYLINE
8
0
6
CONTINUOUS
66
1
62
7
10
0.0
20
0.0
30
0.000000
0
VERTEX
8
0
10
327.000000
20
357.000000
0
VERTEX
8
0
10
332.000000
20
361.000000
0
VERTEX
8
0
10
333.000000
20
364.000000
0
VERTEX
8
0
10
332.300000
20
367.100000
0
VERTEX
8
0
10
332.000000
20
369.000000
0
VERTEX
8
0
10
328.000000
20
373.000000
0
VERTEX
8
0
10
321.000000
20
373.000000
0
VERTEX
8
0
10
316.000000
20
368.000000
0
VERTEX
8
0
10
316.000000
20
362.000000
0
VERTEX
8
0
10
320.000000
20
358.000000
0
VERTEX
8
0
10
322.067568
20
357.405405
0
VERTEX
8
0
10
327.000000
20
357.000000
0
SEQEND
0
POLYLINE
8
0
6
CONTINUOUS
66
1
62
7
10
0.0
20
0.0
30
0.000000
0
VERTEX
8
0
10
353.000000
20
357.000000
0
VERTEX
8
0
10
356.000000
20
358.000000
0
VERTEX
8
0
10
359.000000
20
363.000000
0
VERTEX
8
0
10
359.000000
20
368.000000
0
VERTEX
8
0
10
357.000000
20
371.000000
0
VERTEX
8
0
10
355.000000
20
373.000000
0
VERTEX
8
0
10
347.000000
20
373.000000
0
VERTEX
8
0
10
343.000000
20
369.000000
0
VERTEX
8
0
10
342.000000
20
366.000000
0
VERTEX
8
0
10
343.000000
20
361.000000
0
VERTEX
8
0
10
346.000000
20
358.000000
0
VERTEX
8
0
10
348.067568
20
357.405405
0
VERTEX
8
0
10
353.000000
20
357.000000
0
SEQEND
0
POLYLINE
8
0
6
CONTINUOUS
66
1
62
7
10
0.0
20
0.0
30
0.000000
0
VERTEX
8
0
10
379.000000
20
357.000000
0
VERTEX
8
0
10
384.000000
20
360.000000
0
VERTEX
8
0
10
385.000000
20
368.000000
0
VERTEX
8
0
10
381.000000
20
373.000000
0
VERTEX
8
0
10
373.000000
20
373.000000
0
VERTEX
8
0
10
369.000000
20
368.000000
0
VERTEX
8
0
10
369.000000
20
362.000000
0
VERTEX
8
0
10
370.000000
20
360.000000
0
VERTEX
8
0
10
372.000000
20
358.000000
0
VERTEX
8
0
10
375.076923
20
357.384615
0
VERTEX
8
0
10
379.000000
20
357.000000
0
SEQEND
0
POLYLINE
8
0
6
CONTINUOUS
66
1
62
7
10
0.0
20
0.0
30
0.000000
0
VERTEX
8
0
10
407.000000
20
357.000000
0
VERTEX
8
0
10
411.000000
20
361.000000
0
VERTEX
8
0
10
411.000000
20
369.000000
0
VERTEX
8
0
10
407.100000
20
372.200000
0
VERTEX
8
0
10
406.000000
20
373.000000
0
VERTEX
8
0
10
400.000000
20
373.000000
0
VERTEX
8
0
10
396.000000
20
370.000000
0
VERTEX
8
0
10
395.800000
20
369.100000
0
VERTEX
8
0
10
395.000000
20
368.000000
0
VERTEX
8
0
10
395.000000
20
362.000000
0
VERTEX
8
0
10
396.000000
20
360.000000
0
VERTEX
8
0
10
399.000000
20
357.000000
0
VERTEX
8
0
10
407.000000
20
357.000000
0
SEQEND
0
POLYLINE
8
0
6
CONTINUOUS
66
1
62
7
10
0.0
20
0.0
30
0.000000
0
VERTEX
8
0
10
432.000000
20
357.000000
0
VERTEX
8
0
10
434.000000
20
358.000000
0
VERTEX
8
0
10
437.200000
20
361.900000
0
VERTEX
8
0
10
438.000000
20
363.000000
0
VERTEX
8
0
10
438.000000
20
367.000000
0
VERTEX
8
0
10
435.000000
20
372.000000
0
VERTEX
8
0
10
427.000000
20
373.000000
0
VERTEX
8
0
10
425.000000
20
372.000000
0
VERTEX
8
0
10
422.000000
20
369.000000
0
VERTEX
8
0
10
421.000000
20
366.000000
0
VERTEX
8
0
10
421.700000
20
362.900000
0
VERTEX
8
0
10
422.000000
20
361.000000
0
VERTEX
8
0
10
425.000000
20
358.000000
0
VERTEX
8
0
10
427.067568
20
357.405405
0
VERTEX
8
0
10
432.000000
20
357.000000
0
SEQEND
0
POLYLINE
8
0
6
CONTINUOUS
66
1
62
7
10
0.0
20
0.0
30
0.000000
0
VERTEX
8
0
10
459.000000
20
357.000000
0
VERTEX
8
0
10
463.000000
20
360.000000
0
VERTEX
8
0
10
464.000000
20
367.000000
0
VERTEX
8
0
10
461.000000
20
372.000000
0
VERTEX
8
0
10
453.000000
20
373.000000
0
VERTEX
8
0
10
448.000000
20
369.000000
0
VERTEX
8
0
10
447.647059
20
363.911765
0
VERTEX
8
0
10
448.000000
20
361.000000
0
VERTEX
8
0
10
452.000000
20
357.000000
0
VERTEX
8
0
10
459.000000
20
357.000000
0
SEQEND
0
POLYLINE
8
0
6
CONTINUOUS
66
1
62
7
10
0.0
20
0.0
30
0.000000
0
VERTEX
8
0
10
446.000000
20
331.000000
0
VERTEX
8
0
10
449.000000
20
333.000000
0
VERTEX
8
0
10
449.230769
20
333.846154
0
VERTEX
8
0
10
451.000000
20
336.000000
0
VERTEX
8
0
10
451.000000
20
341.000000
0
VERTEX
8
0
10
449.000000
20
345.000000
0
VERTEX
8
0
10
445.000000
20
347.000000
0
VERTEX
8
0
10
438.000000
20
346.000000
0
VERTEX
8
0
10
435.000000
20
343.000000
0
VERTEX
8
0
10
434.000000
20
337.000000
0
VERTEX
8
0
10
439.000000
20
331.000000
0
VERTEX
8
0
10
446.000000
20
331.000000
0
SEQEND
0
POLYLINE
8
0
6
CONTINUOUS
66
1
62
7
10
0.0
20
0.0
30
0.000000
0
VERTEX
8
0
10
233.000000
20
330.000000
0
VERTEX
8
0
10
234.100000
20
330.700000
0
VERTEX
8
0
10
236.000000
20
331.000000
0
VERTEX
8
0
10
240.000000
20
335.000000
0
VERTEX
8
0
10
240.352941
20
337.911765
0
VERTEX
8
0
10
239.000000
20
344.000000
0
VERTEX
8
0
10
235.000000
20
347.000000
0
VERTEX
8
0
10
230.000000
20
347.000000
0
VERTEX
8
0
10
226.000000
20
345.000000
0
VERTEX
8
0
10
224.000000
20
341.000000
0
VERTEX
8
0
10
224.000000
20
336.000000
0
VERTEX
8
0
10
227.000000
20
332.000000
0
VERTEX
8
0
10
233.000000
20
330.000000
0
SEQEND
0
POLYLINE
8
0
6
CONTINUOUS
66
1
62
7
10
0.0
20
0.0
30
0.000000
0
VERTEX
8
0
10
260.000000
20
330.000000
0
VERTEX
8
0
10
264.000000
20
332.000000
0
VERTEX
8
0
10
267.000000
20
336.000000
0
VERTEX
8
0
10
267.000000
20
341.000000
0
VERTEX
8
0
10
265.000000
20
345.000000
0
VERTEX
8
0
10
264.100000
20
345.200000
0
VERTEX
8
0
10
261.000000
20
347.000000
0
VERTEX
8
0
10
256.000000
20
347.000000
0
VERTEX
8
0
10
253.000000
20
345.000000
0
VERTEX
8
0
10
251.000000
20
343.000000
0
VERTEX
8
0
10
250.647059
20
337.911765
0
VERTEX
8
0
10
251.000000
20
335.000000
0
VERTEX
8
0
10
255.000000
20
331.000000
0
VERTEX
8
0
10
258.100000
20
330.300000
0
VERTEX
8
0
10
260.000000
20
330.000000
0
SEQEND
0
POLYLINE
8
0
6
CONTINUOUS
66
1
62
7
10
0.0
20
0.0
30
0.000000
0
VERTEX
8
0
10
285.000000
20
330.000000
0
VERTEX
8
0
10
289.000000
20
331.000000
0
VERTEX
8
0
10
293.000000
20
336.000000
0
VERTEX
8
0
10
292.000000
20
344.000000
0
VERTEX
8
0
10
288.000000
20
347.000000
0
VERTEX
8
0
10
282.000000
20
347.000000
0
VERTEX
8
0
10
280.000000
20
346.000000
0
VERTEX
8
0
10
277.000000
20
343.000000
0
VERTEX
8
0
10
277.000000
20
335.000000
0
VERTEX
8
0
10
281.000000
20
331.000000
0
VERTEX
8
0
10
285.000000
20
330.000000
0
SEQEND
0
POLYLINE
8
0
6
CONTINUOUS
66
1
62
7
10
0.0
20
0.0
30
0.000000
0
VERTEX
8
0
10
311.000000
20
330.000000
0
VERTEX
8
0
10
312.088235
20
330.647059
0
VERTEX
8
0
10
315.000000
20
331.000000
0
VERTEX
8
0
10
319.000000
20
335.000000
0
VERTEX
8
0
10
319.352941
20
337.911765
0
VERTEX
8
0
10
318.200000
20
343.100000
0
VERTEX
8
0
10
318.000000
20
344.000000
0
VERTEX
8
0
10
315.100000
20
346.200000
0
VERTEX
8
0
10
314.000000
20
347.000000
0
VERTEX
8
0
10
309.000000
20
347.000000
0
VERTEX
8
0
10
306.000000
20
346.000000
0
VERTEX
8
0
10
304.000000
20
344.000000
0
VERTEX
8
0
10
303.000000
20
341.000000
0
VERTEX
8
0
10
304.000000
20
334.000000
0
VERTEX
8
0
10
306.000000
20
332.000000
0
VERTEX
8
0
10
311.000000
20
330.000000
0
SEQEND
0
POLYLINE
8
0
6
CONTINUOUS
66
1
62
7
10
0.0
20
0.0
30
0.000000
0
VERTEX
8
0
10
339.000000
20
330.000000
0
VERTEX
8
0
10
346.000000
20
336.000000
0
VERTEX
8
0
10
346.000000
20
341.000000
0
VERTEX
8
0
10
343.000000
20
345.000000
0
VERTEX
8
0
10
342.153846
20
345.230769
0
VERTEX
8
0
10
340.000000
20
347.000000
0
VERTEX
8
0
10
335.000000
20
347.000000
0
VERTEX
8
0
10
331.000000
20
344.000000
0
VERTEX
8
0
10
329.000000
20
340.000000
0
VERTEX
8
0
10
330.000000
20
335.000000
0
VERTEX
8
0
10
334.000000
20
331.000000
0
VERTEX
8
0
10
336.088235
20
330.352941
0
VERTEX
8
0
10
339.000000
20
330.000000
0
SEQEND
0
POLYLINE
8
0
6
CONTINUOUS
66
1
62
7
10
0.0
20
0.0
30
0.000000
0
VERTEX
8
0
10
365.000000
20
330.000000
0
VERTEX
8
0
10
372.000000
20
336.000000
0
VERTEX
8
0
10
372.000000
20
341.000000
0
VERTEX
8
0
10
366.000000
20
347.000000
0
VERTEX
8
0
10
361.000000
20
347.000000
0
VERTEX
8
0
10
358.000000
20
345.000000
0
VERTEX
8
0
10
355.800000
20
341.100000
0
VERTEX
8
0
10
355.000000
20
340.000000
0
VERTEX
8
0
10
355.000000
20
337.000000
0
VERTEX
8
0
10
360.000000
20
331.000000
0
VERTEX
8
0
10
365.000000
20
330.000000
0
SEQEND
0
POLYLINE
8
0
6
CONTINUOUS
66
1
62
7
10
0.0
20
0.0
30
0.000000
0
VERTEX
8
0
10
390.000000
20
330.000000
0
VERTEX
8
0
10
391.088235
20
330.647059
0
VERTEX
8
0
10
394.000000
20
331.000000
0
VERTEX
8
0
10
398.000000
20
335.000000
0
VERTEX
8
0
10
398.352941
20
337.911765
0
VERTEX
8
0
10
397.200000
20
343.100000
0
VERTEX
8
0
10
397.000000
20
344.000000
0
VERTEX
8
0
10
394.100000
20
346.200000
0
VERTEX
8
0
10
393.000000
20
347.000000
0
VERTEX
8
0
10
388.000000
20
347.000000
0
VERTEX
8
0
10
385.000000
20
346.000000
0
VERTEX
8
0
10
383.000000
20
344.000000
0
VERTEX
8
0
10
382.000000
20
341.000000
0
VERTEX
8
0
10
383.000000
20
334.000000
0
VERTEX
8
0
10
385.000000
20
332.000000
0
VERTEX
8
0
10
390.000000
20
330.000000
0
SEQEND
0
POLYLINE
8
0
6
CONTINUOUS
66
1
62
7
10
0.0
20
0.0
30
0.000000
0
VERTEX
8
0
10
416.000000
20
330.000000
0
VERTEX
8
0
10
417.088235
20
330.647059
0
VERTEX
8
0
10
420.000000
20
331.000000
0
VERTEX
8
0
10
424.000000
20
335.000000
0
VERTEX
8
0
10
424.000000
20
342.000000
0
VERTEX
8
0
10
423.000000
20
344.000000
0
VERTEX
8
0
10
419.000000
20
347.000000
0
VERTEX
8
0
10
413.000000
20
347.000000
0
VERTEX
8
0
10
411.000000
20
346.000000
0
VERTEX
8
0
10
408.000000
20
341.000000
0
VERTEX
8
0
10
409.000000
20
334.000000
0
VERTEX
8
0
10
412.000000
20
331.000000
0
VERTEX
8
0
10
416.000000
20
330.000000
0
SEQEND
0
POLYLINE
8
0
6
CONTINUOUS
66
1
62
7
10
0.0
20
0.0
30
0.000000
0
VERTEX
8
0
10
469.000000
20
330.000000
0
VERTEX
8
0
10
473.000000
20
331.000000
0
VERTEX
8
0
10
477.000000
20
336.000000
0
VERTEX
8
0
10
476.000000
20
344.000000
0
VERTEX
8
0
10
472.000000
20
347.000000
0
VERTEX
8
0
10
466.000000
20
347.000000
0
VERTEX
8
0
10
464.000000
20
346.000000
0
VERTEX
8
0
10
461.000000
20
343.000000
0
VERTEX
8
0
10
461.000000
20
335.000000
0
VERTEX
8
0
10
465.000000
20
331.000000
0
VERTEX
8
0
10
469.000000
20
330.000000
0
SEQEND
0
POLYLINE
8
0
6
CONTINUOUS
66
1
62
7
10
0.0
20
0.0
30
0.000000
0
VERTEX
8
0
10
221.000000
20
304.000000
0
VERTEX
8
0
10
223.000000
20
305.000000
0
VERTEX
8
0
10
227.200000
20
309.900000
0
VERTEX
8
0
10
228.000000
20
311.000000
0
VERTEX
8
0
10
228.000000
20
314.000000
0
VERTEX
8
0
10
227.000000
20
316.000000
0
VERTEX
8
0
10
222.100000
20
320.200000
0
VERTEX
8
0
10
221.000000
20
321.000000
0
VERTEX
8
0
10
218.000000
20
321.000000
0
VERTEX
8
0
10
216.100000
20
319.800000
0
VERTEX
8
0
10
214.000000
20
319.000000
0
VERTEX
8
0
10
211.800000
20
316.100000
0
VERTEX
8
0
10
211.000000
20
315.000000
0
VERTEX
8
0
10
211.000000
20
310.000000
0
VERTEX
8
0
10
212.000000
20
308.000000
0
VERTEX
8
0
10
215.900000
20
304.800000
0
VERTEX
8
0
10
221.000000
20
304.000000
0
SEQEND
0
POLYLINE
8
0
6
CONTINUOUS
66
1
62
7
10
0.0
20
0.0
30
0.000000
0
VERTEX
8
0
10
247.000000
20
304.000000
0
VERTEX
8
0
10
254.000000
20
310.000000
0
VERTEX
8
0
10
254.000000
20
315.000000
0
VERTEX
8
0
10
247.000000
20
321.000000
0
VERTEX
8
0
10
244.000000
20
321.000000
0
VERTEX
8
0
10
238.000000
20
316.000000
0
VERTEX
8
0
10
237.000000
20
311.000000
0
VERTEX
8
0
10
242.000000
20
305.000000
0
VERTEX
8
0
10
247.000000
20
304.000000
0
SEQEND
0
POLYLINE
8
0
6
CONTINUOUS
66
1
62
7
10
0.0
20
0.0
30
0.000000
0
VERTEX
8
0
10
274.000000
20
304.000000
0
VERTEX
8
0
10
276.000000
20
305.000000
0
VERTEX
8
0
10
280.000000
20
310.000000
0
VERTEX
8
0
10
279.000000
20
317.000000
0
VERTEX
8
0
10
276.000000
20
320.000000
0
VERTEX
8
0
10
270.000000
20
321.000000
0
VERTEX
8
0
10
264.000000
20
316.000000
0
VERTEX
8
0
10
264.000000
20
309.000000
0
VERTEX
8
0
10
269.000000
20
304.000000
0
VERTEX
8
0
10
274.000000
20
304.000000
0
SEQEND
0
POLYLINE
8
0
6
CONTINUOUS
66
1
62
7
10
0.0
20
0.0
30
0.000000
0
VERTEX
8
0
10
299.000000
20
304.000000
0
VERTEX
8
0
10
300.100000
20
304.700000
0
VERTEX
8
0
10
302.000000
20
305.000000
0
VERTEX
8
0
10
306.000000
20
309.000000
0
VERTEX
8
0
10
306.000000
20
316.000000
0
VERTEX
8
0
10
304.000000
20
319.000000
0
VERTEX
8
0
10
299.000000
20
321.000000
0
VERTEX
8
0
10
294.000000
20
320.000000
0
VERTEX
8
0
10
290.000000
20
315.000000
0
VERTEX
8
0
10
291.000000
20
308.000000
0
VERTEX
8
0
10
294.000000
20
305.000000
0
VERTEX
8
0
10
297.100000
20
304.300000
0
VERTEX
8
0
10
299.000000
20
304.000000
0
SEQEND
0
POLYLINE
8
0
6
CONTINUOUS
66
1
62
7
10
0.0
20
0.0
30
0.000000
0
VERTEX
8
0
10
326.000000
20
304.000000
0
VERTEX
8
0
10
328.000000
20
305.000000
0
VERTEX
8
0
10
333.000000
20
311.000000
0
VERTEX
8
0
10
332.000000
20
316.000000
0
VERTEX
8
0
10
326.000000
20
321.000000
0
VERTEX
8
0
10
321.000000
20
320.000000
0
VERTEX
8
0
10
316.000000
20
315.000000
0
VERTEX
8
0
10
316.000000
20
310.000000
0
VERTEX
8
0
10
321.000000
20
305.000000
0
VERTEX
8
0
10
323.088235
20
304.352941
0
VERTEX
8
0
10
326.000000
20
304.000000
0
SEQEND
0
POLYLINE
8
0
6
CONTINUOUS
66
1
62
7
10
0.0
20
0.0
30
0.000000
0
VERTEX
8
0
10
352.000000
20
304.000000
0
VERTEX
8
0
10
359.000000
20
310.000000
0
VERTEX
8
0
10
359.000000
20
315.000000
0
VERTEX
8
0
10
352.000000
20
321.000000
0
VERTEX
8
0
10
349.000000
20
321.000000
0
VERTEX
8
0
10
343.000000
20
316.000000
0
VERTEX
8
0
10
342.000000
20
311.000000
0
VERTEX
8
0
10
347.000000
20
305.000000
0
VERTEX
8
0
10
352.000000
20
304.000000
0
SEQEND
0
POLYLINE
8
0
6
CONTINUOUS
66
1
62
7
10
0.0
20
0.0
30
0.000000
0
VERTEX
8
0
10
378.000000
20
304.000000
0
VERTEX
8
0
10
381.000000
20
305.000000
0
VERTEX
8
0
10
384.200000
20
308.900000
0
VERTEX
8
0
10
385.000000
20
310.000000
0
VERTEX
8
0
10
385.000000
20
315.000000
0
VERTEX
8
0
10
384.000000
20
317.000000
0
VERTEX
8
0
10
381.000000
20
320.000000
0
VERTEX
8
0
10
378.000000
20
321.000000
0
VERTEX
8
0
10
374.900000
20
320.300000
0
VERTEX
8
0
10
373.000000
20
320.000000
0
VERTEX
8
0
10
369.800000
20
316.100000
0
VERTEX
8
0
10
369.000000
20
315.000000
0
VERTEX
8
0
10
370.000000
20
308.000000
0
VERTEX
8
0
10
373.000000
20
305.000000
0
VERTEX
8
0
10
376.100000
20
304.300000
0
VERTEX
8
0
10
378.000000
20
304.000000
0
SEQEND
0
POLYLINE
8
0
6
CONTINUOUS
66
1
62
7
10
0.0
20
0.0
30
0.000000
0
VERTEX
8
0
10
404.000000
20
304.000000
0
VERTEX
8
0
10
405.100000
20
304.700000
0
VERTEX
8
0
10
407.000000
20
305.000000
0
VERTEX
8
0
10
411.000000
20
309.000000
0
VERTEX
8
0
10
411.000000
20
316.000000
0
VERTEX
8
0
10
406.100000
20
320.200000
0
VERTEX
8
0
10
405.000000
20
321.000000
0
VERTEX
8
0
10
400.900000
20
320.300000
0
VERTEX
8
0
10
399.000000
20
320.000000
0
VERTEX
8
0
10
395.000000
20
315.000000
0
VERTEX
8
0
10
396.000000
20
308.000000
0
VERTEX
8
0
10
399.000000
20
305.000000
0
VERTEX
8
0
10
402.100000
20
304.300000
0
VERTEX
8
0
10
404.000000
20
304.000000
0
SEQEND
0
POLYLINE
8
0
6
CONTINUOUS
66
1
62
7
10
0.0
20
0.0
30
0.000000
0
VERTEX
8
0
10
431.000000
20
304.000000
0
VERTEX
8
0
10
433.000000
20
305.000000
0
VERTEX
8
0
10
438.000000
20
311.000000
0
VERTEX
8
0
10
437.000000
20
316.000000
0
VERTEX
8
0
10
431.000000
20
321.000000
0
VERTEX
8
0
10
426.000000
20
320.000000
0
VERTEX
8
0
10
421.000000
20
315.000000
0
VERTEX
8
0
10
421.000000
20
310.000000
0
VERTEX
8
0
10
426.000000
20
305.000000
0
VERTEX
8
0
10
428.088235
20
304.352941
0
VERTEX
8
0
10
431.000000
20
304.000000
0
SEQEND
0
POLYLINE
8
0
6
CONTINUOUS
66
1
62
7
10
0.0
20
0.0
30
0.000000
0
VERTEX
8
0
10
457.000000
20
304.000000
0
VERTEX
8
0
10
461.000000
20
306.000000
0
VERTEX
8
0
10
464.000000
20
310.000000
0
VERTEX
8
0
10
463.000000
20
317.000000
0
VERTEX
8
0
10
460.000000
20
320.000000
0
VERTEX
8
0
10
454.000000
20
321.000000
0
VERTEX
8
0
10
452.000000
20
320.000000
0
VERTEX
8
0
10
448.000000
20
316.000000
0
VERTEX
8
0
10
447.000000
20
313.000000
0
VERTEX
8
0
10
447.700000
20
310.900000
0
VERTEX
8
0
10
448.000000
20
309.000000
0
VERTEX
8
0
10
452.000000
20
305.000000
0
VERTEX
8
0
10
455.100000
20
304.300000
0
VERTEX
8
0
10
457.000000
20
304.000000
0
SEQEND
0
POLYLINE
8
0
6
CONTINUOUS
66
1
62
7
10
0.0
20
0.0
30
0.000000
0
VERTEX
8
0
10
485.000000
20
304.000000
0
VERTEX
8
0
10
490.000000
20
309.000000
0
VERTEX
8
0
10
490.000000
20
316.000000
0
VERTEX
8
0
10
484.000000
20
321.000000
0
VERTEX
8
0
10
478.000000
20
320.000000
0
VERTEX
8
0
10
474.800000
20
316.100000
0
VERTEX
8
0
10
474.000000
20
315.000000
0
VERTEX
8
0
10
474.000000
20
310.000000
0
VERTEX
8
0
10
478.000000
20
305.000000
0
VERTEX
8
0
10
485.000000
20
304.000000
0
SEQEND
0
POLYLINE
8
0
6
CONTINUOUS
66
1
62
7
10
0.0
20
0.0
30
0.000000
0
VERTEX
8
0
10
209.000000
20
278.000000
0
VERTEX
8
0
10
211.000000
20
279.000000
0
VERTEX
8
0
10
214.200000
20
282.900000
0
VERTEX
8
0
10
215.000000
20
284.000000
0
VERTEX
8
0
10
215.000000
20
289.000000
0
VERTEX
8
0
10
210.000000
20
294.000000
0
VERTEX
8
0
10
208.100000
20
294.300000
0
VERTEX
8
0
10
201.900000
20
293.200000
0
VERTEX
8
0
10
201.000000
20
293.000000
0
VERTEX
8
0
10
199.800000
20
291.100000
0
VERTEX
8
0
10
198.000000
20
287.000000
0
VERTEX
8
0
10
200.000000
20
281.000000
0
VERTEX
8
0
10
202.000000
20
279.000000
0
VERTEX
8
0
10
204.067568
20
278.405405
0
VERTEX
8
0
10
209.000000
20
278.000000
0
SEQEND
0
POLYLINE
8
0
6
CONTINUOUS
66
1
62
7
10
0.0
20
0.0
30
0.000000
0
VERTEX
8
0
10
235.000000
20
278.000000
0
VERTEX
8
0
10
239.000000
20
281.000000
0
VERTEX
8
0
10
241.000000
20
287.000000
0
VERTEX
8
0
10
240.300000
20
288.100000
0
VERTEX
8
0
10
240.000000
20
290.000000
0
VERTEX
8
0
10
236.000000
20
294.000000
0
VERTEX
8
0
10
233.000000
20
295.000000
0
VERTEX
8
0
10
229.000000
20
294.000000
0
VERTEX
8
0
10
224.000000
20
289.000000
0
VERTEX
8
0
10
225.000000
20
282.000000
0
VERTEX
8
0
10
227.000000
20
280.000000
0
VERTEX
8
0
10
230.188679
20
278.660377
0
VERTEX
8
0
10
235.000000
20
278.000000
0
SEQEND
0
POLYLINE
8
0
6
CONTINUOUS
66
1
62
7
10
0.0
20
0.0
30
0.000000
0
VERTEX
8
0
10
261.000000
20
278.000000
0
VERTEX
8
0
10
265.000000
20
280.000000
0
VERTEX
8
0
10
266.300000
20
282.900000
0
VERTEX
8
0
10
267.000000
20
284.000000
0
VERTEX
8
0
10
267.000000
20
289.000000
0
VERTEX
8
0
10
266.000000
20
291.000000
0
VERTEX
8
0
10
263.000000
20
294.000000
0
VERTEX
8
0
10
260.000000
20
295.000000
0
VERTEX
8
0
10
257.000000
20
295.000000
0
VERTEX
8
0
10
255.000000
20
294.000000
0
VERTEX
8
0
10
251.000000
20
290.000000
0
VERTEX
8
0
10
250.000000
20
287.000000
0
VERTEX
8
0
10
250.647059
20
284.911765
0
VERTEX
8
0
10
251.000000
20
282.000000
0
VERTEX
8
0
10
253.000000
20
280.000000
0
VERTEX
8
0
10
256.188679
20
278.660377
0
VERTEX
8
0
10
261.000000
20
278.000000
0
SEQEND
0
POLYLINE
8
0
6
CONTINUOUS
66
1
62
7
10
0.0
20
0.0
30
0.000000
0
VERTEX
8
0
10
287.000000
20
278.000000
0
VERTEX
8
0
10
292.000000
20
281.000000
0
VERTEX
8
0
10
293.000000
20
289.000000
0
VERTEX
8
0
10
292.000000
20
291.000000
0
VERTEX
8
0
10
289.000000
20
294.000000
0
VERTEX
8
0
10
286.000000
20
295.000000
0
VERTEX
8
0
10
282.900000
20
294.300000
0
VERTEX
8
0
10
281.000000
20
294.000000
0
VERTEX
8
0
10
277.000000
20
289.000000
0
VERTEX
8
0
10
277.000000
20
284.000000
0
VERTEX
8
0
10
279.000000
20
280.000000
0
VERTEX
8
0
10
287.000000
20
278.000000
0
SEQEND
0
POLYLINE
8
0
6
CONTINUOUS
66
1
62
7
10
0.0
20
0.0
30
0.000000
0
VERTEX
8
0
10
314.000000
20
278.000000
0
VERTEX
8
0
10
319.000000
20
282.000000
0
VERTEX
8
0
10
319.352941
20
287.088235
0
VERTEX
8
0
10
319.000000
20
290.000000
0
VERTEX
8
0
10
315.000000
20
294.000000
0
VERTEX
8
0
10
307.000000
20
294.000000
0
VERTEX
8
0
10
303.800000
20
290.100000
0
VERTEX
8
0
10
303.000000
20
289.000000
0
VERTEX
8
0
10
303.000000
20
283.000000
0
VERTEX
8
0
10
306.000000
20
279.000000
0
VERTEX
8
0
10
314.000000
20
278.000000
0
SEQEND
0
POLYLINE
8
0
6
CONTINUOUS
66
1
62
7
10
0.0
20
0.0
30
0.000000
0
VERTEX
8
0
10
340.000000
20
278.000000
0
VERTEX
8
0
10
343.000000
20
280.000000
0
VERTEX
8
0
10
344.230769
20
281.846154
0
VERTEX
8
0
10
346.000000
20
284.000000
0
VERTEX
8
0
10
346.000000
20
289.000000
0
VERTEX
8
0
10
345.000000
20
291.000000
0
VERTEX
8
0
10
342.100000
20
293.200000
0
VERTEX
8
0
10
340.100000
20
294.200000
0
VERTEX
8
0
10
339.000000
20
295.000000
0
VERTEX
8
0
10
336.000000
20
295.000000
0
VERTEX
8
0
10
330.000000
20
290.000000
0
VERTEX
8
0
10
329.000000
20
288.000000
0
VERTEX
8
0
10
329.700000
20
283.900000
0
VERTEX
8
0
10
330.000000
20
282.000000
0
VERTEX
8
0
10
332.000000
20
280.000000
0
VERTEX
8
0
10
335.188679
20
278.660377
0
VERTEX
8
0
10
340.000000
20
278.000000
0
SEQEND
0
POLYLINE
8
0
6
CONTINUOUS
66
1
62
7
10
0.0
20
0.0
30
0.000000
0
VERTEX
8
0
10
366.000000
20
278.000000
0
VERTEX
8
0
10
370.000000
20
280.000000
0
VERTEX
8
0
10
371.300000
20
282.900000
0
VERTEX
8
0
10
372.000000
20
284.000000
0
VERTEX
8
0
10
372.000000
20
289.000000
0
VERTEX
8
0
10
371.000000
20
291.000000
0
VERTEX
8
0
10
368.000000
20
294.000000
0
VERTEX
8
0
10
365.000000
20
295.000000
0
VERTEX
8
0
10
362.000000
20
295.000000
0
VERTEX
8
0
10
360.000000
20
294.000000
0
VERTEX
8
0
10
356.000000
20
290.000000
0
VERTEX
8
0
10
356.000000
20
282.000000
0
VERTEX
8
0
10
358.000000
20
280.000000
0
VERTEX
8
0
10
361.188679
20
278.660377
0
VERTEX
8
0
10
366.000000
20
278.000000
0
SEQEND
0
POLYLINE
8
0
6
CONTINUOUS
66
1
62
7
10
0.0
20
0.0
30
0.000000
0
VERTEX
8
0
10
393.000000
20
278.000000
0
VERTEX
8
0
10
397.000000
20
281.000000
0
VERTEX
8
0
10
398.500000
20
286.000000
0
VERTEX
8
0
10
398.352941
20
287.088235
0
VERTEX
8
0
10
398.000000
20
290.000000
0
VERTEX
8
0
10
394.000000
20
294.000000
0
VERTEX
8
0
10
388.911765
20
294.352941
0
VERTEX
8
0
10
386.000000
20
294.000000
0
VERTEX
8
0
10
382.800000
20
290.100000
0
VERTEX
8
0
10
382.000000
20
289.000000
0
VERTEX
8
0
10
383.000000
20
281.000000
0
VERTEX
8
0
10
385.000000
20
279.000000
0
VERTEX
8
0
10
388.067568
20
278.405405
0
VERTEX
8
0
10
393.000000
20
278.000000
0
SEQEND
0
POLYLINE
8
0
6
CONTINUOUS
66
1
62
7
10
0.0
20
0.0
30
0.000000
0
VERTEX
8
0
10
419.000000
20
278.000000
0
VERTEX
8
0
10
423.000000
20
281.000000
0
VERTEX
8
0
10
424.500000
20
286.000000
0
VERTEX
8
0
10
424.352941
20
287.088235
0
VERTEX
8
0
10
424.000000
20
290.000000
0
VERTEX
8
0
10
420.000000
20
294.000000
0
VERTEX
8
0
10
414.911765
20
294.352941
0
VERTEX
8
0
10
412.000000
20
294.000000
0
VERTEX
8
0
10
408.800000
20
290.100000
0
VERTEX
8
0
10
408.000000
20
289.000000
0
VERTEX
8
0
10
409.000000
20
281.000000
0
VERTEX
8
0
10
411.000000
20
279.000000
0
VERTEX
8
0
10
414.067568
20
278.405405
0
VERTEX
8
0
10
419.000000
20
278.000000
0
SEQEND
0
POLYLINE
8
0
6
CONTINUOUS
66
1
62
7
10
0.0
20
0.0
30
0.000000
0
VERTEX
8
0
10
445.000000
20
278.000000
0
VERTEX
8
0
10
448.750000
20
280.250000
0
VERTEX
8
0
10
451.000000
20
284.000000
0
VERTEX
8
0
10
451.000000
20
289.000000
0
VERTEX
8
0
10
449.000000
20
292.000000
0
VERTEX
8
0
10
447.000000
20
294.000000
0
VERTEX
8
0
10
441.911765
20
294.352941
0
VERTEX
8
0
10
439.000000
20
294.000000
0
VERTEX
8
0
10
435.000000
20
290.000000
0
VERTEX
8
0
10
434.647059
20
287.088235
0
VERTEX
8
0
10
435.000000
20
282.000000
0
VERTEX
8
0
10
437.000000
20
280.000000
0
VERTEX
8
0
10
440.188679
20
278.660377
0
VERTEX
8
0
10
445.000000
20
278.000000
0
SEQEND
0
POLYLINE
8
0
6
CONTINUOUS
66
1
62
7
10
0.0
20
0.0
30
0.000000
0
VERTEX
8
0
10
471.000000
20
278.000000
0
VERTEX
8
0
10
476.000000
20
281.000000
0
VERTEX
8
0
10
477.000000
20
289.000000
0
VERTEX
8
0
10
473.000000
20
294.000000
0
VERTEX
8
0
10
469.000000
20
294.500000
0
VERTEX
8
0
10
467.911765
20
294.352941
0
VERTEX
8
0
10
465.000000
20
294.000000
0
VERTEX
8
0
10
461.000000
20
290.000000
0
VERTEX
8
0
10
461.000000
20
282.000000
0
VERTEX
8
0
10
464.000000
20
279.000000
0
VERTEX
8
0
10
466.067568
20
278.405405
0
VERTEX
8
0
10
471.000000
20
278.000000
0
SEQEND
0
POLYLINE
8
0
6
CONTINUOUS
66
1
62
7
10
0.0
20
0.0
30
0.000000
0
VERTEX
8
0
10
497.000000
20
278.000000
0
VERTEX
8
0
10
501.000000
20
280.000000
0
VERTEX
8
0
10
501.230769
20
280.846154
0
VERTEX
8
0
10
503.000000
20
283.000000
0
VERTEX
8
0
10
503.000000
20
290.000000
0
VERTEX
8
0
10
498.100000
20
294.200000
0
VERTEX
8
0
10
497.000000
20
295.000000
0
VERTEX
8
0
10
491.000000
20
294.000000
0
VERTEX
8
0
10
487.000000
20
289.000000
0
VERTEX
8
0
10
488.000000
20
282.000000
0
VERTEX
8
0
10
491.000000
20
279.000000
0
VERTEX
8
0
10
493.076923
20
278.384615
0
VERTEX
8
0
10
497.000000
20
278.000000
0
SEQEND
0
POLYLINE
8
0
6
CONTINUOUS
66
1
62
7
10
0.0
20
0.0
30
0.000000
0
VERTEX
8
0
10
197.000000
20
252.000000
0
VERTEX
8
0
10
200.700000
20
257.100000
0
VERTEX
8
0
10
201.300000
20
261.100000
0
VERTEX
8
0
10
200.000000
20
265.000000
0
VERTEX
8
0
10
197.000000
20
268.000000
0
VERTEX
8
0
10
188.000000
20
267.000000
0
VERTEX
8
0
10
185.000000
20
263.000000
0
VERTEX
8
0
10
185.000000
20
257.000000
0
VERTEX
8
0
10
186.000000
20
255.000000
0
VERTEX
8
0
10
188.000000
20
253.000000
0
VERTEX
8
0
10
191.060000
20
252.420000
0
VERTEX
8
0
10
197.000000
20
252.000000
0
SEQEND
0
POLYLINE
8
0
6
CONTINUOUS
66
1
62
7
10
0.0
20
0.0
30
0.000000
0
VERTEX
8
0
10
222.000000
20
252.000000
0
VERTEX
8
0
10
227.000000
20
256.000000
0
VERTEX
8
0
10
228.000000
20
261.000000
0
VERTEX
8
0
10
227.300000
20
262.100000
0
VERTEX
8
0
10
227.000000
20
264.000000
0
VERTEX
8
0
10
223.000000
20
268.000000
0
VERTEX
8
0
10
215.000000
20
268.000000
0
VERTEX
8
0
10
211.000000
20
263.000000
0
VERTEX
8
0
10
211.000000
20
257.000000
0
VERTEX
8
0
10
213.000000
20
254.000000
0
VERTEX
8
0
10
217.067568
20
252.405405
0
VERTEX
8
0
10
222.000000
20
252.000000
0
SEQEND
0
POLYLINE
8
0
6
CONTINUOUS
66
1
62
7
10
0.0
20
0.0
30
0.000000
0
VERTEX
8
0
10
248.000000
20
252.000000
0
VERTEX
8
0
10
250.000000
20
253.000000
0
VERTEX
8
0
10
253.000000
20
256.000000
0
VERTEX
8
0
10
254.000000
20
259.000000
0
VERTEX
8
0
10
253.300000
20
262.100000
0
VERTEX
8
0
10
253.000000
20
264.000000
0
VERTEX
8
0
10
249.100000
20
267.200000
0
VERTEX
8
0
10
248.000000
20
268.000000
0
VERTEX
8
0
10
243.000000
20
268.000000
0
VERTEX
8
0
10
241.000000
20
267.000000
0
VERTEX
8
0
10
238.000000
20
264.000000
0
VERTEX
8
0
10
237.000000
20
261.000000
0
VERTEX
8
0
10
237.700000
20
257.900000
0
VERTEX
8
0
10
238.000000
20
256.000000
0
VERTEX
8
0
10
241.000000
20
253.000000
0
VERTEX
8
0
10
243.067568
20
252.405405
0
VERTEX
8
0
10
248.000000
20
252.000000
0
SEQEND
0
POLYLINE
8
0
6
CONTINUOUS
66
1
62
7
10
0.0
20
0.0
30
0.000000
0
VERTEX
8
0
10
274.000000
20
252.000000
0
VERTEX
8
0
10
277.000000
20
253.000000
0
VERTEX
8
0
10
279.000000
20
255.000000
0
VERTEX
8
0
10
280.000000
20
263.000000
0
VERTEX
8
0
10
276.000000
20
268.000000
0
VERTEX
8
0
10
268.000000
20
268.000000
0
VERTEX
8
0
10
264.000000
20
264.000000
0
VERTEX
8
0
10
264.000000
20
256.000000
0
VERTEX
8
0
10
267.900000
20
252.800000
0
VERTEX
8
0
10
274.000000
20
252.000000
0
SEQEND
0
POLYLINE
8
0
6
CONTINUOUS
66
1
62
7
10
0.0
20
0.0
30
0.000000
0
VERTEX
8
0
10
301.000000
20
252.000000
0
VERTEX
8
0
10
303.000000
20
253.000000
0
VERTEX
8
0
10
306.000000
20
256.000000
0
VERTEX
8
0
10
306.000000
20
264.000000
0
VERTEX
8
0
10
302.000000
20
268.000000
0
VERTEX
8
0
10
294.000000
20
268.000000
0
VERTEX
8
0
10
290.000000
20
263.000000
0
VERTEX
8
0
10
290.000000
20
257.000000
0
VERTEX
8
0
10
291.000000
20
255.000000
0
VERTEX
8
0
10
293.000000
20
253.000000
0
VERTEX
8
0
10
301.000000
20
252.000000
0
SEQEND
0
POLYLINE
8
0
6
CONTINUOUS
66
1
62
7
10
0.0
20
0.0
30
0.000000
0
VERTEX
8
0
10
327.000000
20
252.000000
0
VERTEX
8
0
10
331.000000
20
255.000000
0
VERTEX
8
0
10
333.000000
20
261.000000
0
VERTEX
8
0
10
332.300000
20
262.100000
0
VERTEX
8
0
10
332.000000
20
264.000000
0
VERTEX
8
0
10
328.000000
20
268.000000
0
VERTEX
8
0
10
324.000000
20
269.000000
0
VERTEX
8
0
10
321.000000
20
268.000000
0
VERTEX
8
0
10
316.800000
20
263.100000
0
VERTEX
8
0
10
316.000000
20
262.000000
0
VERTEX
8
0
10
316.700000
20
257.900000
0
VERTEX
8
0
10
317.000000
20
256.000000
0
VERTEX
8
0
10
320.000000
20
253.000000
0
VERTEX
8
0
10
322.067568
20
252.405405
0
VERTEX
8
0
10
327.000000
20
252.000000
0
SEQEND
0
POLYLINE
8
0
6
CONTINUOUS
66
1
62
7
10
0.0
20
0.0
30
0.000000
0
VERTEX
8
0
10
353.000000
20
252.000000
0
VERTEX
8
0
10
358.000000
20
256.000000
0
VERTEX
8
0
10
359.000000
20
261.000000
0
VERTEX
8
0
10
358.300000
20
262.100000
0
VERTEX
8
0
10
358.000000
20
264.000000
0
VERTEX
8
0
10
354.000000
20
268.000000
0
VERTEX
8
0
10
347.000000
20
268.000000
0
VERTEX
8
0
10
342.000000
20
262.000000
0
VERTEX
8
0
10
343.000000
20
256.000000
0
VERTEX
8
0
10
346.000000
20
253.000000
0
VERTEX
8
0
10
348.067568
20
252.405405
0
VERTEX
8
0
10
353.000000
20
252.000000
0
SEQEND
0
POLYLINE
8
0
6
CONTINUOUS
66
1
62
7
10
0.0
20
0.0
30
0.000000
0
VERTEX
8
0
10
379.000000
20
252.000000
0
VERTEX
8
0
10
384.000000
20
255.000000
0
VERTEX
8
0
10
385.000000
20
263.000000
0
VERTEX
8
0
10
381.000000
20
268.000000
0
VERTEX
8
0
10
373.000000
20
268.000000
0
VERTEX
8
0
10
369.000000
20
263.000000
0
VERTEX
8
0
10
369.000000
20
257.000000
0
VERTEX
8
0
10
370.000000
20
255.000000
0
VERTEX
8
0
10
372.000000
20
253.000000
0
VERTEX
8
0
10
375.076923
20
252.384615
0
VERTEX
8
0
10
379.000000
20
252.000000
0
SEQEND
0
POLYLINE
8
0
6
CONTINUOUS
66
1
62
7
10
0.0
20
0.0
30
0.000000
0
VERTEX
8
0
10
405.000000
20
252.000000
0
VERTEX
8
0
10
406.100000
20
252.700000
0
VERTEX
8
0
10
408.000000
20
253.000000
0
VERTEX
8
0
10
411.000000
20
256.000000
0
VERTEX
8
0
10
411.000000
20
264.000000
0
VERTEX
8
0
10
406.000000
20
268.000000
0
VERTEX
8
0
10
400.000000
20
268.000000
0
VERTEX
8
0
10
396.000000
20
265.000000
0
VERTEX
8
0
10
395.800000
20
264.100000
0
VERTEX
8
0
10
395.000000
20
263.000000
0
VERTEX
8
0
10
395.000000
20
257.000000
0
VERTEX
8
0
10
398.000000
20
253.000000
0
VERTEX
8
0
10
405.000000
20
252.000000
0
SEQEND
0
POLYLINE
8
0
6
CONTINUOUS
66
1
62
7
10
0.0
20
0.0
30
0.000000
0
VERTEX
8
0
10
432.000000
20
252.000000
0
VERTEX
8
0
10
434.000000
20
253.000000
0
VERTEX
8
0
10
437.200000
20
256.900000
0
VERTEX
8
0
10
438.000000
20
258.000000
0
VERTEX
8
0
10
438.000000
20
262.000000
0
VERTEX
8
0
10
437.000000
20
264.000000
0
VERTEX
8
0
10
433.100000
20
267.200000
0
VERTEX
8
0
10
432.000000
20
268.000000
0
VERTEX
8
0
10
427.000000
20
268.000000
0
VERTEX
8
0
10
425.000000
20
267.000000
0
VERTEX
8
0
10
422.000000
20
264.000000
0
VERTEX
8
0
10
421.000000
20
261.000000
0
VERTEX
8
0
10
421.700000
20
257.900000
0
VERTEX
8
0
10
422.000000
20
256.000000
0
VERTEX
8
0
10
425.000000
20
253.000000
0
VERTEX
8
0
10
427.067568
20
252.405405
0
VERTEX
8
0
10
432.000000
20
252.000000
0
SEQEND
0
POLYLINE
8
0
6
CONTINUOUS
66
1
62
7
10
0.0
20
0.0
30
0.000000
0
VERTEX
8
0
10
458.000000
20
252.000000
0
VERTEX
8
0
10
461.000000
20
253.000000
0
VERTEX
8
0
10
464.000000
20
258.000000
0
VERTEX
8
0
10
464.000000
20
262.000000
0
VERTEX
8
0
10
463.300000
20
263.100000
0
VERTEX
8
0
10
463.000000
20
265.000000
0
VERTEX
8
0
10
460.000000
20
268.000000
0
VERTEX
8
0
10
452.000000
20
268.000000
0
VERTEX
8
0
10
448.000000
20
264.000000
0
VERTEX
8
0
10
448.000000
20
256.000000
0
VERTEX
8
0
10
451.000000
20
253.000000
0
VERTEX
8
0
10
453.067568
20
252.405405
0
VERTEX
8
0
10
458.000000
20
252.000000
0
SEQEND
0
POLYLINE
8
0
6
CONTINUOUS
66
1
62
7
10
0.0
20
0.0
30
0.000000
0
VERTEX
8
0
10
485.000000
20
252.000000
0
VERTEX
8
0
10
490.000000
20
256.000000
0
VERTEX
8
0
10
490.000000
20
263.000000
0
VERTEX
8
0
10
489.000000
20
265.000000
0
VERTEX
8
0
10
485.000000
20
268.000000
0
VERTEX
8
0
10
478.000000
20
268.000000
0
VERTEX
8
0
10
474.000000
20
263.000000
0
VERTEX
8
0
10
474.000000
20
257.000000
0
VERTEX
8
0
10
475.000000
20
255.000000
0
VERTEX
8
0
10
477.000000
20
253.000000
0
VERTEX
8
0
10
480.067568
20
252.405405
0
VERTEX
8
0
10
485.000000
20
252.000000
0
SEQEND
0
POLYLINE
8
0
6
CONTINUOUS
66
1
62
7
10
0.0
20
0.0
30
0.000000
0
VERTEX
8
0
10
512.000000
20
252.000000
0
VERTEX
8
0
10
515.700000
20
257.100000
0
VERTEX
8
0
10
516.352941
20
261.088235
0
VERTEX
8
0
10
516.000000
20
264.000000
0
VERTEX
8
0
10
512.100000
20
267.200000
0
VERTEX
8
0
10
511.000000
20
268.000000
0
VERTEX
8
0
10
506.000000
20
268.000000
0
VERTEX
8
0
10
501.000000
20
265.000000
0
VERTEX
8
0
10
500.000000
20
258.000000
0
VERTEX
8
0
10
505.000000
20
252.000000
0
VERTEX
8
0
10
512.000000
20
252.000000
0
SEQEND
0
POLYLINE
8
0
6
CONTINUOUS
66
1
62
7
10
0.0
20
0.0
30
0.000000
0
VERTEX
8
0
10
315.000000
20
226.000000
0
VERTEX
8
0
10
320.000000
20
233.000000
0
VERTEX
8
0
10
319.000000
20
238.000000
0
VERTEX
8
0
10
314.000000
20
242.000000
0
VERTEX
8
0
10
306.000000
20
241.000000
0
VERTEX
8
0
10
303.000000
20
237.000000
0
VERTEX
8
0
10
303.000000
20
231.000000
0
VERTEX
8
0
10
305.000000
20
228.000000
0
VERTEX
8
0
10
308.053846
20
226.430769
0
VERTEX
8
0
10
315.000000
20
226.000000
0
SEQEND
0
POLYLINE
8
0
6
CONTINUOUS
66
1
62
7
10
0.0
20
0.0
30
0.000000
0
VERTEX
8
0
10
341.000000
20
226.000000
0
VERTEX
8
0
10
346.000000
20
231.000000
0
VERTEX
8
0
10
346.000000
20
236.000000
0
VERTEX
8
0
10
342.000000
20
241.000000
0
VERTEX
8
0
10
340.000000
20
242.000000
0
VERTEX
8
0
10
333.000000
20
241.000000
0
VERTEX
8
0
10
330.000000
20
238.000000
0
VERTEX
8
0
10
329.000000
20
235.000000
0
VERTEX
8
0
10
329.000000
20
232.000000
0
VERTEX
8
0
10
334.000000
20
226.000000
0
VERTEX
8
0
10
341.000000
20
226.000000
0
SEQEND
0
POLYLINE
8
0
6
CONTINUOUS
66
1
62
7
10
0.0
20
0.0
30
0.000000
0
VERTEX
8
0
10
394.000000
20
226.000000
0
VERTEX
8
0
10
399.000000
20
233.000000
0
VERTEX
8
0
10
398.300000
20
236.100000
0
VERTEX
8
0
10
398.000000
20
238.000000
0
VERTEX
8
0
10
395.000000
20
241.000000
0
VERTEX
8
0
10
388.000000
20
242.000000
0
VERTEX
8
0
10
385.000000
20
241.000000
0
VERTEX
8
0
10
382.000000
20
237.000000
0
VERTEX
8
0
10
382.000000
20
231.000000
0
VERTEX
8
0
10
387.000000
20
226.000000
0
VERTEX
8
0
10
394.000000
20
226.000000
0
SEQEND
0
POLYLINE
8
0
6
CONTINUOUS
66
1
62
7
10
0.0
20
0.0
30
0.000000
0
VERTEX
8
0
10
364.000000
20
225.000000
0
VERTEX
8
0
10
368.000000
20
226.000000
0
VERTEX
8
0
10
371.200000
20
229.900000
0
VERTEX
8
0
10
372.000000
20
231.000000
0
VERTEX
8
0
10
372.000000
20
236.000000
0
VERTEX
8
0
10
371.000000
20
239.000000
0
VERTEX
8
0
10
368.100000
20
241.200000
0
VERTEX
8
0
10
367.000000
20
242.000000
0
VERTEX
8
0
10
361.000000
20
242.000000
0
VERTEX
8
0
10
359.000000
20
241.000000
0
VERTEX
8
0
10
357.000000
20
239.000000
0
VERTEX
8
0
10
356.000000
20
236.000000
0
VERTEX
8
0
10
356.000000
20
231.000000
0
VERTEX
8
0
10
357.000000
20
229.000000
0
VERTEX
8
0
10
360.000000
20
226.000000
0
VERTEX
8
0
10
364.000000
20
225.000000
0
SEQEND
0
POLYLINE
8
0
6
CONTINUOUS
66
1
62
7
10
0.0
20
0.0
30
0.000000
0
VERTEX
8
0
10
326.000000
20
199.000000
0
VERTEX
8
0
10
328.000000
20
200.000000
0
VERTEX
8
0
10
332.200000
20
204.900000
0
VERTEX
8
0
10
333.000000
20
206.000000
0
VERTEX
8
0
10
333.000000
20
209.000000
0
VERTEX
8
0
10
332.000000
20
211.000000
0
VERTEX
8
0
10
327.100000
20
215.200000
0
VERTEX
8
0
10
326.000000
20
216.000000
0
VERTEX
8
0
10
322.000000
20
216.000000
0
VERTEX
8
0
10
320.000000
20
215.000000
0
VERTEX
8
0
10
316.800000
20
211.100000
0
VERTEX
8
0
10
316.000000
20
210.000000
0
VERTEX
8
0
10
316.000000
20
205.000000
0
VERTEX
8
0
10
317.000000
20
203.000000
0
VERTEX
8
0
10
320.000000
20
200.000000
0
VERTEX
8
0
10
326.000000
20
199.000000
0
SEQEND
0
POLYLINE
8
0
6
CONTINUOUS
66
1
62
7
10
0.0
20
0.0
30
0.000000
0
VERTEX
8
0
10
352.000000
20
199.000000
0
VERTEX
8
0
10
358.000000
20
203.000000
0
VERTEX
8
0
10
359.000000
20
210.000000
0
VERTEX
8
0
10
358.000000
20
212.000000
0
VERTEX
8
0
10
354.100000
20
215.200000
0
VERTEX
8
0
10
353.000000
20
216.000000
0
VERTEX
8
0
10
348.000000
20
216.000000
0
VERTEX
8
0
10
345.000000
20
214.000000
0
VERTEX
8
0
10
343.800000
20
212.100000
0
VERTEX
8
0
10
342.800000
20
210.100000
0
VERTEX
8
0
10
342.000000
20
209.000000
0
VERTEX
8
0
10
343.000000
20
204.000000
0
VERTEX
8
0
10
347.900000
20
199.800000
0
VERTEX
8
0
10
352.000000
20
199.000000
0
SEQEND
0
POLYLINE
8
0
6
CONTINUOUS
66
1
62
7
10
0.0
20
0.0
30
0.000000
0
VERTEX
8
0
10
378.000000
20
199.000000
0
VERTEX
8
0
10
381.100000
20
200.800000
0
VERTEX
8
0
10
385.000000
20
204.000000
0
VERTEX
8
0
10
384.000000
20
213.000000
0
VERTEX
8
0
10
380.000000
20
216.000000
0
VERTEX
8
0
10
374.000000
20
216.000000
0
VERTEX
8
0
10
371.000000
20
214.000000
0
VERTEX
8
0
10
369.000000
20
212.000000
0
VERTEX
8
0
10
369.000000
20
204.000000
0
VERTEX
8
0
10
373.000000
20
200.000000
0
VERTEX
8
0
10
377.100000
20
199.200000
0
VERTEX
8
0
10
378.000000
20
199.000000
0
SEQEND
0
POLYLINE
8
0
6
CONTINUOUS
66
1
62
7
10
0.0
20
0.0
30
0.000000
0
VERTEX
8
0
10
340.000000
20
173.000000
0
VERTEX
8
0
10
342.000000
20
174.000000
0
VERTEX
8
0
10
344.200000
20
176.900000
0
VERTEX
8
0
10
344.800000
20
178.100000
0
VERTEX
8
0
10
346.000000
20
182.000000
0
VERTEX
8
0
10
345.000000
20
186.000000
0
VERTEX
8
0
10
342.100000
20
188.200000
0
VERTEX
8
0
10
340.900000
20
188.700000
0
VERTEX
8
0
10
337.000000
20
190.000000
0
VERTEX
8
0
10
335.900000
20
189.300000
0
VERTEX
8
0
10
332.000000
20
188.000000
0
VERTEX
8
0
10
330.000000
20
186.000000
0
VERTEX
8
0
10
329.000000
20
180.000000
0
VERTEX
8
0
10
330.000000
20
177.000000
0
VERTEX
8
0
10
333.900000
20
173.800000
0
VERTEX
8
0
10
340.000000
20
173.000000
0
SEQEND
0
POLYLINE
8
0
6
CONTINUOUS
66
1
62
7
10
0.0
20
0.0
30
0.000000
0
VERTEX
8
0
10
366.000000
20
173.000000
0
VERTEX
8
0
10
371.000000
20
176.000000
0
VERTEX
8
0
10
372.000000
20
184.000000
0
VERTEX
8
0
10
368.000000
20
189.000000
0
VERTEX
8
0
10
362.911765
20
189.352941
0
VERTEX
8
0
10
360.000000
20
189.000000
0
VERTEX
8
0
10
356.000000
20
185.000000
0
VERTEX
8
0
10
356.000000
20
178.000000
0
VERTEX
8
0
10
359.000000
20
174.000000
0
VERTEX
8
0
10
366.000000
20
173.000000
0
SEQEND
0
POLYLINE
8
0
6
CONTINUOUS
66
1
62
7
10
0.0
20
0.0
30
0.000000
0
VERTEX
8
0
10
353.000000
20
147.000000
0
VERTEX
8
0
10
357.000000
20
149.000000
0
VERTEX
8
0
10
357.200000
20
149.900000
0
VERTEX
8
0
10
359.000000
20
153.000000
0
VERTEX
8
0
10
359.000000
20
158.000000
0
VERTEX
8
0
10
357.000000
20
161.000000
0
VERTEX
8
0
10
355.000000
20
163.000000
0
VERTEX
8
0
10
347.000000
20
163.000000
0
VERTEX
8
0
10
342.000000
20
157.000000
0
VERTEX
8
0
10
342.000000
20
154.000000
0
VERTEX
8
0
10
344.000000
20
150.000000
0
VERTEX
8
0
10
346.000000
20
148.000000
0
VERTEX
8
0
10
348.067568
20
147.405405
0
VERTEX
8
0
10
353.000000
20
147.000000
0
SEQEND
0
POLYLINE
8
0
6
CONTINUOUS
66
1
62
7
10
0.0
20
0.0
30
0.000000
0
VERTEX
8
0
10
356.000000
20
125.000000
0
VERTEX
8
0
10
360.923077
20
126.384615
0
VERTEX
8
0
10
370.000000
20
131.000000
0
VERTEX
8
0
10
372.000000
20
133.000000
0
VERTEX
8
0
10
381.200000
20
146.900000
0
VERTEX
8
0
10
386.200000
20
156.900000
0
VERTEX
8
0
10
408.700000
20
203.100000
0
VERTEX
8
0
10
411.800000
20
210.100000
0
VERTEX
8
0
10
420.000000
20
229.000000
0
VERTEX
8
0
10
422.000000
20
231.000000
0
VERTEX
8
0
10
485.988900
20
229.511616
0
VERTEX
8
0
10
510.000000
20
229.000000
0
VERTEX
8
0
10
519.900000
20
232.200000
0
VERTEX
8
0
10
523.100000
20
233.800000
0
VERTEX
8
0
10
531.000000
20
239.000000
0
VERTEX
8
0
10
533.760000
20
243.180000
0
VERTEX
8
0
10
536.647059
20
249.088235
0
VERTEX
8
0
10
537.352941
20
251.911765
0
VERTEX
8
0
10
539.000000
20
255.000000
0
VERTEX
8
0
10
539.000000
20
261.000000
0
VERTEX
8
0
10
537.647059
20
264.911765
0
VERTEX
8
0
10
535.647059
20
272.911765
0
VERTEX
8
0
10
510.769231
20
322.846154
0
VERTEX
8
0
10
491.800000
20
354.900000
0
VERTEX
8
0
10
486.500000
20
365.000000
0
VERTEX
8
0
10
511.769231
20
409.153846
0
VERTEX
8
0
10
527.800000
20
442.100000
0
VERTEX
8
0
10
534.800000
20
456.100000
0
VERTEX
8
0
10
539.000000
20
467.000000
0
VERTEX
8
0
10
539.000000
20
475.000000
0
VERTEX
8
0
10
532.000000
20
489.000000
0
VERTEX
8
0
10
526.000000
20
495.000000
0
VERTEX
8
0
10
522.846154
20
496.769231
0
VERTEX
8
0
10
519.100000
20
498.300000
0
VERTEX
8
0
10
514.000000
20
500.000000
0
VERTEX
8
0
10
422.000000
20
499.000000
0
VERTEX
8
0
10
420.000000
20
501.000000
0
VERTEX
8
0
10
378.200000
20
587.100000
0
VERTEX
8
0
10
377.200000
20
589.100000
0
VERTEX
8
0
10
374.000000
20
595.000000
0
VERTEX
8
0
10
369.000000
20
600.000000
0
VERTEX
8
0
10
365.846154
20
601.769231
0
VERTEX
8
0
10
357.000000
20
605.000000
0
VERTEX
8
0
10
344.000000
20
605.000000
0
VERTEX
8
0
10
340.088235
20
603.647059
0
VERTEX
8
0
10
331.000000
20
599.000000
0
VERTEX
8
0
10
324.240000
20
590.820000
0
VERTEX
8
0
10
288.200000
20
513.900000
0
VERTEX
8
0
10
282.000000
20
501.000000
0
VERTEX
8
0
10
280.000000
20
499.000000
0
VERTEX
8
0
10
216.011100
20
500.488384
0
VERTEX
8
0
10
215.000000
20
501.000000
0
VERTEX
8
0
10
191.000000
20
501.000000
0
VERTEX
8
0
10
187.088235
20
499.647059
0
VERTEX
8
0
10
177.900000
20
496.200000
0
VERTEX
8
0
10
173.900000
20
494.200000
0
VERTEX
8
0
10
169.000000
20
490.000000
0
VERTEX
8
0
10
167.800000
20
487.100000
0
VERTEX
8
0
10
163.000000
20
476.000000
0
VERTEX
8
0
10
163.000000
20
464.000000
0
VERTEX
8
0
10
164.352941
20
460.088235
0
VERTEX
8
0
10
185.230769
20
420.153846
0
VERTEX
8
0
10
203.800000
20
385.900000
0
VERTEX
8
0
10
215.000000
20
364.000000
0
VERTEX
8
0
10
204.800000
20
346.100000
0
VERTEX
8
0
10
162.000000
20
271.000000
0
VERTEX
8
0
10
162.000000
20
262.000000
0
VERTEX
8
0
10
164.352941
20
250.088235
0
VERTEX
8
0
10
164.800000
20
248.900000
0
VERTEX
8
0
10
167.000000
20
243.000000
0
VERTEX
8
0
10
175.000000
20
235.000000
0
VERTEX
8
0
10
179.100000
20
233.300000
0
VERTEX
8
0
10
180.900000
20
232.700000
0
VERTEX
8
0
10
192.000000
20
229.000000
0
VERTEX
8
0
10
280.000000
20
231.000000
0
VERTEX
8
0
10
282.000000
20
229.000000
0
VERTEX
8
0
10
292.800000
20
202.900000
0
VERTEX
8
0
10
295.300000
20
197.100000
0
VERTEX
8
0
10
312.200000
20
162.100000
0
VERTEX
8
0
10
316.800000
20
152.900000
0
VERTEX
8
0
10
324.000000
20
139.000000
0
VERTEX
8
0
10
333.846154
20
129.769231
0
VERTEX
8
0
10
340.088235
20
126.352941
0
VERTEX
8
0
10
342.911765
20
125.647059
0
VERTEX
8
0
10
356.000000
20
125.000000
0
SEQEND
0
POLYLINE
8
0
6
CONTINUOUS
66
1
62
7
10
0.0
20
0.0
30
0.000000
0
VERTEX
8
0
10
359.000000
20
90.000000
0
VERTEX
8
0
10
388.962069
20
92.455172
0
VERTEX
8
0
10
406.911765
20
96.352941
0
VERTEX
8
0
10
413.076923
20
97.615385
0
VERTEX
8
0
10
430.900000
20
102.300000
0
VERTEX
8
0
10
452.100000
20
109.800000
0
VERTEX
8
0
10
472.900000
20
119.200000
0
VERTEX
8
0
10
489.100000
20
127.800000
0
VERTEX
8
0
10
498.820000
20
133.240000
0
VERTEX
8
0
10
528.180000
20
154.760000
0
VERTEX
8
0
10
544.000000
20
170.000000
0
VERTEX
8
0
10
560.750408
20
188.235726
0
VERTEX
8
0
10
578.760000
20
212.180000
0
VERTEX
8
0
10
581.760000
20
216.180000
0
VERTEX
8
0
10
588.200000
20
226.900000
0
VERTEX
8
0
10
598.800000
20
246.100000
0
VERTEX
8
0
10
605.300000
20
260.900000
0
VERTEX
8
0
10
613.300000
20
283.900000
0
VERTEX
8
0
10
617.594595
20
300.067568
0
VERTEX
8
0
10
620.384615
20
314.923077
0
VERTEX
8
0
10
623.544828
20
336.037931
0
VERTEX
8
0
10
624.455172
20
346.962069
0
VERTEX
8
0
10
626.000000
20
371.000000
0
VERTEX
8
0
10
622.560976
20
406.951220
0
VERTEX
8
0
10
615.352941
20
440.088235
0
VERTEX
8
0
10
610.700000
20
453.900000
0
VERTEX
8
0
10
603.300000
20
471.100000
0
VERTEX
8
0
10
594.769231
20
489.846154
0
VERTEX
8
0
10
588.200000
20
501.100000
0
VERTEX
8
0
10
571.754098
20
527.795082
0
VERTEX
8
0
10
547.000000
20
558.000000
0
VERTEX
8
0
10
536.204918
20
567.245902
0
VERTEX
8
0
10
512.795082
20
586.754098
0
VERTEX
8
0
10
483.900000
20
604.800000
0
VERTEX
8
0
10
475.846154
20
609.769231
0
VERTEX
8
0
10
444.900000
20
622.700000
0
VERTEX
8
0
10
433.100000
20
627.200000
0
VERTEX
8
0
10
397.076923
20
635.384615
0
VERTEX
8
0
10
356.000000
20
640.000000
0
VERTEX
8
0
10
342.964706
20
639.458824
0
VERTEX
8
0
10
318.035294
20
637.541176
0
VERTEX
8
0
10
298.911765
20
634.352941
0
VERTEX
8
0
10
291.076923
20
632.615385
0
VERTEX
8
0
10
267.100000
20
626.800000
0
VERTEX
8
0
10
249.900000
20
620.200000
0
VERTEX
8
0
10
225.153846
20
609.769231
0
VERTEX
8
0
10
212.846154
20
602.230769
0
VERTEX
8
0
10
188.204918
20
586.754098
0
VERTEX
8
0
10
158.000000
20
562.000000
0
VERTEX
8
0
10
148.754098
20
551.204918
0
VERTEX
8
0
10
129.245902
20
527.795082
0
VERTEX
8
0
10
110.230769
20
496.846154
0
VERTEX
8
0
10
106.230769
20
489.846154
0
VERTEX
8
0
10
95.300000
20
465.900000
0
VERTEX
8
0
10
88.200000
20
448.900000
0
VERTEX
8
0
10
83.384615
20
429.923077
0
VERTEX
8
0
10
81.615385
20
421.076923
0
VERTEX
8
0
10
78.439024
20
406.951220
0
VERTEX
8
0
10
76.541176
20
386.035294
0
VERTEX
8
0
10
75.000000
20
359.000000
0
VERTEX
8
0
10
77.455172
20
335.037931
0
VERTEX
8
0
10
81.384615
20
311.076923
0
VERTEX
8
0
10
83.405405
20
300.067568
0
VERTEX
8
0
10
87.700000
20
283.900000
0
VERTEX
8
0
10
96.300000
20
259.100000
0
VERTEX
8
0
10
103.230769
20
244.153846
0
VERTEX
8
0
10
113.800000
20
224.900000
0
VERTEX
8
0
10
119.240000
20
216.180000
0
VERTEX
8
0
10
124.760000
20
208.820000
0
VERTEX
8
0
10
140.249541
20
188.234862
0
VERTEX
8
0
10
172.000000
20
155.000000
0
VERTEX
8
0
10
176.180000
20
152.240000
0
VERTEX
8
0
10
202.180000
20
133.240000
0
VERTEX
8
0
10
215.100000
20
126.200000
0
VERTEX
8
0
10
228.900000
20
118.800000
0
VERTEX
8
0
10
250.100000
20
109.300000
0
VERTEX
8
0
10
271.900000
20
101.700000
0
VERTEX
8
0
10
292.923077
20
96.615385
0
VERTEX
8
0
10
301.923077
20
94.615385
0
VERTEX
8
0
10
312.037931
20
92.455172
0
VERTEX
8
0
10
322.962069
20
91.544828
0
VERTEX
8
0
10
359.000000
20
90.000000
0
SEQEND
0
ENDSEC
0
EOF
