0
SECTION
2
HEADER
9
$ACADVER
1
AC1003
9
$INSBASE
10
0.0
20
0.0
30
0.0
9
$EXTMIN
10
0.000
20
0.000
30
0.0
9
$EXTMAX
10
728.000
20
747.000
30
0.0
9
$LIMMIN
10
0.000
20
0.000
9
$LIMMAX
10
728.000
20
747.000
9
$LTSCALE
40
1.0
9
$LUNITS
70
2
9
$LUPREC
70
3
9
$LIMCHECK
70
0
9
$UCSNAME
2

9
$UCSORG
10
0.0
20
0.0
30
0.0
9
$UCSXDIR
10
1.0
20
0.0
30
0.0
9
$UCSYDIR
10
0.0
20
1.0
30
0.0
9
$WORLDVIEW
70
1
9
$UNITMODE
70
0
0
ENDSEC
0
SECTION
2
TABLES
0
TABLE
2
VPORT
70
1
0
VPORT
2
*ACTIVE
70
0
10
0.0
20
0.0
11
1.0
21
1.0
12
364.000
22
373.500
13
0.0
23
0.0
14
1.0
24
1.0
15
0.0
25
0.0
16
0.0
26
0.0
36
1.0
17
0.0
27
0.0
37
0.0
40
500.0
41
1.026
42
50.0
43
0.0
44
0.0
50
0.0
51
0.0
71
0
72
100
73
1
74
1
75
0
76
0
77
0
78
0
0
ENDTAB
0
TABLE
2
LTYPE
70
1
0
LTYPE
2
CONTINUOUS
70
64
3
Solid line
72
65
73
0
40
0.000
0
ENDTAB
0
TABLE
2
LAYER
70
1
0
LAYER
2
0
70
64
62
7
6
CONTINUOUS
0
ENDTAB
0
ENDSEC
0
SECTION
2
BLOCKS
0
ENDSEC
0
SECTION
2
ENTITIES
0
POLYLINE
8
0
6
CONTINUOUS
66
1
62
7
10
0.0
20
0.0
30
0.000000
0
VERTEX
8
0
10
358.000000
20
683.000000
0
VERTEX
8
0
10
359.100000
20
683.700000
0
VERTEX
8
0
10
361.000000
20
684.000000
0
VERTEX
8
0
10
366.000000
20
689.000000
0
VERTEX
8
0
10
366.352941
20
694.088235
0
VERTEX
8
0
10
365.000000
20
699.000000
0
VERTEX
8
0
10
361.000000
20
703.000000
0
VERTEX
8
0
10
352.000000
20
703.000000
0
VERTEX
8
0
10
347.000000
20
698.000000
0
VERTEX
8
0
10
346.000000
20
694.000000
0
VERTEX
8
0
10
347.000000
20
689.000000
0
VERTEX
8
0
10
352.000000
20
684.000000
0
VERTEX
8
0
10
355.088235
20
683.352941
0
VERTEX
8
0
10
358.000000
20
683.000000
0
SEQEND
0
POLYLINE
8
0
6
CONTINUOUS
66
1
62
7
10
0.0
20
0.0
30
0.000000
0
VERTEX
8
0
10
509.000000
20
548.000000
0
VERTEX
8
0
10
510.400000
20
550.200000
0
VERTEX
8
0
10
503.760000
20
564.820000
0
VERTEX
8
0
10
480.756098
20
594.804878
0
VERTEX
8
0
10
477.243902
20
599.195122
0
VERTEX
8
0
10
469.226244
20
607.248869
0
VERTEX
8
0
10
458.773756
20
616.751131
0
VERTEX
8
0
10
448.100000
20
625.200000
0
VERTEX
8
0
10
440.846154
20
629.769231
0
VERTEX
8
0
10
419.900000
20
641.800000
0
VERTEX
8
0
10
403.100000
20
650.200000
0
VERTEX
8
0
10
389.911765
20
654.647059
0
VERTEX
8
0
10
384.100000
20
656.300000
0
VERTEX
8
0
10
361.000000
20
662.000000
0
VERTEX
8
0
10
349.000000
20
662.000000
0
VERTEX
8
0
10
346.100000
20
660.700000
0
VERTEX
8
0
10
344.900000
20
660.200000
0
VERTEX
8
0
10
338.000000
20
654.000000
0
VERTEX
8
0
10
329.700000
20
638.100000
0
VERTEX
8
0
10
329.200000
20
636.900000
0
VERTEX
8
0
10
318.700000
20
606.100000
0
VERTEX
8
0
10
316.594595
20
596.067568
0
VERTEX
8
0
10
313.000000
20
576.000000
0
VERTEX
8
0
10
313.000000
20
570.000000
0
VERTEX
8
0
10
315.000000
20
568.000000
0
VERTEX
8
0
10
322.044554
20
568.554455
0
VERTEX
8
0
10
370.000000
20
572.000000
0
VERTEX
8
0
10
421.000000
20
572.000000
0
VERTEX
8
0
10
430.955446
20
570.554455
0
VERTEX
8
0
10
451.911765
20
566.647059
0
VERTEX
8
0
10
455.911765
20
565.647059
0
VERTEX
8
0
10
490.900000
20
553.700000
0
VERTEX
8
0
10
509.000000
20
548.000000
0
SEQEND
0
POLYLINE
8
0
6
CONTINUOUS
66
1
62
7
10
0.0
20
0.0
30
0.000000
0
VERTEX
8
0
10
532.000000
20
407.000000
0
VERTEX
8
0
10
536.000000
20
409.000000
0
VERTEX
8
0
10
544.230769
20
418.846154
0
VERTEX
8
0
10
549.200000
20
425.900000
0
VERTEX
8
0
10
555.647059
20
439.088235
0
VERTEX
8
0
10
557.300000
20
444.900000
0
VERTEX
8
0
10
561.000000
20
463.000000
0
VERTEX
8
0
10
561.000000
20
469.000000
0
VERTEX
8
0
10
559.594595
20
474.932432
0
VERTEX
8
0
10
557.760000
20
480.820000
0
VERTEX
8
0
10
549.000000
20
492.000000
0
VERTEX
8
0
10
538.195122
20
501.243902
0
VERTEX
8
0
10
528.804878
20
508.756098
0
VERTEX
8
0
10
502.900000
20
526.800000
0
VERTEX
8
0
10
490.100000
20
534.200000
0
VERTEX
8
0
10
469.100000
20
543.200000
0
VERTEX
8
0
10
455.911765
20
547.647059
0
VERTEX
8
0
10
453.088235
20
548.352941
0
VERTEX
8
0
10
416.969027
20
556.535398
0
VERTEX
8
0
10
403.030973
20
557.464602
0
VERTEX
8
0
10
360.000000
20
558.000000
0
VERTEX
8
0
10
331.048780
20
554.560976
0
VERTEX
8
0
10
321.044554
20
553.554455
0
VERTEX
8
0
10
313.100000
20
551.800000
0
VERTEX
8
0
10
304.000000
20
547.000000
0
VERTEX
8
0
10
294.200000
20
524.900000
0
VERTEX
8
0
10
289.800000
20
514.100000
0
VERTEX
8
0
10
272.200000
20
476.900000
0
VERTEX
8
0
10
272.000000
20
476.000000
0
VERTEX
8
0
10
277.000000
20
474.000000
0
VERTEX
8
0
10
284.000000
20
474.000000
0
VERTEX
8
0
10
304.053846
20
477.569231
0
VERTEX
8
0
10
331.000000
20
481.000000
0
VERTEX
8
0
10
341.000000
20
481.000000
0
VERTEX
8
0
10
346.932432
20
479.594595
0
VERTEX
8
0
10
351.846154
20
477.769231
0
VERTEX
8
0
10
355.000000
20
476.000000
0
VERTEX
8
0
10
357.200000
20
472.100000
0
VERTEX
8
0
10
358.200000
20
470.100000
0
VERTEX
8
0
10
349.000000
20
458.000000
0
VERTEX
8
0
10
355.000000
20
452.000000
0
VERTEX
8
0
10
365.076923
20
448.384615
0
VERTEX
8
0
10
370.100000
20
447.200000
0
VERTEX
8
0
10
375.000000
20
444.000000
0
VERTEX
8
0
10
374.000000
20
442.000000
0
VERTEX
8
0
10
371.100000
20
440.700000
0
VERTEX
8
0
10
369.911765
20
440.352941
0
VERTEX
8
0
10
367.000000
20
440.000000
0
VERTEX
8
0
10
364.000000
20
437.000000
0
VERTEX
8
0
10
364.800000
20
434.900000
0
VERTEX
8
0
10
366.000000
20
433.000000
0
VERTEX
8
0
10
374.076923
20
430.384615
0
VERTEX
8
0
10
383.000000
20
429.000000
0
VERTEX
8
0
10
401.820000
20
434.240000
0
VERTEX
8
0
10
408.000000
20
439.000000
0
VERTEX
8
0
10
411.800000
20
447.100000
0
VERTEX
8
0
10
413.800000
20
452.100000
0
VERTEX
8
0
10
416.615385
20
462.076923
0
VERTEX
8
0
10
418.000000
20
468.000000
0
VERTEX
8
0
10
420.900000
20
470.200000
0
VERTEX
8
0
10
422.000000
20
471.000000
0
VERTEX
8
0
10
428.000000
20
471.000000
0
VERTEX
8
0
10
442.900000
20
465.700000
0
VERTEX
8
0
10
444.100000
20
465.300000
0
VERTEX
8
0
10
473.846154
20
450.769231
0
VERTEX
8
0
10
484.153846
20
444.230769
0
VERTEX
8
0
10
503.820000
20
430.760000
0
VERTEX
8
0
10
532.000000
20
407.000000
0
SEQEND
0
POLYLINE
8
0
6
CONTINUOUS
66
1
62
7
10
0.0
20
0.0
30
0.000000
0
VERTEX
8
0
10
181.000000
20
399.000000
0
VERTEX
8
0
10
184.000000
20
401.000000
0
VERTEX
8
0
10
187.230769
20
405.846154
0
VERTEX
8
0
10
188.769231
20
408.153846
0
VERTEX
8
0
10
200.247059
20
424.788235
0
VERTEX
8
0
10
229.752212
20
458.216814
0
VERTEX
8
0
10
251.230769
20
483.846154
0
VERTEX
8
0
10
256.769231
20
492.153846
0
VERTEX
8
0
10
265.800000
20
509.100000
0
VERTEX
8
0
10
268.200000
20
513.900000
0
VERTEX
8
0
10
274.647059
20
529.088235
0
VERTEX
8
0
10
281.647059
20
555.088235
0
VERTEX
8
0
10
298.300000
20
618.900000
0
VERTEX
8
0
10
298.700000
20
620.100000
0
VERTEX
8
0
10
304.200000
20
633.900000
0
VERTEX
8
0
10
305.200000
20
635.900000
0
VERTEX
8
0
10
317.000000
20
660.000000
0
VERTEX
8
0
10
316.000000
20
661.000000
0
VERTEX
8
0
10
314.000000
20
661.000000
0
VERTEX
8
0
10
287.100000
20
653.700000
0
VERTEX
8
0
10
283.088235
20
652.647059
0
VERTEX
8
0
10
249.100000
20
640.800000
0
VERTEX
8
0
10
229.900000
20
632.200000
0
VERTEX
8
0
10
209.204918
20
619.754098
0
VERTEX
8
0
10
203.795082
20
615.245902
0
VERTEX
8
0
10
190.000000
20
602.000000
0
VERTEX
8
0
10
181.200000
20
584.900000
0
VERTEX
8
0
10
179.700000
20
581.100000
0
VERTEX
8
0
10
172.439024
20
549.951220
0
VERTEX
8
0
10
170.000000
20
531.000000
0
VERTEX
8
0
10
176.514264
20
434.986507
0
VERTEX
8
0
10
177.000000
20
400.000000
0
VERTEX
8
0
10
178.000000
20
399.000000
0
VERTEX
8
0
10
181.000000
20
399.000000
0
SEQEND
0
POLYLINE
8
0
6
CONTINUOUS
66
1
62
7
10
0.0
20
0.0
30
0.000000
0
VERTEX
8
0
10
435.000000
20
395.000000
0
VERTEX
8
0
10
442.100000
20
396.800000
0
VERTEX
8
0
10
445.000000
20
398.000000
0
VERTEX
8
0
10
448.000000
20
401.000000
0
VERTEX
8
0
10
449.000000
20
404.000000
0
VERTEX
8
0
10
448.352941
20
408.088235
0
VERTEX
8
0
10
447.352941
20
412.088235
0
VERTEX
8
0
10
445.000000
20
421.000000
0
VERTEX
8
0
10
439.100000
20
426.200000
0
VERTEX
8
0
10
436.000000
20
428.000000
0
VERTEX
8
0
10
429.000000
20
428.000000
0
VERTEX
8
0
10
426.100000
20
426.700000
0
VERTEX
8
0
10
424.900000
20
426.200000
0
VERTEX
8
0
10
419.000000
20
421.000000
0
VERTEX
8
0
10
417.800000
20
418.100000
0
VERTEX
8
0
10
416.000000
20
412.000000
0
VERTEX
8
0
10
416.000000
20
400.000000
0
VERTEX
8
0
10
417.000000
20
398.000000
0
VERTEX
8
0
10
422.067568
20
396.405405
0
VERTEX
8
0
10
435.000000
20
395.000000
0
SEQEND
0
POLYLINE
8
0
6
CONTINUOUS
66
1
62
7
10
0.0
20
0.0
30
0.000000
0
VERTEX
8
0
10
318.000000
20
389.000000
0
VERTEX
8
0
10
324.000000
20
392.000000
0
VERTEX
8
0
10
325.647059
20
397.088235
0
VERTEX
8
0
10
326.352941
20
399.911765
0
VERTEX
8
0
10
328.000000
20
405.000000
0
VERTEX
8
0
10
328.000000
20
415.000000
0
VERTEX
8
0
10
326.800000
20
416.900000
0
VERTEX
8
0
10
325.000000
20
421.000000
0
VERTEX
8
0
10
318.100000
20
425.200000
0
VERTEX
8
0
10
314.000000
20
427.000000
0
VERTEX
8
0
10
304.000000
20
427.000000
0
VERTEX
8
0
10
295.000000
20
423.000000
0
VERTEX
8
0
10
292.769231
20
420.153846
0
VERTEX
8
0
10
287.384615
20
409.923077
0
VERTEX
8
0
10
286.000000
20
405.000000
0
VERTEX
8
0
10
287.000000
20
398.000000
0
VERTEX
8
0
10
290.000000
20
395.000000
0
VERTEX
8
0
10
292.100000
20
394.200000
0
VERTEX
8
0
10
306.067568
20
390.405405
0
VERTEX
8
0
10
318.000000
20
389.000000
0
SEQEND
0
POLYLINE
8
0
6
CONTINUOUS
66
1
62
7
10
0.0
20
0.0
30
0.000000
0
VERTEX
8
0
10
372.000000
20
370.000000
0
VERTEX
8
0
10
382.100000
20
372.800000
0
VERTEX
8
0
10
389.000000
20
376.000000
0
VERTEX
8
0
10
395.000000
20
385.000000
0
VERTEX
8
0
10
395.000000
20
388.000000
0
VERTEX
8
0
10
393.700000
20
390.900000
0
VERTEX
8
0
10
389.000000
20
399.000000
0
VERTEX
8
0
10
382.100000
20
403.200000
0
VERTEX
8
0
10
376.000000
20
406.000000
0
VERTEX
8
0
10
360.000000
20
406.000000
0
VERTEX
8
0
10
356.900000
20
404.200000
0
VERTEX
8
0
10
345.000000
20
397.000000
0
VERTEX
8
0
10
341.000000
20
392.000000
0
VERTEX
8
0
10
344.800000
20
382.900000
0
VERTEX
8
0
10
350.000000
20
375.000000
0
VERTEX
8
0
10
356.088235
20
372.352941
0
VERTEX
8
0
10
358.911765
20
371.647059
0
VERTEX
8
0
10
364.048780
20
370.439024
0
VERTEX
8
0
10
372.000000
20
370.000000
0
SEQEND
0
POLYLINE
8
0
6
CONTINUOUS
66
1
62
7
10
0.0
20
0.0
30
0.000000
0
VERTEX
8
0
10
157.000000
20
325.000000
0
VERTEX
8
0
10
161.769231
20
331.153846
0
VERTEX
8
0
10
165.647059
20
345.088235
0
VERTEX
8
0
10
166.647059
20
349.088235
0
VERTEX
8
0
10
170.800000
20
359.100000
0
VERTEX
8
0
10
171.700000
20
361.100000
0
VERTEX
8
0
10
175.000000
20
371.000000
0
VERTEX
8
0
10
172.000000
20
375.000000
0
VERTEX
8
0
10
167.000000
20
375.000000
0
VERTEX
8
0
10
162.900000
20
373.200000
0
VERTEX
8
0
10
155.000000
20
370.000000
0
VERTEX
8
0
10
152.000000
20
367.000000
0
VERTEX
8
0
10
151.300000
20
364.900000
0
VERTEX
8
0
10
150.700000
20
363.100000
0
VERTEX
8
0
10
148.000000
20
353.000000
0
VERTEX
8
0
10
148.000000
20
343.000000
0
VERTEX
8
0
10
149.430769
20
335.053846
0
VERTEX
8
0
10
154.000000
20
326.000000
0
VERTEX
8
0
10
157.000000
20
325.000000
0
SEQEND
0
POLYLINE
8
0
6
CONTINUOUS
66
1
62
7
10
0.0
20
0.0
30
0.000000
0
VERTEX
8
0
10
302.000000
20
285.000000
0
VERTEX
8
0
10
322.100000
20
288.700000
0
VERTEX
8
0
10
338.846154
20
295.230769
0
VERTEX
8
0
10
343.100000
20
297.800000
0
VERTEX
8
0
10
348.000000
20
302.000000
0
VERTEX
8
0
10
352.200000
20
307.900000
0
VERTEX
8
0
10
358.700000
20
322.100000
0
VERTEX
8
0
10
362.000000
20
333.000000
0
VERTEX
8
0
10
361.300000
20
337.100000
0
VERTEX
8
0
10
360.700000
20
338.900000
0
VERTEX
8
0
10
356.769231
20
344.846154
0
VERTEX
8
0
10
352.000000
20
351.000000
0
VERTEX
8
0
10
343.100000
20
356.300000
0
VERTEX
8
0
10
333.000000
20
358.000000
0
VERTEX
8
0
10
325.088235
20
355.647059
0
VERTEX
8
0
10
296.100000
20
341.800000
0
VERTEX
8
0
10
283.100000
20
336.700000
0
VERTEX
8
0
10
272.000000
20
334.000000
0
VERTEX
8
0
10
264.000000
20
334.000000
0
VERTEX
8
0
10
258.067568
20
335.405405
0
VERTEX
8
0
10
246.000000
20
338.000000
0
VERTEX
8
0
10
239.000000
20
338.000000
0
VERTEX
8
0
10
237.000000
20
336.000000
0
VERTEX
8
0
10
237.000000
20
334.000000
0
VERTEX
8
0
10
247.240000
20
315.180000
0
VERTEX
8
0
10
249.760000
20
311.820000
0
VERTEX
8
0
10
253.000000
20
307.000000
0
VERTEX
8
0
10
265.000000
20
295.000000
0
VERTEX
8
0
10
284.067568
20
287.405405
0
VERTEX
8
0
10
302.000000
20
285.000000
0
SEQEND
0
POLYLINE
8
0
6
CONTINUOUS
66
1
62
7
10
0.0
20
0.0
30
0.000000
0
VERTEX
8
0
10
445.000000
20
280.000000
0
VERTEX
8
0
10
461.911765
20
284.352941
0
VERTEX
8
0
10
471.795082
20
289.245902
0
VERTEX
8
0
10
478.000000
20
294.000000
0
VERTEX
8
0
10
485.230769
20
302.846154
0
VERTEX
8
0
10
486.769231
20
305.153846
0
VERTEX
8
0
10
495.000000
20
323.000000
0
VERTEX
8
0
10
495.000000
20
330.000000
0
VERTEX
8
0
10
492.000000
20
333.000000
0
VERTEX
8
0
10
464.900000
20
342.700000
0
VERTEX
8
0
10
461.900000
20
343.700000
0
VERTEX
8
0
10
420.067568
20
357.405405
0
VERTEX
8
0
10
402.000000
20
359.000000
0
VERTEX
8
0
10
393.100000
20
355.800000
0
VERTEX
8
0
10
388.000000
20
353.000000
0
VERTEX
8
0
10
383.769231
20
348.153846
0
VERTEX
8
0
10
380.000000
20
341.000000
0
VERTEX
8
0
10
380.000000
20
332.000000
0
VERTEX
8
0
10
381.300000
20
329.100000
0
VERTEX
8
0
10
383.700000
20
322.900000
0
VERTEX
8
0
10
387.230769
20
314.153846
0
VERTEX
8
0
10
391.240000
20
308.180000
0
VERTEX
8
0
10
399.000000
20
298.000000
0
VERTEX
8
0
10
410.204918
20
289.245902
0
VERTEX
8
0
10
415.100000
20
286.200000
0
VERTEX
8
0
10
420.100000
20
284.200000
0
VERTEX
8
0
10
431.053846
20
281.430769
0
VERTEX
8
0
10
445.000000
20
280.000000
0
SEQEND
0
POLYLINE
8
0
6
CONTINUOUS
66
1
62
7
10
0.0
20
0.0
30
0.000000
0
VERTEX
8
0
10
383.000000
20
71.000000
0
VERTEX
8
0
10
385.153846
20
72.769231
0
VERTEX
8
0
10
405.153846
20
86.769231
0
VERTEX
8
0
10
455.900000
20
115.200000
0
VERTEX
8
0
10
470.100000
20
122.800000
0
VERTEX
8
0
10
515.000000
20
145.000000
0
VERTEX
8
0
10
517.000000
20
147.000000
0
VERTEX
8
0
10
542.769231
20
184.153846
0
VERTEX
8
0
10
555.700000
20
211.100000
0
VERTEX
8
0
10
560.352941
20
228.911765
0
VERTEX
8
0
10
562.560976
20
238.048780
0
VERTEX
8
0
10
565.000000
20
263.000000
0
VERTEX
8
0
10
565.000000
20
295.000000
0
VERTEX
8
0
10
562.594595
20
306.932432
0
VERTEX
8
0
10
556.700000
20
328.900000
0
VERTEX
8
0
10
550.700000
20
342.900000
0
VERTEX
8
0
10
538.800000
20
364.900000
0
VERTEX
8
0
10
523.756098
20
385.804878
0
VERTEX
8
0
10
509.000000
20
403.000000
0
VERTEX
8
0
10
502.000000
20
407.000000
0
VERTEX
8
0
10
498.000000
20
403.000000
0
VERTEX
8
0
10
495.200000
20
396.900000
0
VERTEX
8
0
10
492.000000
20
388.000000
0
VERTEX
8
0
10
495.230769
20
381.153846
0
VERTEX
8
0
10
498.800000
20
374.900000
0
VERTEX
8
0
10
503.000000
20
353.000000
0
VERTEX
8
0
10
505.000000
20
351.000000
0
VERTEX
8
0
10
514.000000
20
350.000000
0
VERTEX
8
0
10
516.000000
20
348.000000
0
VERTEX
8
0
10
515.450820
20
339.959016
0
VERTEX
8
0
10
513.647059
20
326.088235
0
VERTEX
8
0
10
510.200000
20
312.900000
0
VERTEX
8
0
10
508.200000
20
308.900000
0
VERTEX
8
0
10
499.760000
20
293.180000
0
VERTEX
8
0
10
491.240000
20
281.820000
0
VERTEX
8
0
10
485.204918
20
275.754098
0
VERTEX
8
0
10
473.900000
20
267.200000
0
VERTEX
8
0
10
473.100000
20
266.800000
0
VERTEX
8
0
10
463.955446
20
263.445545
0
VERTEX
8
0
10
454.000000
20
262.000000
0
VERTEX
8
0
10
436.955446
20
262.554455
0
VERTEX
8
0
10
428.044554
20
263.445545
0
VERTEX
8
0
10
422.100000
20
265.300000
0
VERTEX
8
0
10
417.100000
20
267.300000
0
VERTEX
8
0
10
395.000000
20
276.000000
0
VERTEX
8
0
10
391.000000
20
276.000000
0
VERTEX
8
0
10
385.195122
20
272.756098
0
VERTEX
8
0
10
376.689655
20
266.724138
0
VERTEX
8
0
10
372.000000
20
265.000000
0
VERTEX
8
0
10
366.000000
20
265.000000
0
VERTEX
8
0
10
362.088235
20
266.352941
0
VERTEX
8
0
10
353.180000
20
270.240000
0
VERTEX
8
0
10
345.000000
20
275.000000
0
VERTEX
8
0
10
323.932432
20
271.405405
0
VERTEX
8
0
10
319.067568
20
270.594595
0
VERTEX
8
0
10
312.000000
20
269.000000
0
VERTEX
8
0
10
300.000000
20
269.000000
0
VERTEX
8
0
10
274.076923
20
273.384615
0
VERTEX
8
0
10
270.088235
20
274.352941
0
VERTEX
8
0
10
256.153846
20
281.230769
0
VERTEX
8
0
10
253.846154
20
282.769231
0
VERTEX
8
0
10
245.000000
20
289.000000
0
VERTEX
8
0
10
234.800000
20
300.900000
0
VERTEX
8
0
10
229.352941
20
312.088235
0
VERTEX
8
0
10
226.647059
20
321.911765
0
VERTEX
8
0
10
225.000000
20
331.000000
0
VERTEX
8
0
10
225.000000
20
339.000000
0
VERTEX
8
0
10
226.200000
20
340.900000
0
VERTEX
8
0
10
233.647059
20
356.088235
0
VERTEX
8
0
10
235.430769
20
366.946154
0
VERTEX
8
0
10
237.200000
20
372.900000
0
VERTEX
8
0
10
245.300000
20
385.900000
0
VERTEX
8
0
10
246.000000
20
387.000000
0
VERTEX
8
0
10
242.594595
20
406.932432
0
VERTEX
8
0
10
242.000000
20
408.000000
0
VERTEX
8
0
10
244.594595
20
430.067568
0
VERTEX
8
0
10
246.000000
20
443.000000
0
VERTEX
8
0
10
245.000000
20
444.000000
0
VERTEX
8
0
10
242.900000
20
443.200000
0
VERTEX
8
0
10
238.000000
20
440.000000
0
VERTEX
8
0
10
233.000000
20
435.000000
0
VERTEX
8
0
10
224.240000
20
422.820000
0
VERTEX
8
0
10
211.230769
20
403.846154
0
VERTEX
8
0
10
202.230769
20
389.846154
0
VERTEX
8
0
10
191.300000
20
368.900000
0
VERTEX
8
0
10
186.800000
20
359.100000
0
VERTEX
8
0
10
180.352941
20
339.911765
0
VERTEX
8
0
10
178.700000
20
334.100000
0
VERTEX
8
0
10
174.468966
20
306.972414
0
VERTEX
8
0
10
173.531034
20
291.027586
0
VERTEX
8
0
10
173.000000
20
264.000000
0
VERTEX
8
0
10
175.352941
20
245.088235
0
VERTEX
8
0
10
175.647059
20
243.911765
0
VERTEX
8
0
10
181.200000
20
224.100000
0
VERTEX
8
0
10
182.300000
20
221.100000
0
VERTEX
8
0
10
191.230769
20
200.153846
0
VERTEX
8
0
10
199.769231
20
185.846154
0
VERTEX
8
0
10
217.000000
20
163.000000
0
VERTEX
8
0
10
240.000000
20
140.000000
0
VERTEX
8
0
10
261.180000
20
124.240000
0
VERTEX
8
0
10
283.100000
20
112.200000
0
VERTEX
8
0
10
302.900000
20
102.800000
0
VERTEX
8
0
10
359.100000
20
80.300000
0
VERTEX
8
0
10
383.000000
20
71.000000
0
SEQEND
0
POLYLINE
8
0
6
CONTINUOUS
66
1
62
7
10
0.0
20
0.0
30
0.000000
0
VERTEX
8
0
10
384.000000
20
40.000000
0
VERTEX
8
0
10
395.900000
20
43.300000
0
VERTEX
8
0
10
404.820000
20
48.240000
0
VERTEX
8
0
10
418.180000
20
58.760000
0
VERTEX
8
0
10
480.153846
20
92.769231
0
VERTEX
8
0
10
498.100000
20
101.800000
0
VERTEX
8
0
10
531.820000
20
119.240000
0
VERTEX
8
0
10
536.000000
20
122.000000
0
VERTEX
8
0
10
554.243902
20
144.804878
0
VERTEX
8
0
10
557.756098
20
149.195122
0
VERTEX
8
0
10
568.800000
20
166.100000
0
VERTEX
8
0
10
574.800000
20
178.100000
0
VERTEX
8
0
10
584.700000
20
200.100000
0
VERTEX
8
0
10
586.800000
20
206.100000
0
VERTEX
8
0
10
590.647059
20
221.088235
0
VERTEX
8
0
10
592.352941
20
227.911765
0
VERTEX
8
0
10
596.000000
20
248.000000
0
VERTEX
8
0
10
596.000000
20
300.000000
0
VERTEX
8
0
10
594.569231
20
307.946154
0
VERTEX
8
0
10
590.300000
20
327.100000
0
VERTEX
8
0
10
588.700000
20
331.900000
0
VERTEX
8
0
10
576.800000
20
358.900000
0
VERTEX
8
0
10
575.300000
20
362.100000
0
VERTEX
8
0
10
568.769231
20
375.846154
0
VERTEX
8
0
10
565.769231
20
380.846154
0
VERTEX
8
0
10
560.576923
20
388.615385
0
VERTEX
8
0
10
568.756098
20
399.195122
0
VERTEX
8
0
10
580.200000
20
416.900000
0
VERTEX
8
0
10
582.200000
20
420.900000
0
VERTEX
8
0
10
589.647059
20
444.088235
0
VERTEX
8
0
10
590.352941
20
446.911765
0
VERTEX
8
0
10
592.000000
20
454.000000
0
VERTEX
8
0
10
592.000000
20
476.000000
0
VERTEX
8
0
10
586.700000
20
492.900000
0
VERTEX
8
0
10
584.200000
20
498.100000
0
VERTEX
8
0
10
579.000000
20
506.000000
0
VERTEX
8
0
10
565.000000
20
520.000000
0
VERTEX
8
0
10
542.804878
20
537.756098
0
VERTEX
8
0
10
542.000000
20
538.000000
0
VERTEX
8
0
10
540.000000
20
540.000000
0
VERTEX
8
0
10
540.700000
20
542.100000
0
VERTEX
8
0
10
543.000000
20
551.000000
0
VERTEX
8
0
10
541.352941
20
556.088235
0
VERTEX
8
0
10
537.200000
20
568.100000
0
VERTEX
8
0
10
528.230769
20
584.153846
0
VERTEX
8
0
10
508.752941
20
610.788235
0
VERTEX
8
0
10
503.247059
20
617.211765
0
VERTEX
8
0
10
488.230032
20
632.249201
0
VERTEX
8
0
10
475.769968
20
643.750799
0
VERTEX
8
0
10
465.900000
20
650.800000
0
VERTEX
8
0
10
458.820000
20
655.760000
0
VERTEX
8
0
10
436.900000
20
668.800000
0
VERTEX
8
0
10
424.100000
20
675.200000
0
VERTEX
8
0
10
401.100000
20
684.300000
0
VERTEX
8
0
10
398.100000
20
685.300000
0
VERTEX
8
0
10
387.000000
20
689.000000
0
VERTEX
8
0
10
388.000000
20
690.000000
0
VERTEX
8
0
10
388.000000
20
700.000000
0
VERTEX
8
0
10
387.300000
20
701.100000
0
VERTEX
8
0
10
382.760000
20
710.820000
0
VERTEX
8
0
10
380.000000
20
715.000000
0
VERTEX
8
0
10
373.100000
20
720.200000
0
VERTEX
8
0
10
371.100000
20
721.200000
0
VERTEX
8
0
10
364.076923
20
723.384615
0
VERTEX
8
0
10
359.000000
20
725.000000
0
VERTEX
8
0
10
353.923077
20
724.384615
0
VERTEX
8
0
10
345.076923
20
722.615385
0
VERTEX
8
0
10
336.000000
20
718.000000
0
VERTEX
8
0
10
332.000000
20
714.000000
0
VERTEX
8
0
10
327.230769
20
705.846154
0
VERTEX
8
0
10
326.800000
20
705.100000
0
VERTEX
8
0
10
325.439024
20
699.951220
0
VERTEX
8
0
10
324.750000
20
691.250000
0
VERTEX
8
0
10
320.900000
20
691.700000
0
VERTEX
8
0
10
319.100000
20
692.300000
0
VERTEX
8
0
10
318.000000
20
693.000000
0
VERTEX
8
0
10
313.000000
20
693.000000
0
VERTEX
8
0
10
288.088235
20
686.647059
0
VERTEX
8
0
10
273.088235
20
682.647059
0
VERTEX
8
0
10
232.100000
20
667.800000
0
VERTEX
8
0
10
223.100000
20
663.800000
0
VERTEX
8
0
10
197.900000
20
650.200000
0
VERTEX
8
0
10
184.820000
20
640.240000
0
VERTEX
8
0
10
174.000000
20
631.000000
0
VERTEX
8
0
10
163.800000
20
618.100000
0
VERTEX
8
0
10
152.300000
20
596.900000
0
VERTEX
8
0
10
150.700000
20
592.100000
0
VERTEX
8
0
10
146.352941
20
578.911765
0
VERTEX
8
0
10
144.647059
20
572.088235
0
VERTEX
8
0
10
140.569231
20
549.053846
0
VERTEX
8
0
10
139.000000
20
540.000000
0
VERTEX
8
0
10
139.000000
20
514.000000
0
VERTEX
8
0
10
144.430769
20
461.053846
0
VERTEX
8
0
10
146.000000
20
447.000000
0
VERTEX
8
0
10
146.000000
20
401.000000
0
VERTEX
8
0
10
127.000000
20
387.000000
0
VERTEX
8
0
10
125.800000
20
384.100000
0
VERTEX
8
0
10
119.352941
20
370.911765
0
VERTEX
8
0
10
117.549180
20
357.040984
0
VERTEX
8
0
10
117.000000
20
337.000000
0
VERTEX
8
0
10
120.700000
20
321.900000
0
VERTEX
8
0
10
124.240000
20
313.180000
0
VERTEX
8
0
10
127.243902
20
309.195122
0
VERTEX
8
0
10
134.000000
20
301.000000
0
VERTEX
8
0
10
136.900000
20
299.800000
0
VERTEX
8
0
10
142.000000
20
297.000000
0
VERTEX
8
0
10
142.000000
20
284.000000
0
VERTEX
8
0
10
141.000000
20
283.000000
0
VERTEX
8
0
10
142.569231
20
249.946154
0
VERTEX
8
0
10
143.430769
20
243.053846
0
VERTEX
8
0
10
147.352941
20
227.088235
0
VERTEX
8
0
10
150.647059
20
215.911765
0
VERTEX
8
0
10
156.200000
20
201.100000
0
VERTEX
8
0
10
164.800000
20
184.900000
0
VERTEX
8
0
10
178.240000
20
162.180000
0
VERTEX
8
0
10
187.756098
20
149.804878
0
VERTEX
8
0
10
201.000000
20
134.000000
0
VERTEX
8
0
10
211.000000
20
124.000000
0
VERTEX
8
0
10
226.204918
20
111.245902
0
VERTEX
8
0
10
244.900000
20
97.800000
0
VERTEX
8
0
10
252.153846
20
93.230769
0
VERTEX
8
0
10
277.100000
20
80.200000
0
VERTEX
8
0
10
281.900000
20
77.800000
0
VERTEX
8
0
10
333.900000
20
56.800000
0
VERTEX
8
0
10
377.053846
20
40.430769
0
VERTEX
8
0
10
384.000000
20
40.000000
0
SEQEND
0
ENDSEC
0
EOF
