0
SECTION
2
HEADER
9
$ACADVER
1
AC1003
9
$INSBASE
10
0.0
20
0.0
30
0.0
9
$EXTMIN
10
0.000
20
0.000
30
0.0
9
$EXTMAX
10
574.000
20
713.000
30
0.0
9
$LIMMIN
10
0.000
20
0.000
9
$LIMMAX
10
574.000
20
713.000
9
$LTSCALE
40
1.0
9
$LUNITS
70
2
9
$LUPREC
70
3
9
$LIMCHECK
70
0
9
$UCSNAME
2

9
$UCSORG
10
0.0
20
0.0
30
0.0
9
$UCSXDIR
10
1.0
20
0.0
30
0.0
9
$UCSYDIR
10
0.0
20
1.0
30
0.0
9
$WORLDVIEW
70
1
9
$UNITMODE
70
0
0
ENDSEC
0
SECTION
2
TABLES
0
TABLE
2
VPORT
70
1
0
VPORT
2
*ACTIVE
70
0
10
0.0
20
0.0
11
1.0
21
1.0
12
287.000
22
356.500
13
0.0
23
0.0
14
1.0
24
1.0
15
0.0
25
0.0
16
0.0
26
0.0
36
1.0
17
0.0
27
0.0
37
0.0
40
500.0
41
1.242
42
50.0
43
0.0
44
0.0
50
0.0
51
0.0
71
0
72
100
73
1
74
1
75
0
76
0
77
0
78
0
0
ENDTAB
0
TABLE
2
LTYPE
70
1
0
LTYPE
2
CONTINUOUS
70
64
3
Solid line
72
65
73
0
40
0.000
0
ENDTAB
0
TABLE
2
LAYER
70
1
0
LAYER
2
0
70
64
62
7
6
CONTINUOUS
0
ENDTAB
0
ENDSEC
0
SECTION
2
BLOCKS
0
ENDSEC
0
SECTION
2
ENTITIES
0
POLYLINE
8
0
6
CONTINUOUS
66
1
62
7
10
0.0
20
0.0
30
0.000000
0
VERTEX
8
0
10
286.000000
20
601.000000
0
VERTEX
8
0
10
293.000000
20
604.000000
0
VERTEX
8
0
10
295.230769
20
606.846154
0
VERTEX
8
0
10
297.000000
20
609.000000
0
VERTEX
8
0
10
297.000000
20
616.000000
0
VERTEX
8
0
10
295.800000
20
617.900000
0
VERTEX
8
0
10
295.000000
20
620.000000
0
VERTEX
8
0
10
290.000000
20
624.000000
0
VERTEX
8
0
10
282.000000
20
624.000000
0
VERTEX
8
0
10
276.000000
20
619.000000
0
VERTEX
8
0
10
275.000000
20
617.000000
0
VERTEX
8
0
10
275.000000
20
609.000000
0
VERTEX
8
0
10
276.000000
20
606.000000
0
VERTEX
8
0
10
281.310345
20
602.724138
0
VERTEX
8
0
10
286.000000
20
601.000000
0
SEQEND
0
POLYLINE
8
0
6
CONTINUOUS
66
1
62
7
10
0.0
20
0.0
30
0.000000
0
VERTEX
8
0
10
163.000000
20
454.000000
0
VERTEX
8
0
10
176.100000
20
459.800000
0
VERTEX
8
0
10
218.900000
20
481.300000
0
VERTEX
8
0
10
234.900000
20
487.300000
0
VERTEX
8
0
10
277.067568
20
498.594595
0
VERTEX
8
0
10
281.932432
20
499.405405
0
VERTEX
8
0
10
290.000000
20
501.000000
0
VERTEX
8
0
10
301.000000
20
501.000000
0
VERTEX
8
0
10
357.067568
20
495.405405
0
VERTEX
8
0
10
361.932432
20
494.594595
0
VERTEX
8
0
10
366.900000
20
492.800000
0
VERTEX
8
0
10
398.000000
20
482.000000
0
VERTEX
8
0
10
400.000000
20
482.000000
0
VERTEX
8
0
10
401.000000
20
483.000000
0
VERTEX
8
0
10
403.594595
20
490.067568
0
VERTEX
8
0
10
404.405405
20
494.932432
0
VERTEX
8
0
10
406.000000
20
506.000000
0
VERTEX
8
0
10
406.000000
20
527.000000
0
VERTEX
8
0
10
401.000000
20
539.000000
0
VERTEX
8
0
10
399.000000
20
541.000000
0
VERTEX
8
0
10
383.900000
20
549.800000
0
VERTEX
8
0
10
379.900000
20
551.800000
0
VERTEX
8
0
10
356.100000
20
562.300000
0
VERTEX
8
0
10
350.100000
20
564.300000
0
VERTEX
8
0
10
338.932432
20
567.594595
0
VERTEX
8
0
10
334.067568
20
568.405405
0
VERTEX
8
0
10
315.000000
20
572.000000
0
VERTEX
8
0
10
279.000000
20
572.000000
0
VERTEX
8
0
10
247.100000
20
565.700000
0
VERTEX
8
0
10
236.100000
20
561.700000
0
VERTEX
8
0
10
210.900000
20
551.200000
0
VERTEX
8
0
10
204.900000
20
548.200000
0
VERTEX
8
0
10
188.153846
20
538.769231
0
VERTEX
8
0
10
180.153846
20
533.769231
0
VERTEX
8
0
10
158.000000
20
517.000000
0
VERTEX
8
0
10
154.760000
20
512.180000
0
VERTEX
8
0
10
151.000000
20
507.000000
0
VERTEX
8
0
10
151.000000
20
492.000000
0
VERTEX
8
0
10
152.430769
20
484.053846
0
VERTEX
8
0
10
156.700000
20
464.900000
0
VERTEX
8
0
10
157.800000
20
461.900000
0
VERTEX
8
0
10
160.000000
20
456.000000
0
VERTEX
8
0
10
162.000000
20
454.000000
0
VERTEX
8
0
10
163.000000
20
454.000000
0
SEQEND
0
POLYLINE
8
0
6
CONTINUOUS
66
1
62
7
10
0.0
20
0.0
30
0.000000
0
VERTEX
8
0
10
176.000000
20
371.000000
0
VERTEX
8
0
10
209.846154
20
393.230769
0
VERTEX
8
0
10
248.100000
20
412.700000
0
VERTEX
8
0
10
253.100000
20
414.700000
0
VERTEX
8
0
10
275.923077
20
422.384615
0
VERTEX
8
0
10
292.000000
20
425.000000
0
VERTEX
8
0
10
301.037931
20
424.455172
0
VERTEX
8
0
10
318.940000
20
422.580000
0
VERTEX
8
0
10
345.911765
20
414.647059
0
VERTEX
8
0
10
350.100000
20
413.300000
0
VERTEX
8
0
10
398.100000
20
392.200000
0
VERTEX
8
0
10
400.900000
20
390.800000
0
VERTEX
8
0
10
405.000000
20
389.000000
0
VERTEX
8
0
10
411.000000
20
390.000000
0
VERTEX
8
0
10
414.000000
20
395.000000
0
VERTEX
8
0
10
414.000000
20
414.000000
0
VERTEX
8
0
10
409.580000
20
441.940000
0
VERTEX
8
0
10
405.700000
20
457.900000
0
VERTEX
8
0
10
405.200000
20
459.100000
0
VERTEX
8
0
10
401.000000
20
466.000000
0
VERTEX
8
0
10
384.900000
20
474.800000
0
VERTEX
8
0
10
378.900000
20
477.800000
0
VERTEX
8
0
10
352.088235
20
487.352941
0
VERTEX
8
0
10
348.088235
20
488.352941
0
VERTEX
8
0
10
331.955446
20
491.554455
0
VERTEX
8
0
10
323.044554
20
492.445545
0
VERTEX
8
0
10
322.000000
20
493.000000
0
VERTEX
8
0
10
294.000000
20
493.000000
0
VERTEX
8
0
10
279.060000
20
490.580000
0
VERTEX
8
0
10
252.088235
20
484.647059
0
VERTEX
8
0
10
223.100000
20
472.800000
0
VERTEX
8
0
10
216.900000
20
470.200000
0
VERTEX
8
0
10
193.846154
20
457.230769
0
VERTEX
8
0
10
188.846154
20
454.230769
0
VERTEX
8
0
10
169.000000
20
442.000000
0
VERTEX
8
0
10
164.000000
20
437.000000
0
VERTEX
8
0
10
162.517241
20
433.793103
0
VERTEX
8
0
10
161.647059
20
431.088235
0
VERTEX
8
0
10
160.000000
20
422.000000
0
VERTEX
8
0
10
160.000000
20
411.000000
0
VERTEX
8
0
10
161.445545
20
401.044554
0
VERTEX
8
0
10
161.615385
20
399.923077
0
VERTEX
8
0
10
165.300000
20
384.100000
0
VERTEX
8
0
10
165.800000
20
382.900000
0
VERTEX
8
0
10
171.000000
20
372.000000
0
VERTEX
8
0
10
172.000000
20
371.000000
0
VERTEX
8
0
10
176.000000
20
371.000000
0
SEQEND
0
POLYLINE
8
0
6
CONTINUOUS
66
1
62
7
10
0.0
20
0.0
30
0.000000
0
VERTEX
8
0
10
239.000000
20
295.000000
0
VERTEX
8
0
10
243.100000
20
296.800000
0
VERTEX
8
0
10
251.795082
20
301.245902
0
VERTEX
8
0
10
261.000000
20
309.000000
0
VERTEX
8
0
10
264.800000
20
316.100000
0
VERTEX
8
0
10
265.200000
20
316.900000
0
VERTEX
8
0
10
267.000000
20
322.000000
0
VERTEX
8
0
10
267.000000
20
329.000000
0
VERTEX
8
0
10
264.000000
20
334.000000
0
VERTEX
8
0
10
261.000000
20
336.000000
0
VERTEX
8
0
10
253.000000
20
336.000000
0
VERTEX
8
0
10
251.100000
20
334.800000
0
VERTEX
8
0
10
247.900000
20
333.200000
0
VERTEX
8
0
10
243.211765
20
330.752941
0
VERTEX
8
0
10
230.000000
20
319.000000
0
VERTEX
8
0
10
226.000000
20
308.000000
0
VERTEX
8
0
10
228.230769
20
304.153846
0
VERTEX
8
0
10
232.000000
20
299.000000
0
VERTEX
8
0
10
239.000000
20
295.000000
0
SEQEND
0
POLYLINE
8
0
6
CONTINUOUS
66
1
62
7
10
0.0
20
0.0
30
0.000000
0
VERTEX
8
0
10
344.000000
20
293.000000
0
VERTEX
8
0
10
351.000000
20
298.000000
0
VERTEX
8
0
10
351.700000
20
300.100000
0
VERTEX
8
0
10
352.300000
20
301.900000
0
VERTEX
8
0
10
354.000000
20
312.000000
0
VERTEX
8
0
10
350.200000
20
324.100000
0
VERTEX
8
0
10
348.200000
20
328.100000
0
VERTEX
8
0
10
347.000000
20
331.000000
0
VERTEX
8
0
10
337.000000
20
339.000000
0
VERTEX
8
0
10
331.000000
20
339.000000
0
VERTEX
8
0
10
327.000000
20
337.000000
0
VERTEX
8
0
10
322.000000
20
330.000000
0
VERTEX
8
0
10
322.000000
20
321.000000
0
VERTEX
8
0
10
323.300000
20
318.100000
0
VERTEX
8
0
10
323.700000
20
316.900000
0
VERTEX
8
0
10
326.230769
20
311.153846
0
VERTEX
8
0
10
333.000000
20
301.000000
0
VERTEX
8
0
10
336.820000
20
297.760000
0
VERTEX
8
0
10
344.000000
20
293.000000
0
SEQEND
0
POLYLINE
8
0
6
CONTINUOUS
66
1
62
7
10
0.0
20
0.0
30
0.000000
0
VERTEX
8
0
10
157.000000
20
274.000000
0
VERTEX
8
0
10
164.000000
20
279.000000
0
VERTEX
8
0
10
168.580000
20
309.060000
0
VERTEX
8
0
10
169.420000
20
314.940000
0
VERTEX
8
0
10
171.200000
20
321.900000
0
VERTEX
8
0
10
174.000000
20
326.000000
0
VERTEX
8
0
10
197.900000
20
336.200000
0
VERTEX
8
0
10
219.088235
20
344.647059
0
VERTEX
8
0
10
247.900000
20
353.300000
0
VERTEX
8
0
10
262.067568
20
357.594595
0
VERTEX
8
0
10
266.932432
20
358.405405
0
VERTEX
8
0
10
286.000000
20
361.000000
0
VERTEX
8
0
10
341.000000
20
361.000000
0
VERTEX
8
0
10
373.970817
20
358.533074
0
VERTEX
8
0
10
383.955446
20
357.554455
0
VERTEX
8
0
10
389.900000
20
355.700000
0
VERTEX
8
0
10
391.100000
20
355.300000
0
VERTEX
8
0
10
396.846154
20
352.769231
0
VERTEX
8
0
10
404.000000
20
348.000000
0
VERTEX
8
0
10
407.240000
20
344.180000
0
VERTEX
8
0
10
411.769231
20
337.846154
0
VERTEX
8
0
10
413.647059
20
332.911765
0
VERTEX
8
0
10
415.300000
20
327.100000
0
VERTEX
8
0
10
417.000000
20
316.000000
0
VERTEX
8
0
10
416.000000
20
293.000000
0
VERTEX
8
0
10
419.000000
20
288.000000
0
VERTEX
8
0
10
427.000000
20
287.000000
0
VERTEX
8
0
10
446.900000
20
296.200000
0
VERTEX
8
0
10
448.820000
20
297.240000
0
VERTEX
8
0
10
458.000000
20
304.000000
0
VERTEX
8
0
10
462.300000
20
313.900000
0
VERTEX
8
0
10
464.000000
20
320.000000
0
VERTEX
8
0
10
464.000000
20
326.000000
0
VERTEX
8
0
10
462.594595
20
331.932432
0
VERTEX
8
0
10
459.769231
20
336.846154
0
VERTEX
8
0
10
458.000000
20
340.000000
0
VERTEX
8
0
10
442.153846
20
352.230769
0
VERTEX
8
0
10
410.846154
20
372.769231
0
VERTEX
8
0
10
392.100000
20
383.200000
0
VERTEX
8
0
10
353.900000
20
399.800000
0
VERTEX
8
0
10
324.900000
20
409.700000
0
VERTEX
8
0
10
323.100000
20
410.300000
0
VERTEX
8
0
10
301.000000
20
416.000000
0
VERTEX
8
0
10
290.000000
20
416.000000
0
VERTEX
8
0
10
269.911765
20
412.352941
0
VERTEX
8
0
10
252.100000
20
405.700000
0
VERTEX
8
0
10
207.100000
20
383.800000
0
VERTEX
8
0
10
158.900000
20
354.200000
0
VERTEX
8
0
10
139.211765
20
339.752941
0
VERTEX
8
0
10
132.216814
20
333.752212
0
VERTEX
8
0
10
117.000000
20
320.000000
0
VERTEX
8
0
10
112.245902
20
313.795082
0
VERTEX
8
0
10
109.405405
20
307.932432
0
VERTEX
8
0
10
108.594595
20
303.067568
0
VERTEX
8
0
10
108.000000
20
296.000000
0
VERTEX
8
0
10
109.384615
20
291.076923
0
VERTEX
8
0
10
110.000000
20
288.000000
0
VERTEX
8
0
10
112.820000
20
285.760000
0
VERTEX
8
0
10
119.900000
20
280.800000
0
VERTEX
8
0
10
138.923077
20
275.615385
0
VERTEX
8
0
10
145.035294
20
274.458824
0
VERTEX
8
0
10
157.000000
20
274.000000
0
SEQEND
0
POLYLINE
8
0
6
CONTINUOUS
66
1
62
7
10
0.0
20
0.0
30
0.000000
0
VERTEX
8
0
10
305.000000
20
217.000000
0
VERTEX
8
0
10
308.800000
20
224.100000
0
VERTEX
8
0
10
311.647059
20
235.088235
0
VERTEX
8
0
10
313.384615
20
242.923077
0
VERTEX
8
0
10
314.000000
20
244.000000
0
VERTEX
8
0
10
314.000000
20
264.000000
0
VERTEX
8
0
10
312.569231
20
271.946154
0
VERTEX
8
0
10
308.200000
20
289.100000
0
VERTEX
8
0
10
304.000000
20
296.000000
0
VERTEX
8
0
10
293.000000
20
300.000000
0
VERTEX
8
0
10
289.000000
20
300.000000
0
VERTEX
8
0
10
282.100000
20
297.700000
0
VERTEX
8
0
10
280.900000
20
297.200000
0
VERTEX
8
0
10
275.000000
20
294.000000
0
VERTEX
8
0
10
272.000000
20
291.000000
0
VERTEX
8
0
10
268.200000
20
284.900000
0
VERTEX
8
0
10
267.800000
20
284.100000
0
VERTEX
8
0
10
265.000000
20
277.000000
0
VERTEX
8
0
10
265.000000
20
272.000000
0
VERTEX
8
0
10
268.300000
20
261.100000
0
VERTEX
8
0
10
277.200000
20
245.100000
0
VERTEX
8
0
10
282.243902
20
237.195122
0
VERTEX
8
0
10
295.000000
20
222.000000
0
VERTEX
8
0
10
299.180000
20
219.240000
0
VERTEX
8
0
10
304.100000
20
217.200000
0
VERTEX
8
0
10
305.000000
20
217.000000
0
SEQEND
0
POLYLINE
8
0
6
CONTINUOUS
66
1
62
7
10
0.0
20
0.0
30
0.000000
0
VERTEX
8
0
10
228.000000
20
215.000000
0
VERTEX
8
0
10
229.100000
20
215.700000
0
VERTEX
8
0
10
234.000000
20
218.000000
0
VERTEX
8
0
10
237.000000
20
221.000000
0
VERTEX
8
0
10
240.000000
20
227.000000
0
VERTEX
8
0
10
237.200000
20
233.100000
0
VERTEX
8
0
10
232.000000
20
241.000000
0
VERTEX
8
0
10
230.000000
20
242.000000
0
VERTEX
8
0
10
224.000000
20
242.000000
0
VERTEX
8
0
10
215.000000
20
234.000000
0
VERTEX
8
0
10
214.000000
20
225.000000
0
VERTEX
8
0
10
216.000000
20
222.000000
0
VERTEX
8
0
10
222.000000
20
216.000000
0
VERTEX
8
0
10
228.000000
20
215.000000
0
SEQEND
0
POLYLINE
8
0
6
CONTINUOUS
66
1
62
7
10
0.0
20
0.0
30
0.000000
0
VERTEX
8
0
10
369.000000
20
214.000000
0
VERTEX
8
0
10
374.000000
20
218.000000
0
VERTEX
8
0
10
374.800000
20
220.100000
0
VERTEX
8
0
10
376.200000
20
222.900000
0
VERTEX
8
0
10
378.000000
20
228.000000
0
VERTEX
8
0
10
377.000000
20
235.000000
0
VERTEX
8
0
10
370.000000
20
241.000000
0
VERTEX
8
0
10
363.000000
20
241.000000
0
VERTEX
8
0
10
361.153846
20
239.769231
0
VERTEX
8
0
10
357.000000
20
237.000000
0
VERTEX
8
0
10
355.800000
20
234.100000
0
VERTEX
8
0
10
354.000000
20
230.000000
0
VERTEX
8
0
10
354.000000
20
226.000000
0
VERTEX
8
0
10
355.300000
20
223.100000
0
VERTEX
8
0
10
355.800000
20
221.900000
0
VERTEX
8
0
10
359.000000
20
218.000000
0
VERTEX
8
0
10
369.000000
20
214.000000
0
SEQEND
0
POLYLINE
8
0
6
CONTINUOUS
66
1
62
7
10
0.0
20
0.0
30
0.000000
0
VERTEX
8
0
10
265.000000
20
195.000000
0
VERTEX
8
0
10
267.000000
20
196.000000
0
VERTEX
8
0
10
270.200000
20
199.900000
0
VERTEX
8
0
10
271.000000
20
201.000000
0
VERTEX
8
0
10
271.000000
20
211.000000
0
VERTEX
8
0
10
270.000000
20
214.000000
0
VERTEX
8
0
10
267.000000
20
217.000000
0
VERTEX
8
0
10
258.000000
20
218.000000
0
VERTEX
8
0
10
256.911765
20
217.352941
0
VERTEX
8
0
10
252.000000
20
216.000000
0
VERTEX
8
0
10
247.800000
20
211.100000
0
VERTEX
8
0
10
247.000000
20
210.000000
0
VERTEX
8
0
10
247.000000
20
204.000000
0
VERTEX
8
0
10
248.000000
20
202.000000
0
VERTEX
8
0
10
251.846154
20
198.769231
0
VERTEX
8
0
10
254.153846
20
197.230769
0
VERTEX
8
0
10
259.060000
20
195.420000
0
VERTEX
8
0
10
265.000000
20
195.000000
0
SEQEND
0
POLYLINE
8
0
6
CONTINUOUS
66
1
62
7
10
0.0
20
0.0
30
0.000000
0
VERTEX
8
0
10
337.000000
20
194.000000
0
VERTEX
8
0
10
344.000000
20
197.000000
0
VERTEX
8
0
10
348.000000
20
203.000000
0
VERTEX
8
0
10
348.000000
20
209.000000
0
VERTEX
8
0
10
347.300000
20
210.100000
0
VERTEX
8
0
10
347.000000
20
212.000000
0
VERTEX
8
0
10
342.000000
20
217.000000
0
VERTEX
8
0
10
338.000000
20
218.000000
0
VERTEX
8
0
10
332.911765
20
217.352941
0
VERTEX
8
0
10
330.000000
20
217.000000
0
VERTEX
8
0
10
325.000000
20
210.000000
0
VERTEX
8
0
10
325.000000
20
201.000000
0
VERTEX
8
0
10
328.000000
20
197.000000
0
VERTEX
8
0
10
337.000000
20
194.000000
0
SEQEND
0
POLYLINE
8
0
6
CONTINUOUS
66
1
62
7
10
0.0
20
0.0
30
0.000000
0
VERTEX
8
0
10
298.000000
20
182.000000
0
VERTEX
8
0
10
303.100000
20
183.800000
0
VERTEX
8
0
10
309.000000
20
189.000000
0
VERTEX
8
0
10
310.000000
20
197.000000
0
VERTEX
8
0
10
308.800000
20
198.900000
0
VERTEX
8
0
10
307.800000
20
200.900000
0
VERTEX
8
0
10
305.000000
20
205.000000
0
VERTEX
8
0
10
304.153846
20
205.230769
0
VERTEX
8
0
10
302.000000
20
207.000000
0
VERTEX
8
0
10
295.000000
20
207.000000
0
VERTEX
8
0
10
290.000000
20
204.000000
0
VERTEX
8
0
10
285.000000
20
199.000000
0
VERTEX
8
0
10
284.000000
20
196.000000
0
VERTEX
8
0
10
284.000000
20
193.000000
0
VERTEX
8
0
10
286.000000
20
189.000000
0
VERTEX
8
0
10
288.846154
20
186.769231
0
VERTEX
8
0
10
298.000000
20
182.000000
0
SEQEND
0
POLYLINE
8
0
6
CONTINUOUS
66
1
62
7
10
0.0
20
0.0
30
0.000000
0
VERTEX
8
0
10
171.000000
20
112.000000
0
VERTEX
8
0
10
172.600000
20
114.200000
0
VERTEX
8
0
10
177.647059
20
138.088235
0
VERTEX
8
0
10
178.352941
20
140.911765
0
VERTEX
8
0
10
197.200000
20
179.900000
0
VERTEX
8
0
10
198.800000
20
183.100000
0
VERTEX
8
0
10
201.000000
20
191.000000
0
VERTEX
8
0
10
198.751131
20
195.773756
0
VERTEX
8
0
10
186.000000
20
210.000000
0
VERTEX
8
0
10
182.000000
20
212.000000
0
VERTEX
8
0
10
178.900000
20
211.200000
0
VERTEX
8
0
10
174.000000
20
208.000000
0
VERTEX
8
0
10
168.000000
20
202.000000
0
VERTEX
8
0
10
158.243902
20
189.804878
0
VERTEX
8
0
10
151.800000
20
179.100000
0
VERTEX
8
0
10
143.352941
20
160.911765
0
VERTEX
8
0
10
141.647059
20
154.088235
0
VERTEX
8
0
10
141.000000
20
153.000000
0
VERTEX
8
0
10
141.000000
20
144.000000
0
VERTEX
8
0
10
142.300000
20
141.100000
0
VERTEX
8
0
10
142.800000
20
139.900000
0
VERTEX
8
0
10
152.000000
20
127.000000
0
VERTEX
8
0
10
158.000000
20
121.000000
0
VERTEX
8
0
10
170.100000
20
112.200000
0
VERTEX
8
0
10
171.000000
20
112.000000
0
SEQEND
0
POLYLINE
8
0
6
CONTINUOUS
66
1
62
7
10
0.0
20
0.0
30
0.000000
0
VERTEX
8
0
10
378.000000
20
98.000000
0
VERTEX
8
0
10
389.000000
20
105.000000
0
VERTEX
8
0
10
393.200000
20
109.900000
0
VERTEX
8
0
10
398.300000
20
119.900000
0
VERTEX
8
0
10
401.549180
20
133.040984
0
VERTEX
8
0
10
403.000000
20
144.000000
0
VERTEX
8
0
10
402.450820
20
161.040984
0
VERTEX
8
0
10
401.549180
20
170.959016
0
VERTEX
8
0
10
396.700000
20
189.900000
0
VERTEX
8
0
10
394.700000
20
195.900000
0
VERTEX
8
0
10
390.000000
20
204.000000
0
VERTEX
8
0
10
384.153846
20
199.769231
0
VERTEX
8
0
10
367.000000
20
187.000000
0
VERTEX
8
0
10
366.800000
20
186.100000
0
VERTEX
8
0
10
365.000000
20
183.000000
0
VERTEX
8
0
10
365.000000
20
180.000000
0
VERTEX
8
0
10
369.352941
20
164.088235
0
VERTEX
8
0
10
372.352941
20
152.088235
0
VERTEX
8
0
10
375.000000
20
133.000000
0
VERTEX
8
0
10
374.000000
20
103.000000
0
VERTEX
8
0
10
375.000000
20
100.000000
0
VERTEX
8
0
10
377.000000
20
98.000000
0
VERTEX
8
0
10
378.000000
20
98.000000
0
SEQEND
0
POLYLINE
8
0
6
CONTINUOUS
66
1
62
7
10
0.0
20
0.0
30
0.000000
0
VERTEX
8
0
10
229.000000
20
87.000000
0
VERTEX
8
0
10
233.000000
20
90.000000
0
VERTEX
8
0
10
244.594595
20
158.067568
0
VERTEX
8
0
10
246.000000
20
166.000000
0
VERTEX
8
0
10
244.100000
20
167.200000
0
VERTEX
8
0
10
213.000000
20
182.000000
0
VERTEX
8
0
10
208.000000
20
182.000000
0
VERTEX
8
0
10
198.800000
20
168.100000
0
VERTEX
8
0
10
195.800000
20
161.100000
0
VERTEX
8
0
10
187.352941
20
135.911765
0
VERTEX
8
0
10
183.580000
20
118.060000
0
VERTEX
8
0
10
183.000000
20
109.000000
0
VERTEX
8
0
10
183.700000
20
107.900000
0
VERTEX
8
0
10
184.000000
20
106.000000
0
VERTEX
8
0
10
189.000000
20
101.000000
0
VERTEX
8
0
10
191.100000
20
100.200000
0
VERTEX
8
0
10
194.153846
20
98.230769
0
VERTEX
8
0
10
213.100000
20
90.300000
0
VERTEX
8
0
10
214.900000
20
89.700000
0
VERTEX
8
0
10
224.067568
20
87.405405
0
VERTEX
8
0
10
229.000000
20
87.000000
0
SEQEND
0
POLYLINE
8
0
6
CONTINUOUS
66
1
62
7
10
0.0
20
0.0
30
0.000000
0
VERTEX
8
0
10
320.000000
20
83.000000
0
VERTEX
8
0
10
337.932432
20
86.405405
0
VERTEX
8
0
10
352.100000
20
90.800000
0
VERTEX
8
0
10
352.900000
20
91.200000
0
VERTEX
8
0
10
356.000000
20
93.000000
0
VERTEX
8
0
10
357.769231
20
96.153846
0
VERTEX
8
0
10
360.594595
20
106.067568
0
VERTEX
8
0
10
361.405405
20
110.932432
0
VERTEX
8
0
10
364.000000
20
124.000000
0
VERTEX
8
0
10
364.000000
20
130.000000
0
VERTEX
8
0
10
359.647059
20
158.911765
0
VERTEX
8
0
10
356.800000
20
168.900000
0
VERTEX
8
0
10
353.000000
20
175.000000
0
VERTEX
8
0
10
346.000000
20
175.000000
0
VERTEX
8
0
10
321.100000
20
164.700000
0
VERTEX
8
0
10
319.900000
20
164.200000
0
VERTEX
8
0
10
315.000000
20
161.000000
0
VERTEX
8
0
10
314.000000
20
159.000000
0
VERTEX
8
0
10
316.000000
20
135.000000
0
VERTEX
8
0
10
316.000000
20
118.000000
0
VERTEX
8
0
10
311.569231
20
89.053846
0
VERTEX
8
0
10
311.250000
20
84.250000
0
VERTEX
8
0
10
313.900000
20
83.700000
0
VERTEX
8
0
10
320.000000
20
83.000000
0
SEQEND
0
POLYLINE
8
0
6
CONTINUOUS
66
1
62
7
10
0.0
20
0.0
30
0.000000
0
VERTEX
8
0
10
284.000000
20
79.000000
0
VERTEX
8
0
10
285.088235
20
79.647059
0
VERTEX
8
0
10
291.000000
20
81.000000
0
VERTEX
8
0
10
296.000000
20
86.000000
0
VERTEX
8
0
10
296.700000
20
88.100000
0
VERTEX
8
0
10
297.300000
20
89.900000
0
VERTEX
8
0
10
299.430769
20
100.946154
0
VERTEX
8
0
10
303.000000
20
151.000000
0
VERTEX
8
0
10
301.000000
20
157.000000
0
VERTEX
8
0
10
296.100000
20
160.200000
0
VERTEX
8
0
10
287.000000
20
162.000000
0
VERTEX
8
0
10
264.000000
20
162.000000
0
VERTEX
8
0
10
262.911765
20
161.352941
0
VERTEX
8
0
10
260.000000
20
161.000000
0
VERTEX
8
0
10
258.000000
20
159.000000
0
VERTEX
8
0
10
255.300000
20
153.900000
0
VERTEX
8
0
10
253.647059
20
148.088235
0
VERTEX
8
0
10
248.000000
20
111.000000
0
VERTEX
8
0
10
248.000000
20
89.000000
0
VERTEX
8
0
10
249.000000
20
85.000000
0
VERTEX
8
0
10
252.000000
20
82.000000
0
VERTEX
8
0
10
256.053846
20
80.430769
0
VERTEX
8
0
10
262.946154
20
79.569231
0
VERTEX
8
0
10
284.000000
20
79.000000
0
SEQEND
0
POLYLINE
8
0
6
CONTINUOUS
66
1
62
7
10
0.0
20
0.0
30
0.000000
0
VERTEX
8
0
10
290.000000
20
39.000000
0
VERTEX
8
0
10
301.900000
20
43.200000
0
VERTEX
8
0
10
303.000000
20
44.000000
0
VERTEX
8
0
10
307.000000
20
44.000000
0
VERTEX
8
0
10
308.000000
20
43.000000
0
VERTEX
8
0
10
330.000000
20
43.000000
0
VERTEX
8
0
10
340.911765
20
45.352941
0
VERTEX
8
0
10
345.923077
20
46.384615
0
VERTEX
8
0
10
358.900000
20
50.200000
0
VERTEX
8
0
10
361.900000
20
51.300000
0
VERTEX
8
0
10
375.040984
20
57.549180
0
VERTEX
8
0
10
386.088235
20
58.647059
0
VERTEX
8
0
10
396.100000
20
62.800000
0
VERTEX
8
0
10
412.000000
20
71.000000
0
VERTEX
8
0
10
421.000000
20
80.000000
0
VERTEX
8
0
10
430.769231
20
95.153846
0
VERTEX
8
0
10
432.200000
20
97.900000
0
VERTEX
8
0
10
436.647059
20
108.088235
0
VERTEX
8
0
10
438.647059
20
116.088235
0
VERTEX
8
0
10
443.000000
20
147.000000
0
VERTEX
8
0
10
443.000000
20
157.000000
0
VERTEX
8
0
10
440.560976
20
176.951220
0
VERTEX
8
0
10
437.647059
20
191.911765
0
VERTEX
8
0
10
435.300000
20
200.100000
0
VERTEX
8
0
10
428.800000
20
216.900000
0
VERTEX
8
0
10
427.800000
20
218.900000
0
VERTEX
8
0
10
417.384615
20
235.076923
0
VERTEX
8
0
10
415.594595
20
244.932432
0
VERTEX
8
0
10
415.250000
20
247.750000
0
VERTEX
8
0
10
430.000000
20
247.000000
0
VERTEX
8
0
10
436.900000
20
249.300000
0
VERTEX
8
0
10
444.911765
20
251.352941
0
VERTEX
8
0
10
467.900000
20
262.200000
0
VERTEX
8
0
10
469.100000
20
262.800000
0
VERTEX
8
0
10
485.000000
20
274.000000
0
VERTEX
8
0
10
490.000000
20
279.000000
0
VERTEX
8
0
10
499.700000
20
298.100000
0
VERTEX
8
0
10
500.300000
20
299.900000
0
VERTEX
8
0
10
504.000000
20
316.000000
0
VERTEX
8
0
10
504.000000
20
332.000000
0
VERTEX
8
0
10
502.647059
20
335.911765
0
VERTEX
8
0
10
498.647059
20
349.911765
0
VERTEX
8
0
10
494.760000
20
356.820000
0
VERTEX
8
0
10
492.240000
20
360.180000
0
VERTEX
8
0
10
481.000000
20
373.000000
0
VERTEX
8
0
10
458.820000
20
389.760000
0
VERTEX
8
0
10
454.000000
20
393.000000
0
VERTEX
8
0
10
453.450820
20
419.040984
0
VERTEX
8
0
10
451.569231
20
436.946154
0
VERTEX
8
0
10
445.647059
20
464.911765
0
VERTEX
8
0
10
444.300000
20
469.100000
0
VERTEX
8
0
10
441.000000
20
477.000000
0
VERTEX
8
0
10
446.000000
20
500.000000
0
VERTEX
8
0
10
446.000000
20
532.000000
0
VERTEX
8
0
10
441.200000
20
547.100000
0
VERTEX
8
0
10
434.756098
20
559.804878
0
VERTEX
8
0
10
431.000000
20
565.000000
0
VERTEX
8
0
10
420.180000
20
574.240000
0
VERTEX
8
0
10
416.820000
20
576.760000
0
VERTEX
8
0
10
393.900000
20
589.800000
0
VERTEX
8
0
10
386.900000
20
592.700000
0
VERTEX
8
0
10
354.088235
20
605.352941
0
VERTEX
8
0
10
352.911765
20
605.647059
0
VERTEX
8
0
10
331.000000
20
611.000000
0
VERTEX
8
0
10
330.384615
20
619.076923
0
VERTEX
8
0
10
327.800000
20
627.900000
0
VERTEX
8
0
10
326.200000
20
631.100000
0
VERTEX
8
0
10
322.000000
20
639.000000
0
VERTEX
8
0
10
315.000000
20
646.000000
0
VERTEX
8
0
10
310.820000
20
648.760000
0
VERTEX
8
0
10
310.100000
20
649.200000
0
VERTEX
8
0
10
296.000000
20
655.000000
0
VERTEX
8
0
10
281.000000
20
655.000000
0
VERTEX
8
0
10
272.100000
20
652.700000
0
VERTEX
8
0
10
262.180000
20
646.760000
0
VERTEX
8
0
10
258.000000
20
644.000000
0
VERTEX
8
0
10
253.760000
20
639.180000
0
VERTEX
8
0
10
251.240000
20
635.820000
0
VERTEX
8
0
10
248.200000
20
628.900000
0
VERTEX
8
0
10
247.800000
20
628.100000
0
VERTEX
8
0
10
245.464602
20
620.969027
0
VERTEX
8
0
10
244.750000
20
606.250000
0
VERTEX
8
0
10
243.100000
20
605.800000
0
VERTEX
8
0
10
229.900000
20
602.300000
0
VERTEX
8
0
10
209.100000
20
594.800000
0
VERTEX
8
0
10
197.100000
20
589.700000
0
VERTEX
8
0
10
172.100000
20
575.800000
0
VERTEX
8
0
10
160.846154
20
569.230769
0
VERTEX
8
0
10
144.795082
20
557.245902
0
VERTEX
8
0
10
134.000000
20
549.000000
0
VERTEX
8
0
10
124.000000
20
539.000000
0
VERTEX
8
0
10
114.800000
20
524.100000
0
VERTEX
8
0
10
112.384615
20
516.923077
0
VERTEX
8
0
10
111.615385
20
513.076923
0
VERTEX
8
0
10
111.000000
20
512.000000
0
VERTEX
8
0
10
111.000000
20
488.000000
0
VERTEX
8
0
10
114.384615
20
471.076923
0
VERTEX
8
0
10
118.700000
20
452.900000
0
VERTEX
8
0
10
122.200000
20
442.100000
0
VERTEX
8
0
10
123.000000
20
441.000000
0
VERTEX
8
0
10
122.352941
20
438.911765
0
VERTEX
8
0
10
121.647059
20
436.088235
0
VERTEX
8
0
10
120.000000
20
425.000000
0
VERTEX
8
0
10
120.000000
20
404.000000
0
VERTEX
8
0
10
125.000000
20
379.000000
0
VERTEX
8
0
10
113.820000
20
370.240000
0
VERTEX
8
0
10
97.000000
20
357.000000
0
VERTEX
8
0
10
88.000000
20
348.000000
0
VERTEX
8
0
10
78.240000
20
335.820000
0
VERTEX
8
0
10
72.200000
20
324.900000
0
VERTEX
8
0
10
71.800000
20
324.100000
0
VERTEX
8
0
10
69.615385
20
317.076923
0
VERTEX
8
0
10
68.000000
20
308.000000
0
VERTEX
8
0
10
68.000000
20
292.000000
0
VERTEX
8
0
10
70.352941
20
281.088235
0
VERTEX
8
0
10
70.700000
20
279.900000
0
VERTEX
8
0
10
75.800000
20
267.900000
0
VERTEX
8
0
10
80.000000
20
261.000000
0
VERTEX
8
0
10
91.846154
20
250.769231
0
VERTEX
8
0
10
98.846154
20
246.769231
0
VERTEX
8
0
10
107.088235
20
242.352941
0
VERTEX
8
0
10
119.900000
20
238.700000
0
VERTEX
8
0
10
144.000000
20
234.000000
0
VERTEX
8
0
10
132.247059
20
220.788235
0
VERTEX
8
0
10
118.230769
20
200.846154
0
VERTEX
8
0
10
115.769231
20
197.153846
0
VERTEX
8
0
10
110.300000
20
186.900000
0
VERTEX
8
0
10
107.700000
20
180.100000
0
VERTEX
8
0
10
103.352941
20
166.911765
0
VERTEX
8
0
10
102.647059
20
164.088235
0
VERTEX
8
0
10
101.000000
20
157.000000
0
VERTEX
8
0
10
101.000000
20
143.000000
0
VERTEX
8
0
10
102.405405
20
137.067568
0
VERTEX
8
0
10
104.700000
20
127.900000
0
VERTEX
8
0
10
110.240000
20
115.180000
0
VERTEX
8
0
10
127.751724
20
94.779310
0
VERTEX
8
0
10
132.820000
20
89.760000
0
VERTEX
8
0
10
145.220690
20
79.248276
0
VERTEX
8
0
10
163.100000
20
70.200000
0
VERTEX
8
0
10
166.153846
20
68.230769
0
VERTEX
8
0
10
176.900000
20
61.800000
0
VERTEX
8
0
10
199.900000
20
52.800000
0
VERTEX
8
0
10
221.932432
20
47.594595
0
VERTEX
8
0
10
233.900000
20
45.800000
0
VERTEX
8
0
10
245.088235
20
41.352941
0
VERTEX
8
0
10
247.911765
20
40.647059
0
VERTEX
8
0
10
255.013493
20
39.485736
0
VERTEX
8
0
10
290.000000
20
39.000000
0
SEQEND
0
ENDSEC
0
EOF
