  0
SECTION
  2
HEADER
  9
$ACADVER
  1
AC1021
  9
$ACADMAINTVER
 70
    25
  9
$DWGCODEPAGE
  3
ANSI_1252
  9
$COMMENTS
  1
File was created by Esprit
  9
$INSBASE
 10
0.0
 20
0.0
 30
0.0
  9
$EXTMIN
 10
1.000000000000000E+20
 20
1.000000000000000E+20
 30
1.000000000000000E+20
  9
$EXTMAX
 10
-1.000000000000000E+20
 20
-1.000000000000000E+20
 30
-1.000000000000000E+20
  9
$LIMMIN
 10
0.0
 20
0.0
  9
$LIMMAX
 10
12.0
 20
9.0
  9
$ORTHOMODE
 70
     0
  9
$REGENMODE
 70
     1
  9
$FILLMODE
 70
     1
  9
$QTEXTMODE
 70
     0
  9
$MIRRTEXT
 70
     1
  9
$LTSCALE
 40
1.0
  9
$ATTMODE
 70
     1
  9
$TEXTSIZE
 40
0.2
  9
$TRACEWID
 40
0.05
  9
$TEXTSTYLE
  7
Standard
  9
$CLAYER
  8
0
  9
$CELTYPE
  6
ByLayer
  9
$CECOLOR
 62
   256
  9
$CELTSCALE
 40
1.0
  9
$DISPSILH
 70
     0
  9
$DIMSCALE
 40
1.0
  9
$DIMASZ
 40
0.18
  9
$DIMEXO
 40
0.0625
  9
$DIMDLI
 40
0.38
  9
$DIMRND
 40
0.0
  9
$DIMDLE
 40
0.0
  9
$DIMEXE
 40
0.18
  9
$DIMTP
 40
0.0
  9
$DIMTM
 40
0.0
  9
$DIMTXT
 40
0.18
  9
$DIMCEN
 40
0.09
  9
$DIMTSZ
 40
0.0
  9
$DIMTOL
 70
     0
  9
$DIMLIM
 70
     0
  9
$DIMTIH
 70
     1
  9
$DIMTOH
 70
     1
  9
$DIMSE1
 70
     0
  9
$DIMSE2
 70
     0
  9
$DIMTAD
 70
     0
  9
$DIMZIN
 70
     0
  9
$DIMBLK
  1

  9
$DIMASO
 70
     1
  9
$DIMSHO
 70
     1
  9
$DIMPOST
  1

  9
$DIMAPOST
  1

  9
$DIMALT
 70
     0
  9
$DIMALTD
 70
     2
  9
$DIMALTF
 40
25.4
  9
$DIMLFAC
 40
1.0
  9
$DIMTOFL
 70
     0
  9
$DIMTVP
 40
0.0
  9
$DIMTIX
 70
     0
  9
$DIMSOXD
 70
     0
  9
$DIMSAH
 70
     0
  9
$DIMBLK1
  1

  9
$DIMBLK2
  1

  9
$DIMSTYLE
  2
Standard
  9
$DIMCLRD
 70
     0
  9
$DIMCLRE
 70
     0
  9
$DIMCLRT
 70
     0
  9
$DIMTFAC
 40
1.0
  9
$DIMGAP
 40
0.09
  9
$DIMJUST
 70
     0
  9
$DIMSD1
 70
     0
  9
$DIMSD2
 70
     0
  9
$DIMTOLJ
 70
     1
  9
$DIMTZIN
 70
     0
  9
$DIMALTZ
 70
     0
  9
$DIMALTTZ
 70
     0
  9
$DIMUPT
 70
     0
  9
$DIMDEC
 70
     4
  9
$DIMTDEC
 70
     4
  9
$DIMALTU
 70
     2
  9
$DIMALTTD
 70
     2
  9
$DIMTXSTY
  7
Standard
  9
$DIMAUNIT
 70
     0
  9
$DIMADEC
 70
     0
  9
$DIMALTRND
 40
0.0
  9
$DIMAZIN
 70
     0
  9
$DIMDSEP
 70
    46
  9
$DIMATFIT
 70
     3
  9
$DIMFRAC
 70
     0
  9
$DIMLDRBLK
  1

  9
$DIMLUNIT
 70
     2
  9
$DIMLWD
 70
    -2
  9
$DIMLWE
 70
    -2
  9
$DIMTMOVE
 70
     0
  9
$DIMFXL
 40
1.0
  9
$DIMFXLON
 70
     0
  9
$DIMJOGANG
 40
0.7853981633974483
  9
$DIMTFILL
 70
     0
  9
$DIMTFILLCLR
 70
     0
  9
$DIMARCSYM
 70
     0
  9
$DIMLTYPE
  6

  9
$DIMLTEX1
  6

  9
$DIMLTEX2
  6

  9
$LUNITS
 70
     2
  9
$LUPREC
 70
     4
  9
$SKETCHINC
 40
0.1
  9
$FILLETRAD
 40
0.5
  9
$AUNITS
 70
     0
  9
$AUPREC
 70
     0
  9
$MENU
  1
.
  9
$ELEVATION
 40
0.0
  9
$PELEVATION
 40
0.0
  9
$THICKNESS
 40
0.0
  9
$LIMCHECK
 70
     0
  9
$CHAMFERA
 40
0.5
  9
$CHAMFERB
 40
0.5
  9
$CHAMFERC
 40
1.0
  9
$CHAMFERD
 40
0.0
  9
$SKPOLY
 70
     0
  9
$TDCREATE
 40
2453737.5
  9
$TDUCREATE
 40
2453737.666666667
  9
$TDUPDATE
 40
2455007.495028449
  9
$TDUUPDATE
 40
2455007.661695116
  9
$TDINDWG
 40
0.0000000116
  9
$TDUSRTIMER
 40
0.0000000116
  9
$USRTIMER
 70
     1
  9
$ANGBASE
 50
0.0
  9
$ANGDIR
 70
     0
  9
$PDMODE
 70
     0
  9
$PDSIZE
 40
0.0
  9
$PLINEWID
 40
0.0
  9
$SPLFRAME
 70
     0
  9
$SPLINETYPE
 70
     6
  9
$SPLINESEGS
 70
     8
  9
$HANDSEED
  5
335
  9
$SURFTAB1
 70
     6
  9
$SURFTAB2
 70
     6
  9
$SURFTYPE
 70
     6
  9
$SURFU
 70
     6
  9
$SURFV
 70
     6
  9
$UCSBASE
  2

  9
$UCSNAME
  2

  9
$UCSORG
 10
0.0
 20
0.0
 30
0.0
  9
$UCSXDIR
 10
1.0
 20
0.0
 30
0.0
  9
$UCSYDIR
 10
0.0
 20
1.0
 30
0.0
  9
$UCSORTHOREF
  2

  9
$UCSORTHOVIEW
 70
     0
  9
$UCSORGTOP
 10
0.0
 20
0.0
 30
0.0
  9
$UCSORGBOTTOM
 10
0.0
 20
0.0
 30
0.0
  9
$UCSORGLEFT
 10
0.0
 20
0.0
 30
0.0
  9
$UCSORGRIGHT
 10
0.0
 20
0.0
 30
0.0
  9
$UCSORGFRONT
 10
0.0
 20
0.0
 30
0.0
  9
$UCSORGBACK
 10
0.0
 20
0.0
 30
0.0
  9
$PUCSBASE
  2

  9
$PUCSNAME
  2

  9
$PUCSORG
 10
0.0
 20
0.0
 30
0.0
  9
$PUCSXDIR
 10
1.0
 20
0.0
 30
0.0
  9
$PUCSYDIR
 10
0.0
 20
1.0
 30
0.0
  9
$PUCSORTHOREF
  2

  9
$PUCSORTHOVIEW
 70
     0
  9
$PUCSORGTOP
 10
0.0
 20
0.0
 30
0.0
  9
$PUCSORGBOTTOM
 10
0.0
 20
0.0
 30
0.0
  9
$PUCSORGLEFT
 10
0.0
 20
0.0
 30
0.0
  9
$PUCSORGRIGHT
 10
0.0
 20
0.0
 30
0.0
  9
$PUCSORGFRONT
 10
0.0
 20
0.0
 30
0.0
  9
$PUCSORGBACK
 10
0.0
 20
0.0
 30
0.0
  9
$USERI1
 70
     0
  9
$USERI2
 70
     0
  9
$USERI3
 70
     0
  9
$USERI4
 70
     0
  9
$USERI5
 70
     0
  9
$USERR1
 40
0.0
  9
$USERR2
 40
0.0
  9
$USERR3
 40
0.0
  9
$USERR4
 40
0.0
  9
$USERR5
 40
0.0
  9
$WORLDVIEW
 70
     1
  9
$SHADEDGE
 70
     3
  9
$SHADEDIF
 70
    70
  9
$TILEMODE
 70
     1
  9
$MAXACTVP
 70
    64
  9
$PINSBASE
 10
0.0
 20
0.0
 30
0.0
  9
$PLIMCHECK
 70
     0
  9
$PEXTMIN
 10
1.000000000000000E+20
 20
1.000000000000000E+20
 30
1.000000000000000E+20
  9
$PEXTMAX
 10
-1.000000000000000E+20
 20
-1.000000000000000E+20
 30
-1.000000000000000E+20
  9
$PLIMMIN
 10
0.0
 20
0.0
  9
$PLIMMAX
 10
12.0
 20
9.0
  9
$UNITMODE
 70
     0
  9
$VISRETAIN
 70
     1
  9
$PLINEGEN
 70
     0
  9
$PSLTSCALE
 70
     1
  9
$TREEDEPTH
 70
  3020
  9
$CMLSTYLE
  2
Standard
  9
$CMLJUST
 70
     0
  9
$CMLSCALE
 40
1.0
  9
$PROXYGRAPHICS
 70
     1
  9
$MEASUREMENT
 70
     0
  9
$CELWEIGHT
370
    -1
  9
$ENDCAPS
280
     0
  9
$JOINSTYLE
280
     0
  9
$LWDISPLAY
290
     0
  9
$INSUNITS
 70
     1
  9
$HYPERLINKBASE
  1

  9
$STYLESHEET
  1

  9
$XEDIT
290
     1
  9
$CEPSNTYPE
380
     0
  9
$PSTYLEMODE
290
     1
  9
$FINGERPRINTGUID
  2
{37601C13-F5C3-4E38-AFDD-AB16E1EDC8C2}
  9
$VERSIONGUID
  2
{FAEB1C32-E019-11D5-929B-00C0DF256EC4}
  9
$EXTNAMES
290
     1
  9
$PSVPSCALE
 40
0.0
  9
$OLESTARTUP
290
     0
  9
$SORTENTS
280
   127
  9
$INDEXCTL
280
     0
  9
$HIDETEXT
280
     1
  9
$XCLIPFRAME
290
     0
  9
$HALOGAP
280
     0
  9
$OBSCOLOR
 70
   257
  9
$OBSLTYPE
280
     0
  9
$INTERSECTIONDISPLAY
280
     0
  9
$INTERSECTIONCOLOR
 70
   257
  9
$DIMASSOC
280
     2
  9
$PROJECTNAME
  1

  9
$CAMERADISPLAY
290
     0
  9
$LENSLENGTH
 40
50.0
  9
$CAMERAHEIGHT
 40
0.0
  9
$STEPSPERSEC
 40
2.0
  9
$STEPSIZE
 40
6.0
  9
$3DDWFPREC
 40
2.0
  9
$PSOLWIDTH
 40
0.25
  9
$PSOLHEIGHT
 40
4.0
  9
$LOFTANG1
 40
1.570796326794897
  9
$LOFTANG2
 40
1.570796326794897
  9
$LOFTMAG1
 40
0.0
  9
$LOFTMAG2
 40
0.0
  9
$LOFTPARAM
 70
     7
  9
$LOFTNORMALS
280
     1
  9
$LATITUDE
 40
37.795
  9
$LONGITUDE
 40
-122.394
  9
$NORTHDIRECTION
 40
0.0
  9
$TIMEZONE
 70
 -8000
  9
$LIGHTGLYPHDISPLAY
280
     1
  9
$TILEMODELIGHTSYNCH
280
     1
  9
$SOLIDHIST
280
     1
  9
$SHOWHIST
280
     1
  9
$DWFFRAME
280
     2
  9
$DGNFRAME
280
     2
  9
$REALWORLDSCALE
290
     1
  9
$INTERFERECOLOR
 62
   256
  9
$CSHADOW
280
     0
  9
$SHADOWPLANELOCATION
 40
0.0
  0
ENDSEC
  0
SECTION
  2
CLASSES
  0
CLASS
  1
ACDBDICTIONARYWDFLT
  2
AcDbDictionaryWithDefault
  3
ObjectDBX Classes
 90
        0
 91
        4
280
     0
281
     0
  0
CLASS
  1
VISUALSTYLE
  2
AcDbVisualStyle
  3
ObjectDBX Classes
 90
     4095
 91
        4
280
     0
281
     0
  0
ENDSEC
  0
SECTION
  2
TABLES
  0
TABLE
  2
VPORT
  5
8
330
0
100
AcDbSymbolTable
 70
     1
  0
VPORT
  5
29
330
8
100
AcDbSymbolTableRecord
100
AcDbViewportTableRecord
  2
*Active
 70
     0
 10
0.0
 20
0.0
 11
1.0
 21
1.0
 12
10.42990654205607
 22
4.5
 13
0.0
 23
0.0
 14
0.5
 24
0.5
 15
0.5
 25
0.5
 16
0.0
 26
0.0
 36
1.0
 17
0.0
 27
0.0
 37
0.0
 40
9.0
 41
1.972972972850329
 42
50.0
 43
0.0
 44
0.0
 50
0.0
 51
0.0
 71
     0
 72
   100
 73
     1
 74
     3
 75
     0
 76
     0
 77
     0
 78
     0
281
     0
 65
     1
110
0.0
120
0.0
130
0.0
111
1.0
121
0.0
131
0.0
112
0.0
122
1.0
132
0.0
 79
     0
146
0.0
 60
     3
 61
     5
292
     1
282
     1
141
0.0
142
0.0
 63
   256
  0
ENDTAB
  0
TABLE
  2
LTYPE
  5
5
330
0
100
AcDbSymbolTable
 70
     1
  0
LTYPE
  5
14
330
5
100
AcDbSymbolTableRecord
100
AcDbLinetypeTableRecord
  2
ByBlock
 70
     0
  3

 72
    65
 73
     0
 40
0.0
  0
LTYPE
  5
15
330
5
100
AcDbSymbolTableRecord
100
AcDbLinetypeTableRecord
  2
ByLayer
 70
     0
  3

 72
    65
 73
     0
 40
0.0
  0
LTYPE
  5
16
330
5
100
AcDbSymbolTableRecord
100
AcDbLinetypeTableRecord
  2
Continuous
 70
     0
  3
Solid line
 72
    65
 73
     0
 40
0.0
  0
ENDTAB
  0
TABLE
  2
LAYER
  5
2
330
0
100
AcDbSymbolTable
 70
     2
  0
LAYER
  5
10
330
2
100
AcDbSymbolTableRecord
100
AcDbLayerTableRecord
  2
0
 70
     0
 62
     7
  6
Continuous
370
    -3
390
F
347
0
  0
LAYER
  5
3C
330
2
100
AcDbSymbolTableRecord
100
AcDbLayerTableRecord
  2
Default
 70
     0
 62
     1
  6
Continuous
370
    -3
390
F
347
0
  0
ENDTAB
  0
TABLE
  2
STYLE
  5
3
330
0
100
AcDbSymbolTable
 70
     1
  0
STYLE
  5
11
330
3
100
AcDbSymbolTableRecord
100
AcDbTextStyleTableRecord
  2
Standard
 70
     0
 40
0.0
 41
1.0
 50
0.0
 71
     0
 42
0.2
  3
txt
  4

  0
ENDTAB
  0
TABLE
  2
VIEW
  5
6
330
0
100
AcDbSymbolTable
 70
     0
  0
ENDTAB
  0
TABLE
  2
UCS
  5
7
330
0
100
AcDbSymbolTable
 70
     0
  0
ENDTAB
  0
TABLE
  2
APPID
  5
9
330
0
100
AcDbSymbolTable
 70
     1
  0
APPID
  5
12
330
9
100
AcDbSymbolTableRecord
100
AcDbRegAppTableRecord
  2
ACAD
 70
     0
  0
ENDTAB
  0
TABLE
  2
DIMSTYLE
  5
A
330
0
100
AcDbSymbolTable
 70
     1
100
AcDbDimStyleTable
  0
DIMSTYLE
105
27
330
A
100
AcDbSymbolTableRecord
100
AcDbDimStyleTableRecord
  2
Standard
 70
     0
340
11
  0
ENDTAB
  0
TABLE
  2
BLOCK_RECORD
  5
1
330
0
100
AcDbSymbolTable
 70
     1
  0
BLOCK_RECORD
  5
1F
330
1
100
AcDbSymbolTableRecord
100
AcDbBlockTableRecord
  2
*Model_Space
340
22
 70
     0
280
     1
281
     0
  0
BLOCK_RECORD
  5
1B
330
1
100
AcDbSymbolTableRecord
100
AcDbBlockTableRecord
  2
*Paper_Space
340
1E
 70
     0
280
     1
281
     0
  0
BLOCK_RECORD
  5
23
330
1
100
AcDbSymbolTableRecord
100
AcDbBlockTableRecord
  2
*Paper_Space0
340
26
 70
     0
280
     1
281
     0
  0
ENDTAB
  0
ENDSEC
  0
SECTION
  2
BLOCKS
  0
BLOCK
  5
20
330
1F
100
AcDbEntity
  8
0
100
AcDbBlockBegin
  2
*Model_Space
 70
     0
 10
0.0
 20
0.0
 30
0.0
  3
*Model_Space
  1

  0
ENDBLK
  5
21
330
1F
100
AcDbEntity
  8
0
100
AcDbBlockEnd
  0
BLOCK
  5
1C
330
1B
100
AcDbEntity
 67
     1
  8
0
100
AcDbBlockBegin
  2
*Paper_Space
 70
     0
 10
0.0
 20
0.0
 30
0.0
  3
*Paper_Space
  1

  0
ENDBLK
  5
1D
330
1B
100
AcDbEntity
 67
     1
  8
0
100
AcDbBlockEnd
  0
BLOCK
  5
24
330
23
100
AcDbEntity
  8
0
100
AcDbBlockBegin
  2
*Paper_Space0
 70
     0
 10
0.0
 20
0.0
 30
0.0
  3
*Paper_Space0
  1

  0
ENDBLK
  5
25
330
23
100
AcDbEntity
  8
0
100
AcDbBlockEnd
  0
ENDSEC
  0
SECTION
  2
ENTITIES
  0
CIRCLE
  5
3B
330
1F
100
AcDbEntity
  8
Default
 62
     7
420
 16777215
370
     5
100
AcDbCircle
 10
2.816525
 20
-0.604593
 30
0.0
 40
0.019697
  0
CIRCLE
  5
3D
330
1F
100
AcDbEntity
  8
Default
 62
     7
420
 16777215
370
     5
100
AcDbCircle
 10
2.96335
 20
-0.604962
 30
0.0
 40
0.019697
  0
CIRCLE
  5
3E
330
1F
100
AcDbEntity
  8
Default
 62
     7
420
 16777215
370
     5
100
AcDbCircle
 10
3.110167
 20
-0.605749
 30
0.0
 40
0.019697
  0
CIRCLE
  5
3F
330
1F
100
AcDbEntity
  8
Default
 62
     7
420
 16777215
370
     5
100
AcDbCircle
 10
2.816525
 20
-0.789343
 30
0.0
 40
0.019697
  0
CIRCLE
  5
40
330
1F
100
AcDbEntity
  8
Default
 62
     7
420
 16777215
370
     5
100
AcDbCircle
 10
2.96335
 20
-0.788975
 30
0.0
 40
0.019697
  0
CIRCLE
  5
41
330
1F
100
AcDbEntity
  8
Default
 62
     7
420
 16777215
370
     5
100
AcDbCircle
 10
3.110167
 20
-0.788187
 30
0.0
 40
0.019697
  0
ARC
  5
42
330
1F
100
AcDbEntity
  8
Default
 62
     7
420
 16777215
370
     5
100
AcDbCircle
 10
3.199027
 20
-0.564046
 30
0.0
 40
0.02
100
AcDbArc
 50
90.0
 51
90.40118799999958
  0
CIRCLE
  5
43
330
1F
100
AcDbEntity
  8
Default
 62
     7
420
 16777215
370
     5
100
AcDbCircle
 10
0.53796
 20
-1.057542
 30
0.0
 40
0.030312
  0
CIRCLE
  5
44
330
1F
100
AcDbEntity
  8
Default
 62
     7
420
 16777215
370
     5
100
AcDbCircle
 10
0.495243
 20
-1.196631
 30
0.0
 40
0.030312
  0
CIRCLE
  5
45
330
1F
100
AcDbEntity
  8
Default
 62
     7
420
 16777215
370
     5
100
AcDbCircle
 10
0.352509
 20
-1.000586
 30
0.0
 40
0.030312
  0
CIRCLE
  5
46
330
1F
100
AcDbEntity
  8
Default
 62
     7
420
 16777215
370
     5
100
AcDbCircle
 10
0.309792
 20
-1.139674
 30
0.0
 40
0.030312
  0
CIRCLE
  5
47
330
1F
100
AcDbEntity
  8
Default
 62
     7
420
 16777215
370
     5
100
AcDbCircle
 10
0.814748
 20
-0.555714
 30
0.0
 40
0.012125
  0
CIRCLE
  5
48
330
1F
100
AcDbEntity
  8
Default
 62
     7
420
 16777215
370
     5
100
AcDbCircle
 10
0.820823
 20
-0.83821
 30
0.0
 40
0.012125
  0
CIRCLE
  5
49
330
1F
100
AcDbEntity
  8
Default
 62
     7
420
 16777215
370
     5
100
AcDbCircle
 10
0.352509
 20
-1.000586
 30
0.0
 40
0.0485
  0
CIRCLE
  5
4A
330
1F
100
AcDbEntity
  8
Default
 62
     7
420
 16777215
370
     5
100
AcDbCircle
 10
0.53796
 20
-1.057542
 30
0.0
 40
0.0485
  0
CIRCLE
  5
4B
330
1F
100
AcDbEntity
  8
Default
 62
     7
420
 16777215
370
     5
100
AcDbCircle
 10
0.495243
 20
-1.196631
 30
0.0
 40
0.0485
  0
CIRCLE
  5
4C
330
1F
100
AcDbEntity
  8
Default
 62
     7
420
 16777215
370
     5
100
AcDbCircle
 10
0.309792
 20
-1.139674
 30
0.0
 40
0.0485
  0
ARC
  5
4D
330
1F
100
AcDbEntity
  8
Default
 62
     7
420
 16777215
370
     5
100
AcDbCircle
 10
0.814748
 20
-0.555714
 30
0.0
 40
0.026433
100
AcDbArc
 50
1.231958999999838
 51
181.2319589999998
  0
LINE
  5
4E
330
1F
100
AcDbEntity
  8
Default
 62
     7
420
 16777215
370
     5
100
AcDbLine
 10
0.788321
 20
-0.556282
 30
0.0
 11
0.794396
 21
-0.838778
 31
0.0
  0
ARC
  5
4F
330
1F
100
AcDbEntity
  8
Default
 62
     7
420
 16777215
370
     5
100
AcDbCircle
 10
0.820823
 20
-0.838206
 30
0.0
 40
0.026433
100
AcDbArc
 50
181.2403270000003
 51
1.223637999999739
  0
LINE
  5
50
330
1F
100
AcDbEntity
  8
Default
 62
     7
420
 16777215
370
     5
100
AcDbLine
 10
0.847249
 20
-0.837642
 30
0.0
 11
0.841174
 21
-0.555146
 31
0.0
  0
LINE
  5
51
330
1F
100
AcDbEntity
  8
Default
 62
     7
420
 16777215
370
     5
100
AcDbLine
 10
1.231174
 20
-0.521117
 30
0.0
 11
1.231174
 21
-0.872742
 31
0.0
  0
LINE
  5
52
330
1F
100
AcDbEntity
  8
Default
 62
     7
420
 16777215
370
     5
100
AcDbLine
 10
1.231174
 20
-0.872742
 30
0.0
 11
1.400924
 21
-0.872742
 31
0.0
  0
LINE
  5
53
330
1F
100
AcDbEntity
  8
Default
 62
     7
420
 16777215
370
     5
100
AcDbLine
 10
1.400924
 20
-0.872742
 30
0.0
 11
1.400924
 21
-0.521117
 31
0.0
  0
LINE
  5
54
330
1F
100
AcDbEntity
  8
Default
 62
     7
420
 16777215
370
     5
100
AcDbLine
 10
1.400924
 20
-0.521117
 30
0.0
 11
1.231174
 21
-0.521117
 31
0.0
  0
LINE
  5
55
330
1F
100
AcDbEntity
  8
Default
 62
     7
420
 16777215
370
     5
100
AcDbLine
 10
0.879549
 20
-0.521117
 30
0.0
 11
0.879549
 21
-0.872742
 31
0.0
  0
LINE
  5
56
330
1F
100
AcDbEntity
  8
Default
 62
     7
420
 16777215
370
     5
100
AcDbLine
 10
0.879549
 20
-0.872742
 30
0.0
 11
1.049299
 21
-0.872742
 31
0.0
  0
LINE
  5
57
330
1F
100
AcDbEntity
  8
Default
 62
     7
420
 16777215
370
     5
100
AcDbLine
 10
1.049299
 20
-0.872742
 30
0.0
 11
1.049299
 21
-0.521117
 31
0.0
  0
LINE
  5
58
330
1F
100
AcDbEntity
  8
Default
 62
     7
420
 16777215
370
     5
100
AcDbLine
 10
1.049299
 20
-0.521117
 30
0.0
 11
0.879549
 21
-0.521117
 31
0.0
  0
LINE
  5
59
330
1F
100
AcDbEntity
  8
Default
 62
     7
420
 16777215
370
     5
100
AcDbLine
 10
1.400924
 20
-0.841683
 30
0.0
 11
1.418228
 21
-0.827824
 31
0.0
  0
LINE
  5
5A
330
1F
100
AcDbEntity
  8
Default
 62
     7
420
 16777215
370
     5
100
AcDbLine
 10
1.418228
 20
-0.827824
 30
0.0
 11
1.434373
 21
-0.818773
 31
0.0
  0
LINE
  5
5B
330
1F
100
AcDbEntity
  8
Default
 62
     7
420
 16777215
370
     5
100
AcDbLine
 10
1.434373
 20
-0.818773
 30
0.0
 11
1.447935
 21
-0.811661
 31
0.0
  0
LINE
  5
5C
330
1F
100
AcDbEntity
  8
Default
 62
     7
420
 16777215
370
     5
100
AcDbLine
 10
1.447935
 20
-0.811661
 30
0.0
 11
1.462788
 21
-0.805195
 31
0.0
  0
LINE
  5
5D
330
1F
100
AcDbEntity
  8
Default
 62
     7
420
 16777215
370
     5
100
AcDbLine
 10
1.462788
 20
-0.805195
 30
0.0
 11
1.462788
 21
-0.588664
 31
0.0
  0
LINE
  5
5E
330
1F
100
AcDbEntity
  8
Default
 62
     7
420
 16777215
370
     5
100
AcDbLine
 10
1.462788
 20
-0.588664
 30
0.0
 11
1.447935
 21
-0.582198
 31
0.0
  0
LINE
  5
5F
330
1F
100
AcDbEntity
  8
Default
 62
     7
420
 16777215
370
     5
100
AcDbLine
 10
1.447935
 20
-0.582198
 30
0.0
 11
1.434373
 21
-0.575086
 31
0.0
  0
LINE
  5
60
330
1F
100
AcDbEntity
  8
Default
 62
     7
420
 16777215
370
     5
100
AcDbLine
 10
1.434373
 20
-0.575086
 30
0.0
 11
1.418228
 21
-0.566035
 31
0.0
  0
LINE
  5
61
330
1F
100
AcDbEntity
  8
Default
 62
     7
420
 16777215
370
     5
100
AcDbLine
 10
1.418228
 20
-0.566035
 30
0.0
 11
1.400924
 21
-0.552176
 31
0.0
  0
LINE
  5
62
330
1F
100
AcDbEntity
  8
Default
 62
     7
420
 16777215
370
     5
100
AcDbLine
 10
1.400924
 20
-0.552176
 30
0.0
 11
1.400924
 21
-0.841683
 31
0.0
  0
LINE
  5
63
330
1F
100
AcDbEntity
  8
Default
 62
     7
420
 16777215
370
     5
100
AcDbLine
 10
2.027104
 20
-0.598326
 30
0.0
 11
2.027104
 21
-0.795533
 31
0.0
  0
LINE
  5
64
330
1F
100
AcDbEntity
  8
Default
 62
     7
420
 16777215
370
     5
100
AcDbLine
 10
1.959689
 20
-0.597385
 30
0.0
 11
1.959689
 21
-0.796474
 31
0.0
  0
LINE
  5
65
330
1F
100
AcDbEntity
  8
Default
 62
     7
420
 16777215
370
     5
100
AcDbLine
 10
1.896154
 20
-0.596498
 30
0.0
 11
1.896154
 21
-0.797361
 31
0.0
  0
LINE
  5
66
330
1F
100
AcDbEntity
  8
Default
 62
     7
420
 16777215
370
     5
100
AcDbLine
 10
1.836111
 20
-0.59566
 30
0.0
 11
1.836111
 21
-0.798199
 31
0.0
  0
LINE
  5
67
330
1F
100
AcDbEntity
  8
Default
 62
     7
420
 16777215
370
     5
100
AcDbLine
 10
1.779463
 20
-0.594598
 30
0.0
 11
1.779463
 21
-0.79899
 31
0.0
  0
LINE
  5
68
330
1F
100
AcDbEntity
  8
Default
 62
     7
420
 16777215
370
     5
100
AcDbLine
 10
1.726016
 20
-0.593597
 30
0.0
 11
1.726016
 21
-0.799736
 31
0.0
  0
LINE
  5
69
330
1F
100
AcDbEntity
  8
Default
 62
     7
420
 16777215
370
     5
100
AcDbLine
 10
1.675479
 20
-0.59265
 30
0.0
 11
1.675479
 21
-0.800784
 31
0.0
  0
LINE
  5
6A
330
1F
100
AcDbEntity
  8
Default
 62
     7
420
 16777215
370
     5
100
AcDbLine
 10
1.627852
 20
-0.591757
 30
0.0
 11
1.627852
 21
-0.801772
 31
0.0
  0
LINE
  5
6B
330
1F
100
AcDbEntity
  8
Default
 62
     7
420
 16777215
370
     5
100
AcDbLine
 10
1.582941
 20
-0.590915
 30
0.0
 11
1.582941
 21
-0.802704
 31
0.0
  0
LINE
  5
6C
330
1F
100
AcDbEntity
  8
Default
 62
     7
420
 16777215
370
     5
100
AcDbLine
 10
1.540455
 20
-0.590119
 30
0.0
 11
1.540455
 21
-0.803585
 31
0.0
  0
LINE
  5
6D
330
1F
100
AcDbEntity
  8
Default
 62
     7
420
 16777215
370
     5
100
AcDbLine
 10
1.500394
 20
-0.589368
 30
0.0
 11
1.500394
 21
-0.804416
 31
0.0
  0
LINE
  5
6E
330
1F
100
AcDbEntity
  8
Default
 62
     7
420
 16777215
370
     5
100
AcDbLine
 10
2.524326
 20
-0.605269
 30
0.0
 11
2.524326
 21
-0.78859
 31
0.0
  0
LINE
  5
6F
330
1F
100
AcDbEntity
  8
Default
 62
     7
420
 16777215
370
     5
100
AcDbLine
 10
2.429072
 20
-0.603939
 30
0.0
 11
2.429072
 21
-0.78992
 31
0.0
  0
LINE
  5
70
330
1F
100
AcDbEntity
  8
Default
 62
     7
420
 16777215
370
     5
100
AcDbLine
 10
2.339153
 20
-0.602683
 30
0.0
 11
2.339153
 21
-0.791176
 31
0.0
  0
LINE
  5
71
330
1F
100
AcDbEntity
  8
Default
 62
     7
420
 16777215
370
     5
100
AcDbLine
 10
2.254181
 20
-0.601497
 30
0.0
 11
2.254181
 21
-0.792362
 31
0.0
  0
LINE
  5
72
330
1F
100
AcDbEntity
  8
Default
 62
     7
420
 16777215
370
     5
100
AcDbLine
 10
2.174059
 20
-0.600245
 30
0.0
 11
2.174059
 21
-0.793481
 31
0.0
  0
LINE
  5
73
330
1F
100
AcDbEntity
  8
Default
 62
     7
420
 16777215
370
     5
100
AcDbLine
 10
2.098496
 20
-0.599323
 30
0.0
 11
2.098496
 21
-0.794536
 31
0.0
  0
LINE
  5
74
330
1F
100
AcDbEntity
  8
Default
 62
     7
420
 16777215
370
     5
100
AcDbLine
 10
2.441536
 20
-0.747854
 30
0.0
 11
2.511861
 21
-0.747854
 31
0.0
  0
LINE
  5
75
330
1F
100
AcDbEntity
  8
Default
 62
     7
420
 16777215
370
     5
100
AcDbLine
 10
2.511861
 20
-0.747854
 30
0.0
 11
2.511861
 21
-0.646004
 31
0.0
  0
LINE
  5
76
330
1F
100
AcDbEntity
  8
Default
 62
     7
420
 16777215
370
     5
100
AcDbLine
 10
2.511861
 20
-0.646004
 30
0.0
 11
2.441536
 21
-0.646004
 31
0.0
  0
LINE
  5
77
330
1F
100
AcDbEntity
  8
Default
 62
     7
420
 16777215
370
     5
100
AcDbLine
 10
2.441536
 20
-0.646004
 30
0.0
 11
2.441536
 21
-0.747854
 31
0.0
  0
LINE
  5
78
330
1F
100
AcDbEntity
  8
Default
 62
     7
420
 16777215
370
     5
100
AcDbLine
 10
2.267567
 20
-0.750182
 30
0.0
 11
2.325767
 21
-0.750182
 31
0.0
  0
LINE
  5
79
330
1F
100
AcDbEntity
  8
Default
 62
     7
420
 16777215
370
     5
100
AcDbLine
 10
2.325767
 20
-0.750182
 30
0.0
 11
2.325767
 21
-0.643676
 31
0.0
  0
LINE
  5
7A
330
1F
100
AcDbEntity
  8
Default
 62
     7
420
 16777215
370
     5
100
AcDbLine
 10
2.325767
 20
-0.643676
 30
0.0
 11
2.267567
 21
-0.643676
 31
0.0
  0
LINE
  5
7B
330
1F
100
AcDbEntity
  8
Default
 62
     7
420
 16777215
370
     5
100
AcDbLine
 10
2.267567
 20
-0.643676
 30
0.0
 11
2.267567
 21
-0.750182
 31
0.0
  0
LINE
  5
7C
330
1F
100
AcDbEntity
  8
Default
 62
     7
420
 16777215
370
     5
100
AcDbLine
 10
2.039195
 20
-0.753181
 30
0.0
 11
2.086434
 21
-0.753181
 31
0.0
  0
LINE
  5
7D
330
1F
100
AcDbEntity
  8
Default
 62
     7
420
 16777215
370
     5
100
AcDbLine
 10
2.086434
 20
-0.753181
 30
0.0
 11
2.086434
 21
-0.640661
 31
0.0
  0
LINE
  5
7E
330
1F
100
AcDbEntity
  8
Default
 62
     7
420
 16777215
370
     5
100
AcDbLine
 10
2.086434
 20
-0.640661
 30
0.0
 11
2.039195
 21
-0.640661
 31
0.0
  0
LINE
  5
7F
330
1F
100
AcDbEntity
  8
Default
 62
     7
420
 16777215
370
     5
100
AcDbLine
 10
2.039195
 20
-0.640661
 30
0.0
 11
2.039195
 21
-0.753181
 31
0.0
  0
LINE
  5
80
330
1F
100
AcDbEntity
  8
Default
 62
     7
420
 16777215
370
     5
100
AcDbLine
 10
1.849216
 20
-0.756634
 30
0.0
 11
1.883069
 21
-0.756634
 31
0.0
  0
LINE
  5
81
330
1F
100
AcDbEntity
  8
Default
 62
     7
420
 16777215
370
     5
100
AcDbLine
 10
1.883069
 20
-0.756634
 30
0.0
 11
1.883069
 21
-0.637227
 31
0.0
  0
LINE
  5
82
330
1F
100
AcDbEntity
  8
Default
 62
     7
420
 16777215
370
     5
100
AcDbLine
 10
1.883069
 20
-0.637227
 30
0.0
 11
1.849216
 21
-0.637227
 31
0.0
  0
LINE
  5
83
330
1F
100
AcDbEntity
  8
Default
 62
     7
420
 16777215
370
     5
100
AcDbLine
 10
1.849216
 20
-0.637227
 30
0.0
 11
1.849216
 21
-0.756634
 31
0.0
  0
LINE
  5
84
330
1F
100
AcDbEntity
  8
Default
 62
     7
420
 16777215
370
     5
100
AcDbLine
 10
1.739062
 20
-0.758256
 30
0.0
 11
1.765155
 21
-0.758256
 31
0.0
  0
LINE
  5
85
330
1F
100
AcDbEntity
  8
Default
 62
     7
420
 16777215
370
     5
100
AcDbLine
 10
1.765155
 20
-0.758256
 30
0.0
 11
1.765155
 21
-0.635648
 31
0.0
  0
LINE
  5
86
330
1F
100
AcDbEntity
  8
Default
 62
     7
420
 16777215
370
     5
100
AcDbLine
 10
1.765155
 20
-0.635648
 30
0.0
 11
1.739062
 21
-0.635648
 31
0.0
  0
LINE
  5
87
330
1F
100
AcDbEntity
  8
Default
 62
     7
420
 16777215
370
     5
100
AcDbLine
 10
1.739062
 20
-0.635648
 30
0.0
 11
1.739062
 21
-0.758256
 31
0.0
  0
LINE
  5
88
330
1F
100
AcDbEntity
  8
Default
 62
     7
420
 16777215
370
     5
100
AcDbLine
 10
1.639298
 20
-0.758573
 30
0.0
 11
1.664033
 21
-0.758573
 31
0.0
  0
LINE
  5
89
330
1F
100
AcDbEntity
  8
Default
 62
     7
420
 16777215
370
     5
100
AcDbLine
 10
1.664033
 20
-0.758573
 30
0.0
 11
1.664033
 21
-0.635286
 31
0.0
  0
LINE
  5
8A
330
1F
100
AcDbEntity
  8
Default
 62
     7
420
 16777215
370
     5
100
AcDbLine
 10
1.664033
 20
-0.635286
 30
0.0
 11
1.639298
 21
-0.635286
 31
0.0
  0
LINE
  5
8B
330
1F
100
AcDbEntity
  8
Default
 62
     7
420
 16777215
370
     5
100
AcDbLine
 10
1.639298
 20
-0.635286
 30
0.0
 11
1.639298
 21
-0.758573
 31
0.0
  0
LINE
  5
8C
330
1F
100
AcDbEntity
  8
Default
 62
     7
420
 16777215
370
     5
100
AcDbLine
 10
1.549718
 20
-0.761968
 30
0.0
 11
1.573677
 21
-0.761968
 31
0.0
  0
LINE
  5
8D
330
1F
100
AcDbEntity
  8
Default
 62
     7
420
 16777215
370
     5
100
AcDbLine
 10
1.573677
 20
-0.761968
 30
0.0
 11
1.573677
 21
-0.631891
 31
0.0
  0
LINE
  5
8E
330
1F
100
AcDbEntity
  8
Default
 62
     7
420
 16777215
370
     5
100
AcDbLine
 10
1.573677
 20
-0.631891
 30
0.0
 11
1.549718
 21
-0.631891
 31
0.0
  0
LINE
  5
8F
330
1F
100
AcDbEntity
  8
Default
 62
     7
420
 16777215
370
     5
100
AcDbLine
 10
1.549718
 20
-0.631891
 30
0.0
 11
1.549718
 21
-0.761968
 31
0.0
  0
LINE
  5
90
330
1F
100
AcDbEntity
  8
Default
 62
     7
420
 16777215
370
     5
100
AcDbLine
 10
1.397545
 20
-0.872742
 30
0.0
 11
1.396098
 21
-0.874498
 31
0.0
  0
LINE
  5
91
330
1F
100
AcDbEntity
  8
Default
 62
     7
420
 16777215
370
     5
100
AcDbLine
 10
1.396098
 20
-0.874498
 30
0.0
 11
1.386724
 21
-0.885873
 31
0.0
  0
LINE
  5
92
330
1F
100
AcDbEntity
  8
Default
 62
     7
420
 16777215
370
     5
100
AcDbLine
 10
1.386724
 20
-0.885873
 30
0.0
 11
1.378267
 21
-0.895979
 31
0.0
  0
LINE
  5
93
330
1F
100
AcDbEntity
  8
Default
 62
     7
420
 16777215
370
     5
100
AcDbLine
 10
1.378267
 20
-0.895979
 30
0.0
 11
1.370083
 21
-0.90745
 31
0.0
  0
LINE
  5
94
330
1F
100
AcDbEntity
  8
Default
 62
     7
420
 16777215
370
     5
100
AcDbLine
 10
1.370083
 20
-0.90745
 30
0.0
 11
1.364626
 21
-0.918102
 31
0.0
  0
LINE
  5
95
330
1F
100
AcDbEntity
  8
Default
 62
     7
420
 16777215
370
     5
100
AcDbLine
 10
1.364626
 20
-0.918102
 30
0.0
 11
1.359988
 21
-0.928208
 31
0.0
  0
LINE
  5
96
330
1F
100
AcDbEntity
  8
Default
 62
     7
420
 16777215
370
     5
100
AcDbLine
 10
1.359988
 20
-0.928208
 30
0.0
 11
1.356169
 21
-0.93804
 31
0.0
  0
LINE
  5
97
330
1F
100
AcDbEntity
  8
Default
 62
     7
420
 16777215
370
     5
100
AcDbLine
 10
1.356169
 20
-0.93804
 30
0.0
 11
1.353441
 21
-0.950331
 31
0.0
  0
LINE
  5
98
330
1F
100
AcDbEntity
  8
Default
 62
     7
420
 16777215
370
     5
100
AcDbLine
 10
1.353441
 20
-0.950331
 30
0.0
 11
1.351452
 21
-0.965648
 31
0.0
  0
LINE
  5
99
330
1F
100
AcDbEntity
  8
Default
 62
     7
420
 16777215
370
     5
100
AcDbLine
 10
1.351452
 20
-0.965648
 30
0.0
 11
1.350689
 21
-0.979791
 31
0.0
  0
LINE
  5
9A
330
1F
100
AcDbEntity
  8
Default
 62
     7
420
 16777215
370
     5
100
AcDbLine
 10
1.350689
 20
-0.979791
 30
0.0
 11
1.352216
 21
-0.994317
 31
0.0
  0
LINE
  5
9B
330
1F
100
AcDbEntity
  8
Default
 62
     7
420
 16777215
370
     5
100
AcDbLine
 10
1.352216
 20
-0.994317
 30
0.0
 11
1.354889
 21
-1.007313
 31
0.0
  0
LINE
  5
9C
330
1F
100
AcDbEntity
  8
Default
 62
     7
420
 16777215
370
     5
100
AcDbLine
 10
1.354889
 20
-1.007313
 30
0.0
 11
1.35947
 21
-1.020692
 31
0.0
  0
LINE
  5
9D
330
1F
100
AcDbEntity
  8
Default
 62
     7
420
 16777215
370
     5
100
AcDbLine
 10
1.35947
 20
-1.020692
 30
0.0
 11
1.365198
 21
-1.032924
 31
0.0
  0
LINE
  5
9E
330
1F
100
AcDbEntity
  8
Default
 62
     7
420
 16777215
370
     5
100
AcDbLine
 10
1.365198
 20
-1.032924
 30
0.0
 11
1.37207
 21
-1.045921
 31
0.0
  0
LINE
  5
9F
330
1F
100
AcDbEntity
  8
Default
 62
     7
420
 16777215
370
     5
100
AcDbLine
 10
1.37207
 20
-1.045921
 30
0.0
 11
1.382576
 21
-1.058937
 31
0.0
  0
LINE
  5
A0
330
1F
100
AcDbEntity
  8
Default
 62
     7
420
 16777215
370
     5
100
AcDbLine
 10
1.382576
 20
-1.058937
 30
0.0
 11
1.391145
 21
-1.067173
 31
0.0
  0
LINE
  5
A1
330
1F
100
AcDbEntity
  8
Default
 62
     7
420
 16777215
370
     5
100
AcDbLine
 10
1.391145
 20
-1.067173
 30
0.0
 11
1.399372
 21
-1.075066
 31
0.0
  0
LINE
  5
A2
330
1F
100
AcDbEntity
  8
Default
 62
     7
420
 16777215
370
     5
100
AcDbLine
 10
1.399372
 20
-1.075066
 30
0.0
 11
1.409312
 21
-1.081929
 31
0.0
  0
LINE
  5
A3
330
1F
100
AcDbEntity
  8
Default
 62
     7
420
 16777215
370
     5
100
AcDbLine
 10
1.409312
 20
-1.081929
 30
0.0
 11
1.417196
 21
-1.086734
 31
0.0
  0
LINE
  5
A4
330
1F
100
AcDbEntity
  8
Default
 62
     7
420
 16777215
370
     5
100
AcDbLine
 10
1.417196
 20
-1.086734
 30
0.0
 11
1.428507
 21
-1.091881
 31
0.0
  0
LINE
  5
A5
330
1F
100
AcDbEntity
  8
Default
 62
     7
420
 16777215
370
     5
100
AcDbLine
 10
1.428507
 20
-1.091881
 30
0.0
 11
1.416277
 21
-1.099254
 31
0.0
  0
LINE
  5
A6
330
1F
100
AcDbEntity
  8
Default
 62
     7
420
 16777215
370
     5
100
AcDbLine
 10
1.416277
 20
-1.099254
 30
0.0
 11
1.398159
 21
-1.106675
 31
0.0
  0
LINE
  5
A7
330
1F
100
AcDbEntity
  8
Default
 62
     7
420
 16777215
370
     5
100
AcDbLine
 10
1.398159
 20
-1.106675
 30
0.0
 11
1.380864
 21
-1.113271
 31
0.0
  0
LINE
  5
A8
330
1F
100
AcDbEntity
  8
Default
 62
     7
420
 16777215
370
     5
100
AcDbLine
 10
1.380864
 20
-1.113271
 30
0.0
 11
1.364117
 21
-1.119043
 31
0.0
  0
LINE
  5
A9
330
1F
100
AcDbEntity
  8
Default
 62
     7
420
 16777215
370
     5
100
AcDbLine
 10
1.364117
 20
-1.119043
 30
0.0
 11
1.349567
 21
-1.12289
 31
0.0
  0
LINE
  5
AA
330
1F
100
AcDbEntity
  8
Default
 62
     7
420
 16777215
370
     5
100
AcDbLine
 10
1.349567
 20
-1.12289
 30
0.0
 11
1.331495
 21
-1.12717
 31
0.0
  0
LINE
  5
AB
330
1F
100
AcDbEntity
  8
Default
 62
     7
420
 16777215
370
     5
100
AcDbLine
 10
1.331495
 20
-1.12717
 30
0.0
 11
1.313559
 21
-1.130278
 31
0.0
  0
LINE
  5
AC
330
1F
100
AcDbEntity
  8
Default
 62
     7
420
 16777215
370
     5
100
AcDbLine
 10
1.313559
 20
-1.130278
 30
0.0
 11
1.297003
 21
-1.132004
 31
0.0
  0
LINE
  5
AD
330
1F
100
AcDbEntity
  8
Default
 62
     7
420
 16777215
370
     5
100
AcDbLine
 10
1.297003
 20
-1.132004
 30
0.0
 11
1.280446
 21
-1.132695
 31
0.0
  0
LINE
  5
AE
330
1F
100
AcDbEntity
  8
Default
 62
     7
420
 16777215
370
     5
100
AcDbLine
 10
1.280446
 20
-1.132695
 30
0.0
 11
1.259406
 21
-1.132004
 31
0.0
  0
LINE
  5
AF
330
1F
100
AcDbEntity
  8
Default
 62
     7
420
 16777215
370
     5
100
AcDbLine
 10
1.259406
 20
-1.132004
 30
0.0
 11
1.244919
 21
-1.130968
 31
0.0
  0
LINE
  5
B0
330
1F
100
AcDbEntity
  8
Default
 62
     7
420
 16777215
370
     5
100
AcDbLine
 10
1.244919
 20
-1.130968
 30
0.0
 11
1.227151
 21
-1.128917
 31
0.0
  0
LINE
  5
B1
330
1F
100
AcDbEntity
  8
Default
 62
     7
420
 16777215
370
     5
100
AcDbLine
 10
1.227151
 20
-1.128917
 30
0.0
 11
1.205113
 21
-1.124659
 31
0.0
  0
LINE
  5
B2
330
1F
100
AcDbEntity
  8
Default
 62
     7
420
 16777215
370
     5
100
AcDbLine
 10
1.205113
 20
-1.124659
 30
0.0
 11
1.178821
 21
-1.118853
 31
0.0
  0
LINE
  5
B3
330
1F
100
AcDbEntity
  8
Default
 62
     7
420
 16777215
370
     5
100
AcDbLine
 10
1.178821
 20
-1.118853
 30
0.0
 11
1.153304
 21
-1.111886
 31
0.0
  0
LINE
  5
B4
330
1F
100
AcDbEntity
  8
Default
 62
     7
420
 16777215
370
     5
100
AcDbLine
 10
1.153304
 20
-1.111886
 30
0.0
 11
1.126823
 21
-1.10371
 31
0.0
  0
LINE
  5
B5
330
1F
100
AcDbEntity
  8
Default
 62
     7
420
 16777215
370
     5
100
AcDbLine
 10
1.126823
 20
-1.10371
 30
0.0
 11
1.102852
 21
-1.095969
 31
0.0
  0
LINE
  5
B6
330
1F
100
AcDbEntity
  8
Default
 62
     7
420
 16777215
370
     5
100
AcDbLine
 10
1.102852
 20
-1.095969
 30
0.0
 11
1.08236
 21
-1.090937
 31
0.0
  0
LINE
  5
B7
330
1F
100
AcDbEntity
  8
Default
 62
     7
420
 16777215
370
     5
100
AcDbLine
 10
1.08236
 20
-1.090937
 30
0.0
 11
1.066121
 21
-1.086679
 31
0.0
  0
LINE
  5
B8
330
1F
100
AcDbEntity
  8
Default
 62
     7
420
 16777215
370
     5
100
AcDbLine
 10
1.066121
 20
-1.086679
 30
0.0
 11
1.039556
 21
-1.079943
 31
0.0
  0
LINE
  5
B9
330
1F
100
AcDbEntity
  8
Default
 62
     7
420
 16777215
370
     5
100
AcDbLine
 10
1.039556
 20
-1.079943
 30
0.0
 11
1.014688
 21
-1.075692
 31
0.0
  0
LINE
  5
BA
330
1F
100
AcDbEntity
  8
Default
 62
     7
420
 16777215
370
     5
100
AcDbLine
 10
1.014688
 20
-1.075692
 30
0.0
 11
0.989213
 21
-1.072656
 31
0.0
  0
LINE
  5
BB
330
1F
100
AcDbEntity
  8
Default
 62
     7
420
 16777215
370
     5
100
AcDbLine
 10
0.989213
 20
-1.072656
 30
0.0
 11
0.961312
 21
-1.073263
 31
0.0
  0
LINE
  5
BC
330
1F
100
AcDbEntity
  8
Default
 62
     7
420
 16777215
370
     5
100
AcDbLine
 10
0.961312
 20
-1.073263
 30
0.0
 11
0.929165
 21
-1.077514
 31
0.0
  0
LINE
  5
BD
330
1F
100
AcDbEntity
  8
Default
 62
     7
420
 16777215
370
     5
100
AcDbLine
 10
0.929165
 20
-1.077514
 30
0.0
 11
0.893986
 21
-1.086015
 31
0.0
  0
LINE
  5
BE
330
1F
100
AcDbEntity
  8
Default
 62
     7
420
 16777215
370
     5
100
AcDbLine
 10
0.893986
 20
-1.086015
 30
0.0
 11
0.86002
 21
-1.099982
 31
0.0
  0
LINE
  5
BF
330
1F
100
AcDbEntity
  8
Default
 62
     7
420
 16777215
370
     5
100
AcDbLine
 10
0.86002
 20
-1.099982
 30
0.0
 11
0.836364
 21
-1.117592
 31
0.0
  0
LINE
  5
C0
330
1F
100
AcDbEntity
  8
Default
 62
     7
420
 16777215
370
     5
100
AcDbLine
 10
0.836364
 20
-1.117592
 30
0.0
 11
0.820079
 21
-1.130081
 31
0.0
  0
LINE
  5
C1
330
1F
100
AcDbEntity
  8
Default
 62
     7
420
 16777215
370
     5
100
AcDbLine
 10
0.820079
 20
-1.130081
 30
0.0
 11
0.802196
 21
-1.143245
 31
0.0
  0
LINE
  5
C2
330
1F
100
AcDbEntity
  8
Default
 62
     7
420
 16777215
370
     5
100
AcDbLine
 10
0.802196
 20
-1.143245
 30
0.0
 11
0.798167
 21
-1.138334
 31
0.0
  0
LINE
  5
C3
330
1F
100
AcDbEntity
  8
Default
 62
     7
420
 16777215
370
     5
100
AcDbLine
 10
0.798167
 20
-1.138334
 30
0.0
 11
0.793278
 21
-1.131971
 31
0.0
  0
LINE
  5
C4
330
1F
100
AcDbEntity
  8
Default
 62
     7
420
 16777215
370
     5
100
AcDbLine
 10
0.793278
 20
-1.131971
 30
0.0
 11
0.787412
 21
-1.120715
 31
0.0
  0
LINE
  5
C5
330
1F
100
AcDbEntity
  8
Default
 62
     7
420
 16777215
370
     5
100
AcDbLine
 10
0.787412
 20
-1.120715
 30
0.0
 11
0.782035
 21
-1.107991
 31
0.0
  0
LINE
  5
C6
330
1F
100
AcDbEntity
  8
Default
 62
     7
420
 16777215
370
     5
100
AcDbLine
 10
0.782035
 20
-1.107991
 30
0.0
 11
0.779102
 21
-1.099671
 31
0.0
  0
LINE
  5
C7
330
1F
100
AcDbEntity
  8
Default
 62
     7
420
 16777215
370
     5
100
AcDbLine
 10
0.779102
 20
-1.099671
 30
0.0
 11
0.776169
 21
-1.086947
 31
0.0
  0
LINE
  5
C8
330
1F
100
AcDbEntity
  8
Default
 62
     7
420
 16777215
370
     5
100
AcDbLine
 10
0.776169
 20
-1.086947
 30
0.0
 11
0.772258
 21
-1.069328
 31
0.0
  0
LINE
  5
C9
330
1F
100
AcDbEntity
  8
Default
 62
     7
420
 16777215
370
     5
100
AcDbLine
 10
0.772258
 20
-1.069328
 30
0.0
 11
0.770792
 21
-1.054646
 31
0.0
  0
LINE
  5
CA
330
1F
100
AcDbEntity
  8
Default
 62
     7
420
 16777215
370
     5
100
AcDbLine
 10
0.770792
 20
-1.054646
 30
0.0
 11
0.770792
 21
-1.039964
 31
0.0
  0
LINE
  5
CB
330
1F
100
AcDbEntity
  8
Default
 62
     7
420
 16777215
370
     5
100
AcDbLine
 10
0.770792
 20
-1.039964
 30
0.0
 11
0.772747
 21
-1.024303
 31
0.0
  0
LINE
  5
CC
330
1F
100
AcDbEntity
  8
Default
 62
     7
420
 16777215
370
     5
100
AcDbLine
 10
0.772747
 20
-1.024303
 30
0.0
 11
0.774702
 21
-1.0106
 31
0.0
  0
LINE
  5
CD
330
1F
100
AcDbEntity
  8
Default
 62
     7
420
 16777215
370
     5
100
AcDbLine
 10
0.774702
 20
-1.0106
 30
0.0
 11
0.778124
 21
-0.99445
 31
0.0
  0
LINE
  5
CE
330
1F
100
AcDbEntity
  8
Default
 62
     7
420
 16777215
370
     5
100
AcDbLine
 10
0.778124
 20
-0.99445
 30
0.0
 11
0.783013
 21
-0.980257
 31
0.0
  0
LINE
  5
CF
330
1F
100
AcDbEntity
  8
Default
 62
     7
420
 16777215
370
     5
100
AcDbLine
 10
0.783013
 20
-0.980257
 30
0.0
 11
0.78839
 21
-0.966554
 31
0.0
  0
LINE
  5
D0
330
1F
100
AcDbEntity
  8
Default
 62
     7
420
 16777215
370
     5
100
AcDbLine
 10
0.78839
 20
-0.966554
 30
0.0
 11
0.797189
 21
-0.952361
 31
0.0
  0
LINE
  5
D1
330
1F
100
AcDbEntity
  8
Default
 62
     7
420
 16777215
370
     5
100
AcDbLine
 10
0.797189
 20
-0.952361
 30
0.0
 11
0.806966
 21
-0.938658
 31
0.0
  0
LINE
  5
D2
330
1F
100
AcDbEntity
  8
Default
 62
     7
420
 16777215
370
     5
100
AcDbLine
 10
0.806966
 20
-0.938658
 30
0.0
 11
0.819187
 21
-0.925444
 31
0.0
  0
LINE
  5
D3
330
1F
100
AcDbEntity
  8
Default
 62
     7
420
 16777215
370
     5
100
AcDbLine
 10
0.819187
 20
-0.925444
 30
0.0
 11
0.830919
 21
-0.91223
 31
0.0
  0
LINE
  5
D4
330
1F
100
AcDbEntity
  8
Default
 62
     7
420
 16777215
370
     5
100
AcDbLine
 10
0.830919
 20
-0.91223
 30
0.0
 11
0.840696
 21
-0.902443
 31
0.0
  0
LINE
  5
D5
330
1F
100
AcDbEntity
  8
Default
 62
     7
420
 16777215
370
     5
100
AcDbLine
 10
0.840696
 20
-0.902443
 30
0.0
 11
0.850961
 21
-0.893144
 31
0.0
  0
LINE
  5
D6
330
1F
100
AcDbEntity
  8
Default
 62
     7
420
 16777215
370
     5
100
AcDbLine
 10
0.850961
 20
-0.893144
 30
0.0
 11
0.862204
 21
-0.884824
 31
0.0
  0
LINE
  5
D7
330
1F
100
AcDbEntity
  8
Default
 62
     7
420
 16777215
370
     5
100
AcDbLine
 10
0.862204
 20
-0.884824
 30
0.0
 11
0.872959
 21
-0.876015
 31
0.0
  0
LINE
  5
D8
330
1F
100
AcDbEntity
  8
Default
 62
     7
420
 16777215
370
     5
100
AcDbLine
 10
0.872959
 20
-0.876015
 30
0.0
 11
0.876954
 21
-0.872742
 31
0.0
  0
LINE
  5
D9
330
1F
100
AcDbEntity
  8
Default
 62
     7
420
 16777215
370
     5
100
AcDbLine
 10
0.876954
 20
-0.872742
 30
0.0
 11
1.397545
 21
-0.872742
 31
0.0
  0
CIRCLE
  5
DA
330
1F
100
AcDbEntity
  8
Default
 62
     7
420
 16777215
370
     5
100
AcDbCircle
 10
0.669249
 20
-0.540953
 30
0.0
 40
0.015
  0
CIRCLE
  5
DB
330
1F
100
AcDbEntity
  8
Default
 62
     7
420
 16777215
370
     5
100
AcDbCircle
 10
0.669249
 20
-0.852905
 30
0.0
 40
0.015
  0
LINE
  5
DC
330
1F
100
AcDbEntity
  8
Default
 62
     7
420
 16777215
370
     5
100
AcDbLine
 10
0.703199
 20
-0.52383
 30
0.0
 11
0.703199
 21
-0.526112
 31
0.0
  0
ARC
  5
DD
330
1F
100
AcDbEntity
  8
Default
 62
     7
420
 16777215
370
     5
100
AcDbCircle
 10
0.669249
 20
-0.540953
 30
0.0
 40
0.038024
100
AcDbArc
 50
26.76552400000007
 51
153.234523
  0
LINE
  5
DE
330
1F
100
AcDbEntity
  8
Default
 62
     7
420
 16777215
370
     5
100
AcDbLine
 10
0.635299
 20
-0.52383
 30
0.0
 11
0.635299
 21
-0.870029
 31
0.0
  0
ARC
  5
DF
330
1F
100
AcDbEntity
  8
Default
 62
     7
420
 16777215
370
     5
100
AcDbCircle
 10
0.669249
 20
-0.852905
 30
0.0
 40
0.038024
100
AcDbArc
 50
206.7655240000001
 51
333.234523
  0
LINE
  5
E0
330
1F
100
AcDbEntity
  8
Default
 62
     7
420
 16777215
370
     5
100
AcDbLine
 10
0.703199
 20
-0.870029
 30
0.0
 11
0.703199
 21
-0.526112
 31
0.0
  0
LINE
  5
E1
330
1F
100
AcDbEntity
  8
Default
 62
     7
420
 16777215
370
     5
100
AcDbLine
 10
2.581037
 20
-0.606048
 30
0.0
 11
2.581007
 21
-0.787811
 31
0.0
  0
LINE
  5
E2
330
1F
100
AcDbEntity
  8
Default
 62
     7
420
 16777215
370
     5
100
AcDbLine
 10
2.576036
 20
-0.616048
 30
0.0
 11
2.586036
 21
-0.61605
 31
0.0
  0
LINE
  5
E3
330
1F
100
AcDbEntity
  8
Default
 62
     7
420
 16777215
370
     5
100
AcDbLine
 10
2.57603
 20
-0.6484
 30
0.0
 11
2.58603
 21
-0.648402
 31
0.0
  0
LINE
  5
E4
330
1F
100
AcDbEntity
  8
Default
 62
     7
420
 16777215
370
     5
100
AcDbLine
 10
2.576025
 20
-0.680753
 30
0.0
 11
2.586025
 21
-0.680754
 31
0.0
  0
LINE
  5
E5
330
1F
100
AcDbEntity
  8
Default
 62
     7
420
 16777215
370
     5
100
AcDbLine
 10
2.576019
 20
-0.713105
 30
0.0
 11
2.586019
 21
-0.713107
 31
0.0
  0
LINE
  5
E6
330
1F
100
AcDbEntity
  8
Default
 62
     7
420
 16777215
370
     5
100
AcDbLine
 10
2.576014
 20
-0.745457
 30
0.0
 11
2.586014
 21
-0.745459
 31
0.0
  0
LINE
  5
E7
330
1F
100
AcDbEntity
  8
Default
 62
     7
420
 16777215
370
     5
100
AcDbLine
 10
2.576009
 20
-0.77781
 30
0.0
 11
2.586009
 21
-0.777811
 31
0.0
  0
LINE
  5
E8
330
1F
100
AcDbEntity
  8
Default
 62
     7
420
 16777215
370
     5
100
AcDbLine
 10
2.581025
 20
-0.680754
 30
0.0
 11
3.112211
 21
-0.62534
 31
0.0
  0
LINE
  5
E9
330
1F
100
AcDbEntity
  8
Default
 62
     7
420
 16777215
370
     5
100
AcDbLine
 10
2.58103
 20
-0.648401
 30
0.0
 11
2.964569
 21
-0.624621
 31
0.0
  0
LINE
  5
EA
330
1F
100
AcDbEntity
  8
Default
 62
     7
420
 16777215
370
     5
100
AcDbLine
 10
2.581036
 20
-0.616049
 30
0.0
 11
2.815835
 21
-0.624279
 31
0.0
  0
LINE
  5
EB
330
1F
100
AcDbEntity
  8
Default
 62
     7
420
 16777215
370
     5
100
AcDbLine
 10
2.581019
 20
-0.713106
 30
0.0
 11
3.112214
 21
-0.768596
 31
0.0
  0
LINE
  5
EC
330
1F
100
AcDbEntity
  8
Default
 62
     7
420
 16777215
370
     5
100
AcDbLine
 10
2.581014
 20
-0.745458
 30
0.0
 11
2.964573
 21
-0.769315
 31
0.0
  0
LINE
  5
ED
330
1F
100
AcDbEntity
  8
Default
 62
     7
420
 16777215
370
     5
100
AcDbLine
 10
2.581009
 20
-0.77781
 30
0.0
 11
2.815841
 21
-0.769657
 31
0.0
  0
LINE
  5
EE
330
1F
100
AcDbEntity
  8
Default
 62
     7
420
 16777215
370
     5
100
AcDbLine
 10
2.561037
 20
-0.606045
 30
0.0
 11
2.561007
 21
-0.787808
 31
0.0
  0
LINE
  5
EF
330
1F
100
AcDbEntity
  8
Default
 62
     7
420
 16777215
370
     5
100
AcDbLine
 10
0.703199
 20
-0.598274
 30
0.0
 11
0.789224
 21
-0.598274
 31
0.0
  0
LINE
  5
F0
330
1F
100
AcDbEntity
  8
Default
 62
     7
420
 16777215
370
     5
100
AcDbLine
 10
0.789224
 20
-0.598274
 30
0.0
 11
0.842077
 21
-0.597137
 31
0.0
  0
LINE
  5
F1
330
1F
100
AcDbEntity
  8
Default
 62
     7
420
 16777215
370
     5
100
AcDbLine
 10
0.842077
 20
-0.597137
 30
0.0
 11
2.581036
 21
-0.616049
 31
0.0
  0
LINE
  5
F2
330
1F
100
AcDbEntity
  8
Default
 62
     7
420
 16777215
370
     5
100
AcDbLine
 10
0.703199
 20
-0.637976
 30
0.0
 11
0.790078
 21
-0.637976
 31
0.0
  0
LINE
  5
F3
330
1F
100
AcDbEntity
  8
Default
 62
     7
420
 16777215
370
     5
100
AcDbLine
 10
0.790078
 20
-0.637976
 30
0.0
 11
0.842931
 21
-0.63684
 31
0.0
  0
LINE
  5
F4
330
1F
100
AcDbEntity
  8
Default
 62
     7
420
 16777215
370
     5
100
AcDbLine
 10
0.842931
 20
-0.63684
 30
0.0
 11
2.58103
 21
-0.648401
 31
0.0
  0
LINE
  5
F5
330
1F
100
AcDbEntity
  8
Default
 62
     7
420
 16777215
370
     5
100
AcDbLine
 10
0.703199
 20
-0.677679
 30
0.0
 11
0.790932
 21
-0.677679
 31
0.0
  0
LINE
  5
F6
330
1F
100
AcDbEntity
  8
Default
 62
     7
420
 16777215
370
     5
100
AcDbLine
 10
0.790932
 20
-0.677679
 30
0.0
 11
0.843785
 21
-0.676542
 31
0.0
  0
LINE
  5
F7
330
1F
100
AcDbEntity
  8
Default
 62
     7
420
 16777215
370
     5
100
AcDbLine
 10
0.843785
 20
-0.676542
 30
0.0
 11
2.581025
 21
-0.680754
 31
0.0
  0
LINE
  5
F8
330
1F
100
AcDbEntity
  8
Default
 62
     7
420
 16777215
370
     5
100
AcDbLine
 10
0.703199
 20
-0.717382
 30
0.0
 11
0.791786
 21
-0.717382
 31
0.0
  0
LINE
  5
F9
330
1F
100
AcDbEntity
  8
Default
 62
     7
420
 16777215
370
     5
100
AcDbLine
 10
0.791786
 20
-0.717382
 30
0.0
 11
0.844639
 21
-0.716245
 31
0.0
  0
LINE
  5
FA
330
1F
100
AcDbEntity
  8
Default
 62
     7
420
 16777215
370
     5
100
AcDbLine
 10
0.844639
 20
-0.716245
 30
0.0
 11
2.581019
 21
-0.713106
 31
0.0
  0
LINE
  5
FB
330
1F
100
AcDbEntity
  8
Default
 62
     7
420
 16777215
370
     5
100
AcDbLine
 10
0.703199
 20
-0.757084
 30
0.0
 11
0.79264
 21
-0.757084
 31
0.0
  0
LINE
  5
FC
330
1F
100
AcDbEntity
  8
Default
 62
     7
420
 16777215
370
     5
100
AcDbLine
 10
0.79264
 20
-0.757084
 30
0.0
 11
0.845492
 21
-0.755948
 31
0.0
  0
LINE
  5
FD
330
1F
100
AcDbEntity
  8
Default
 62
     7
420
 16777215
370
     5
100
AcDbLine
 10
0.845492
 20
-0.755948
 30
0.0
 11
2.581014
 21
-0.745458
 31
0.0
  0
LINE
  5
FE
330
1F
100
AcDbEntity
  8
Default
 62
     7
420
 16777215
370
     5
100
AcDbLine
 10
0.703199
 20
-0.796787
 30
0.0
 11
0.793493
 21
-0.796787
 31
0.0
  0
LINE
  5
FF
330
1F
100
AcDbEntity
  8
Default
 62
     7
420
 16777215
370
     5
100
AcDbLine
 10
0.793493
 20
-0.796787
 30
0.0
 11
0.846346
 21
-0.79565
 31
0.0
  0
LINE
  5
100
330
1F
100
AcDbEntity
  8
Default
 62
     7
420
 16777215
370
     5
100
AcDbLine
 10
0.846346
 20
-0.79565
 30
0.0
 11
2.581009
 21
-0.77781
 31
0.0
  0
LINE
  5
101
330
1F
100
AcDbEntity
  8
Default
 62
     7
420
 16777215
370
     5
100
AcDbLine
 10
0.964424
 20
-0.574854
 30
0.0
 11
0.964424
 21
-0.819005
 31
0.0
  0
ARC
  5
102
330
1F
100
AcDbEntity
  8
Default
 62
     7
420
 16777215
370
     5
100
AcDbCircle
 10
0.993533
 20
-0.819005
 30
0.0
 40
0.029109
100
AcDbArc
 50
180.0
 51
270.0
  0
LINE
  5
103
330
1F
100
AcDbEntity
  8
Default
 62
     7
420
 16777215
370
     5
100
AcDbLine
 10
0.993533
 20
-0.848114
 30
0.0
 11
0.998263
 21
-0.848114
 31
0.0
  0
ARC
  5
104
330
1F
100
AcDbEntity
  8
Default
 62
     7
420
 16777215
370
     5
100
AcDbCircle
 10
0.998263
 20
-0.819005
 30
0.0
 40
0.029109
100
AcDbArc
 50
270.0
 51
0.0
  0
LINE
  5
105
330
1F
100
AcDbEntity
  8
Default
 62
     7
420
 16777215
370
     5
100
AcDbLine
 10
1.027372
 20
-0.819005
 30
0.0
 11
1.027372
 21
-0.574854
 31
0.0
  0
ARC
  5
106
330
1F
100
AcDbEntity
  8
Default
 62
     7
420
 16777215
370
     5
100
AcDbCircle
 10
0.998263
 20
-0.574854
 30
0.0
 40
0.029109
100
AcDbArc
 50
0.0
 51
90.0
  0
LINE
  5
107
330
1F
100
AcDbEntity
  8
Default
 62
     7
420
 16777215
370
     5
100
AcDbLine
 10
0.998263
 20
-0.545745
 30
0.0
 11
0.993533
 21
-0.545745
 31
0.0
  0
ARC
  5
108
330
1F
100
AcDbEntity
  8
Default
 62
     7
420
 16777215
370
     5
100
AcDbCircle
 10
0.993533
 20
-0.574854
 30
0.0
 40
0.029109
100
AcDbArc
 50
90.0
 51
180.0
  0
ARC
  5
109
330
1F
100
AcDbEntity
  8
Default
 62
     7
420
 16777215
370
     5
100
AcDbCircle
 10
0.935315
 20
-0.819005
 30
0.0
 40
0.029109
100
AcDbArc
 50
270.0
 51
0.0
  0
LINE
  5
10A
330
1F
100
AcDbEntity
  8
Default
 62
     7
420
 16777215
370
     5
100
AcDbLine
 10
0.935315
 20
-0.848114
 30
0.0
 11
0.930585
 21
-0.848114
 31
0.0
  0
ARC
  5
10B
330
1F
100
AcDbEntity
  8
Default
 62
     7
420
 16777215
370
     5
100
AcDbCircle
 10
0.930585
 20
-0.819005
 30
0.0
 40
0.029109
100
AcDbArc
 50
180.0
 51
270.0
  0
LINE
  5
10C
330
1F
100
AcDbEntity
  8
Default
 62
     7
420
 16777215
370
     5
100
AcDbLine
 10
0.901476
 20
-0.819005
 30
0.0
 11
0.901476
 21
-0.574854
 31
0.0
  0
ARC
  5
10D
330
1F
100
AcDbEntity
  8
Default
 62
     7
420
 16777215
370
     5
100
AcDbCircle
 10
0.930585
 20
-0.574854
 30
0.0
 40
0.029109
100
AcDbArc
 50
90.0
 51
180.0
  0
LINE
  5
10E
330
1F
100
AcDbEntity
  8
Default
 62
     7
420
 16777215
370
     5
100
AcDbLine
 10
0.930585
 20
-0.545745
 30
0.0
 11
0.935315
 21
-0.545745
 31
0.0
  0
ARC
  5
10F
330
1F
100
AcDbEntity
  8
Default
 62
     7
420
 16777215
370
     5
100
AcDbCircle
 10
0.935315
 20
-0.574854
 30
0.0
 40
0.029109
100
AcDbArc
 50
0.0
 51
90.0
  0
LINE
  5
110
330
1F
100
AcDbEntity
  8
Default
 62
     7
420
 16777215
370
     5
100
AcDbLine
 10
1.316049
 20
-0.574854
 30
0.0
 11
1.316049
 21
-0.819005
 31
0.0
  0
ARC
  5
111
330
1F
100
AcDbEntity
  8
Default
 62
     7
420
 16777215
370
     5
100
AcDbCircle
 10
1.345158
 20
-0.819005
 30
0.0
 40
0.029109
100
AcDbArc
 50
180.0
 51
270.0
  0
LINE
  5
112
330
1F
100
AcDbEntity
  8
Default
 62
     7
420
 16777215
370
     5
100
AcDbLine
 10
1.345158
 20
-0.848114
 30
0.0
 11
1.349888
 21
-0.848114
 31
0.0
  0
ARC
  5
113
330
1F
100
AcDbEntity
  8
Default
 62
     7
420
 16777215
370
     5
100
AcDbCircle
 10
1.349888
 20
-0.819005
 30
0.0
 40
0.029109
100
AcDbArc
 50
270.0
 51
0.0
  0
LINE
  5
114
330
1F
100
AcDbEntity
  8
Default
 62
     7
420
 16777215
370
     5
100
AcDbLine
 10
1.378997
 20
-0.819005
 30
0.0
 11
1.378997
 21
-0.574854
 31
0.0
  0
ARC
  5
115
330
1F
100
AcDbEntity
  8
Default
 62
     7
420
 16777215
370
     5
100
AcDbCircle
 10
1.349888
 20
-0.574854
 30
0.0
 40
0.029109
100
AcDbArc
 50
0.0
 51
90.0
  0
LINE
  5
116
330
1F
100
AcDbEntity
  8
Default
 62
     7
420
 16777215
370
     5
100
AcDbLine
 10
1.349888
 20
-0.545745
 30
0.0
 11
1.345158
 21
-0.545745
 31
0.0
  0
ARC
  5
117
330
1F
100
AcDbEntity
  8
Default
 62
     7
420
 16777215
370
     5
100
AcDbCircle
 10
1.345158
 20
-0.574854
 30
0.0
 40
0.029109
100
AcDbArc
 50
90.0
 51
180.0
  0
ARC
  5
118
330
1F
100
AcDbEntity
  8
Default
 62
     7
420
 16777215
370
     5
100
AcDbCircle
 10
1.28694
 20
-0.819005
 30
0.0
 40
0.029109
100
AcDbArc
 50
270.0
 51
0.0
  0
LINE
  5
119
330
1F
100
AcDbEntity
  8
Default
 62
     7
420
 16777215
370
     5
100
AcDbLine
 10
1.28694
 20
-0.848114
 30
0.0
 11
1.28221
 21
-0.848114
 31
0.0
  0
ARC
  5
11A
330
1F
100
AcDbEntity
  8
Default
 62
     7
420
 16777215
370
     5
100
AcDbCircle
 10
1.28221
 20
-0.819005
 30
0.0
 40
0.029109
100
AcDbArc
 50
180.0
 51
270.0
  0
LINE
  5
11B
330
1F
100
AcDbEntity
  8
Default
 62
     7
420
 16777215
370
     5
100
AcDbLine
 10
1.253101
 20
-0.819005
 30
0.0
 11
1.253101
 21
-0.574854
 31
0.0
  0
ARC
  5
11C
330
1F
100
AcDbEntity
  8
Default
 62
     7
420
 16777215
370
     5
100
AcDbCircle
 10
1.28221
 20
-0.574854
 30
0.0
 40
0.029109
100
AcDbArc
 50
90.0
 51
180.0
  0
LINE
  5
11D
330
1F
100
AcDbEntity
  8
Default
 62
     7
420
 16777215
370
     5
100
AcDbLine
 10
1.28221
 20
-0.545745
 30
0.0
 11
1.28694
 21
-0.545745
 31
0.0
  0
ARC
  5
11E
330
1F
100
AcDbEntity
  8
Default
 62
     7
420
 16777215
370
     5
100
AcDbCircle
 10
1.28694
 20
-0.574854
 30
0.0
 40
0.029109
100
AcDbArc
 50
0.0
 51
90.0
  0
LINE
  5
11F
330
1F
100
AcDbEntity
  8
Default
 62
     7
420
 16777215
370
     5
100
AcDbLine
 10
1.509595
 20
-0.804225
 30
0.0
 11
1.462788
 21
-0.805195
 31
0.0
  0
LINE
  5
120
330
1F
100
AcDbEntity
  8
Default
 62
     7
420
 16777215
370
     5
100
AcDbLine
 10
1.509527
 20
-0.58955
 30
0.0
 11
1.462788
 21
-0.588664
 31
0.0
  0
LINE
  5
121
330
1F
100
AcDbEntity
  8
Default
 62
     7
420
 16777215
370
     5
100
AcDbLine
 10
0.050535
 20
-0.645266
 30
0.0
 11
0.054291
 21
-0.601805
 31
0.0
  0
LINE
  5
122
330
1F
100
AcDbEntity
  8
Default
 62
     7
420
 16777215
370
     5
100
AcDbLine
 10
0.054291
 20
-0.601805
 30
0.0
 11
0.058031
 21
-0.565419
 31
0.0
  0
LINE
  5
123
330
1F
100
AcDbEntity
  8
Default
 62
     7
420
 16777215
370
     5
100
AcDbLine
 10
0.058031
 20
-0.565419
 30
0.0
 11
0.06391
 21
-0.517263
 31
0.0
  0
LINE
  5
124
330
1F
100
AcDbEntity
  8
Default
 62
     7
420
 16777215
370
     5
100
AcDbLine
 10
0.06391
 20
-0.517263
 30
0.0
 11
0.068721
 21
-0.480878
 31
0.0
  0
LINE
  5
125
330
1F
100
AcDbEntity
  8
Default
 62
     7
420
 16777215
370
     5
100
AcDbLine
 10
0.068721
 20
-0.480878
 30
0.0
 11
0.077272
 21
-0.440747
 31
0.0
  0
LINE
  5
126
330
1F
100
AcDbEntity
  8
Default
 62
     7
420
 16777215
370
     5
100
AcDbLine
 10
0.077272
 20
-0.440747
 30
0.0
 11
0.084754
 21
-0.407574
 31
0.0
  0
LINE
  5
127
330
1F
100
AcDbEntity
  8
Default
 62
     7
420
 16777215
370
     5
100
AcDbLine
 10
0.084754
 20
-0.407574
 30
0.0
 11
0.095443
 21
-0.369048
 31
0.0
  0
LINE
  5
128
330
1F
100
AcDbEntity
  8
Default
 62
     7
420
 16777215
370
     5
100
AcDbLine
 10
0.095443
 20
-0.369048
 30
0.0
 11
0.107165
 21
-0.332111
 31
0.0
  0
LINE
  5
129
330
1F
100
AcDbEntity
  8
Default
 62
     7
420
 16777215
370
     5
100
AcDbLine
 10
0.107165
 20
-0.332111
 30
0.0
 11
0.122822
 21
-0.289292
 31
0.0
  0
LINE
  5
12A
330
1F
100
AcDbEntity
  8
Default
 62
     7
420
 16777215
370
     5
100
AcDbLine
 10
0.122822
 20
-0.289292
 30
0.0
 11
0.139625
 21
-0.252973
 31
0.0
  0
LINE
  5
12B
330
1F
100
AcDbEntity
  8
Default
 62
     7
420
 16777215
370
     5
100
AcDbLine
 10
0.139625
 20
-0.252973
 30
0.0
 11
0.155663
 21
-0.223915
 31
0.0
  0
LINE
  5
12C
330
1F
100
AcDbEntity
  8
Default
 62
     7
420
 16777215
370
     5
100
AcDbLine
 10
0.155663
 20
-0.223915
 30
0.0
 11
0.172643
 21
-0.198871
 31
0.0
  0
LINE
  5
12D
330
1F
100
AcDbEntity
  8
Default
 62
     7
420
 16777215
370
     5
100
AcDbLine
 10
0.172643
 20
-0.198871
 30
0.0
 11
0.187106
 21
-0.178856
 31
0.0
  0
LINE
  5
12E
330
1F
100
AcDbEntity
  8
Default
 62
     7
420
 16777215
370
     5
100
AcDbLine
 10
0.187106
 20
-0.178856
 30
0.0
 11
0.199442
 21
-0.162247
 31
0.0
  0
LINE
  5
12F
330
1F
100
AcDbEntity
  8
Default
 62
     7
420
 16777215
370
     5
100
AcDbLine
 10
0.199442
 20
-0.162247
 30
0.0
 11
0.213054
 21
-0.146064
 31
0.0
  0
LINE
  5
130
330
1F
100
AcDbEntity
  8
Default
 62
     7
420
 16777215
370
     5
100
AcDbLine
 10
0.213054
 20
-0.146064
 30
0.0
 11
0.226665
 21
-0.132863
 31
0.0
  0
LINE
  5
131
330
1F
100
AcDbEntity
  8
Default
 62
     7
420
 16777215
370
     5
100
AcDbLine
 10
0.226665
 20
-0.132863
 30
0.0
 11
0.241128
 21
-0.119234
 31
0.0
  0
LINE
  5
132
330
1F
100
AcDbEntity
  8
Default
 62
     7
420
 16777215
370
     5
100
AcDbLine
 10
0.241128
 20
-0.119234
 30
0.0
 11
0.252727
 21
-0.111589
 31
0.0
  0
LINE
  5
133
330
1F
100
AcDbEntity
  8
Default
 62
     7
420
 16777215
370
     5
100
AcDbLine
 10
0.252727
 20
-0.111589
 30
0.0
 11
0.280172
 21
-0.092565
 31
0.0
  0
LINE
  5
134
330
1F
100
AcDbEntity
  8
Default
 62
     7
420
 16777215
370
     5
100
AcDbLine
 10
0.280172
 20
-0.092565
 30
0.0
 11
0.302867
 21
-0.079885
 31
0.0
  0
LINE
  5
135
330
1F
100
AcDbEntity
  8
Default
 62
     7
420
 16777215
370
     5
100
AcDbLine
 10
0.302867
 20
-0.079885
 30
0.0
 11
0.326618
 21
-0.068259
 31
0.0
  0
LINE
  5
136
330
1F
100
AcDbEntity
  8
Default
 62
     7
420
 16777215
370
     5
100
AcDbLine
 10
0.326618
 20
-0.068259
 30
0.0
 11
0.350896
 21
-0.06139
 31
0.0
  0
LINE
  5
137
330
1F
100
AcDbEntity
  8
Default
 62
     7
420
 16777215
370
     5
100
AcDbLine
 10
0.350896
 20
-0.06139
 30
0.0
 11
0.377813
 21
-0.056106
 31
0.0
  0
LINE
  5
138
330
1F
100
AcDbEntity
  8
Default
 62
     7
420
 16777215
370
     5
100
AcDbLine
 10
0.377813
 20
-0.056106
 30
0.0
 11
0.403676
 21
-0.052407
 31
0.0
  0
LINE
  5
139
330
1F
100
AcDbEntity
  8
Default
 62
     7
420
 16777215
370
     5
100
AcDbLine
 10
0.403676
 20
-0.052407
 30
0.0
 11
0.426808
 21
-0.050525
 31
0.0
  0
LINE
  5
13A
330
1F
100
AcDbEntity
  8
Default
 62
     7
420
 16777215
370
     5
100
AcDbLine
 10
0.426808
 20
-0.050525
 30
0.0
 11
0.45041
 21
-0.05
 31
0.0
  0
LINE
  5
13B
330
1F
100
AcDbEntity
  8
Default
 62
     7
420
 16777215
370
     5
100
AcDbLine
 10
0.45041
 20
-0.05
 30
0.0
 11
0.47139
 21
-0.05105
 31
0.0
  0
LINE
  5
13C
330
1F
100
AcDbEntity
  8
Default
 62
     7
420
 16777215
370
     5
100
AcDbLine
 10
0.47139
 20
-0.05105
 30
0.0
 11
0.502335
 21
-0.054201
 31
0.0
  0
LINE
  5
13D
330
1F
100
AcDbEntity
  8
Default
 62
     7
420
 16777215
370
     5
100
AcDbLine
 10
0.502335
 20
-0.054201
 30
0.0
 11
0.529084
 21
-0.058927
 31
0.0
  0
LINE
  5
13E
330
1F
100
AcDbEntity
  8
Default
 62
     7
420
 16777215
370
     5
100
AcDbLine
 10
0.529084
 20
-0.058927
 30
0.0
 11
0.555309
 21
-0.065229
 31
0.0
  0
LINE
  5
13F
330
1F
100
AcDbEntity
  8
Default
 62
     7
420
 16777215
370
     5
100
AcDbLine
 10
0.555309
 20
-0.065229
 30
0.0
 11
0.577338
 21
-0.072579
 31
0.0
  0
LINE
  5
140
330
1F
100
AcDbEntity
  8
Default
 62
     7
420
 16777215
370
     5
100
AcDbLine
 10
0.577338
 20
-0.072579
 30
0.0
 11
0.596017
 21
-0.079353
 31
0.0
  0
LINE
  5
141
330
1F
100
AcDbEntity
  8
Default
 62
     7
420
 16777215
370
     5
100
AcDbLine
 10
0.596017
 20
-0.079353
 30
0.0
 11
0.61866
 21
-0.089816
 31
0.0
  0
LINE
  5
142
330
1F
100
AcDbEntity
  8
Default
 62
     7
420
 16777215
370
     5
100
AcDbLine
 10
0.61866
 20
-0.089816
 30
0.0
 11
0.647108
 21
-0.103184
 31
0.0
  0
LINE
  5
143
330
1F
100
AcDbEntity
  8
Default
 62
     7
420
 16777215
370
     5
100
AcDbLine
 10
0.647108
 20
-0.103184
 30
0.0
 11
0.676137
 21
-0.118297
 31
0.0
  0
LINE
  5
144
330
1F
100
AcDbEntity
  8
Default
 62
     7
420
 16777215
370
     5
100
AcDbLine
 10
0.676137
 20
-0.118297
 30
0.0
 11
0.701102
 21
-0.132829
 31
0.0
  0
LINE
  5
145
330
1F
100
AcDbEntity
  8
Default
 62
     7
420
 16777215
370
     5
100
AcDbLine
 10
0.701102
 20
-0.132829
 30
0.0
 11
0.720261
 21
-0.145035
 31
0.0
  0
LINE
  5
146
330
1F
100
AcDbEntity
  8
Default
 62
     7
420
 16777215
370
     5
100
AcDbLine
 10
0.720261
 20
-0.145035
 30
0.0
 11
0.742703
 21
-0.161655
 31
0.0
  0
LINE
  5
147
330
1F
100
AcDbEntity
  8
Default
 62
     7
420
 16777215
370
     5
100
AcDbLine
 10
0.742703
 20
-0.161655
 30
0.0
 11
0.754717
 21
-0.170445
 31
0.0
  0
LINE
  5
148
330
1F
100
AcDbEntity
  8
Default
 62
     7
420
 16777215
370
     5
100
AcDbLine
 10
0.754717
 20
-0.170445
 30
0.0
 11
0.773663
 21
-0.185712
 31
0.0
  0
LINE
  5
149
330
1F
100
AcDbEntity
  8
Default
 62
     7
420
 16777215
370
     5
100
AcDbLine
 10
0.773663
 20
-0.185712
 30
0.0
 11
0.795843
 21
-0.201903
 31
0.0
  0
LINE
  5
14A
330
1F
100
AcDbEntity
  8
Default
 62
     7
420
 16777215
370
     5
100
AcDbLine
 10
0.795843
 20
-0.201903
 30
0.0
 11
0.818485
 21
-0.217632
 31
0.0
  0
LINE
  5
14B
330
1F
100
AcDbEntity
  8
Default
 62
     7
420
 16777215
370
     5
100
AcDbLine
 10
0.818485
 20
-0.217632
 30
0.0
 11
0.839279
 21
-0.230585
 31
0.0
  0
LINE
  5
14C
330
1F
100
AcDbEntity
  8
Default
 62
     7
420
 16777215
370
     5
100
AcDbLine
 10
0.839279
 20
-0.230585
 30
0.0
 11
0.858508
 21
-0.240826
 31
0.0
  0
LINE
  5
14D
330
1F
100
AcDbEntity
  8
Default
 62
     7
420
 16777215
370
     5
100
AcDbLine
 10
0.858508
 20
-0.240826
 30
0.0
 11
0.884224
 21
-0.249561
 31
0.0
  0
LINE
  5
14E
330
1F
100
AcDbEntity
  8
Default
 62
     7
420
 16777215
370
     5
100
AcDbLine
 10
0.884224
 20
-0.249561
 30
0.0
 11
0.90397
 21
-0.25232
 31
0.0
  0
LINE
  5
14F
330
1F
100
AcDbEntity
  8
Default
 62
     7
420
 16777215
370
     5
100
AcDbLine
 10
0.90397
 20
-0.25232
 30
0.0
 11
0.919583
 21
-0.2537
 31
0.0
  0
LINE
  5
150
330
1F
100
AcDbEntity
  8
Default
 62
     7
420
 16777215
370
     5
100
AcDbLine
 10
0.919583
 20
-0.2537
 30
0.0
 11
0.93841
 21
-0.25232
 31
0.0
  0
LINE
  5
151
330
1F
100
AcDbEntity
  8
Default
 62
     7
420
 16777215
370
     5
100
AcDbLine
 10
0.93841
 20
-0.25232
 30
0.0
 11
0.954941
 21
-0.249103
 31
0.0
  0
LINE
  5
152
330
1F
100
AcDbEntity
  8
Default
 62
     7
420
 16777215
370
     5
100
AcDbLine
 10
0.954941
 20
-0.249103
 30
0.0
 11
0.97373
 21
-0.244735
 31
0.0
  0
LINE
  5
153
330
1F
100
AcDbEntity
  8
Default
 62
     7
420
 16777215
370
     5
100
AcDbLine
 10
0.97373
 20
-0.244735
 30
0.0
 11
0.995634
 21
-0.236512
 31
0.0
  0
LINE
  5
154
330
1F
100
AcDbEntity
  8
Default
 62
     7
420
 16777215
370
     5
100
AcDbLine
 10
0.995634
 20
-0.236512
 30
0.0
 11
1.021645
 21
-0.227831
 31
0.0
  0
LINE
  5
155
330
1F
100
AcDbEntity
  8
Default
 62
     7
420
 16777215
370
     5
100
AcDbLine
 10
1.021645
 20
-0.227831
 30
0.0
 11
1.056782
 21
-0.21504
 31
0.0
  0
LINE
  5
156
330
1F
100
AcDbEntity
  8
Default
 62
     7
420
 16777215
370
     5
100
AcDbLine
 10
1.056782
 20
-0.21504
 30
0.0
 11
1.085075
 21
-0.206358
 31
0.0
  0
LINE
  5
157
330
1F
100
AcDbEntity
  8
Default
 62
     7
420
 16777215
370
     5
100
AcDbLine
 10
1.085075
 20
-0.206358
 30
0.0
 11
1.12981
 21
-0.193966
 31
0.0
  0
LINE
  5
158
330
1F
100
AcDbEntity
  8
Default
 62
     7
420
 16777215
370
     5
100
AcDbLine
 10
1.12981
 20
-0.193966
 30
0.0
 11
1.152168
 21
-0.188127
 31
0.0
  0
LINE
  5
159
330
1F
100
AcDbEntity
  8
Default
 62
     7
420
 16777215
370
     5
100
AcDbLine
 10
1.152168
 20
-0.188127
 30
0.0
 11
1.172904
 21
-0.183261
 31
0.0
  0
LINE
  5
15A
330
1F
100
AcDbEntity
  8
Default
 62
     7
420
 16777215
370
     5
100
AcDbLine
 10
1.172904
 20
-0.183261
 30
0.0
 11
1.193318
 21
-0.178395
 31
0.0
  0
LINE
  5
15B
330
1F
100
AcDbEntity
  8
Default
 62
     7
420
 16777215
370
     5
100
AcDbLine
 10
1.193318
 20
-0.178395
 30
0.0
 11
1.215027
 21
-0.174826
 31
0.0
  0
LINE
  5
15C
330
1F
100
AcDbEntity
  8
Default
 62
     7
420
 16777215
370
     5
100
AcDbLine
 10
1.215027
 20
-0.174826
 30
0.0
 11
1.230892
 21
-0.172467
 31
0.0
  0
LINE
  5
15D
330
1F
100
AcDbEntity
  8
Default
 62
     7
420
 16777215
370
     5
100
AcDbLine
 10
1.230892
 20
-0.172467
 30
0.0
 11
1.255751
 21
-0.168995
 31
0.0
  0
LINE
  5
15E
330
1F
100
AcDbEntity
  8
Default
 62
     7
420
 16777215
370
     5
100
AcDbLine
 10
1.255751
 20
-0.168995
 30
0.0
 11
1.27801
 21
-0.168416
 31
0.0
  0
LINE
  5
15F
330
1F
100
AcDbEntity
  8
Default
 62
     7
420
 16777215
370
     5
100
AcDbLine
 10
1.27801
 20
-0.168416
 30
0.0
 11
1.301714
 21
-0.168416
 31
0.0
  0
LINE
  5
160
330
1F
100
AcDbEntity
  8
Default
 62
     7
420
 16777215
370
     5
100
AcDbLine
 10
1.301714
 20
-0.168416
 30
0.0
 11
1.324968
 21
-0.169124
 31
0.0
  0
LINE
  5
161
330
1F
100
AcDbEntity
  8
Default
 62
     7
420
 16777215
370
     5
100
AcDbLine
 10
1.324968
 20
-0.169124
 30
0.0
 11
1.348546
 21
-0.169893
 31
0.0
  0
LINE
  5
162
330
1F
100
AcDbEntity
  8
Default
 62
     7
420
 16777215
370
     5
100
AcDbLine
 10
1.348546
 20
-0.169893
 30
0.0
 11
1.368727
 21
-0.171247
 31
0.0
  0
LINE
  5
163
330
1F
100
AcDbEntity
  8
Default
 62
     7
420
 16777215
370
     5
100
AcDbLine
 10
1.368727
 20
-0.171247
 30
0.0
 11
1.399491
 21
-0.176049
 31
0.0
  0
LINE
  5
164
330
1F
100
AcDbEntity
  8
Default
 62
     7
420
 16777215
370
     5
100
AcDbLine
 10
1.399491
 20
-0.176049
 30
0.0
 11
1.416818
 21
-0.178995
 31
0.0
  0
LINE
  5
165
330
1F
100
AcDbEntity
  8
Default
 62
     7
420
 16777215
370
     5
100
AcDbLine
 10
1.416818
 20
-0.178995
 30
0.0
 11
1.438378
 21
-0.184107
 31
0.0
  0
LINE
  5
166
330
1F
100
AcDbEntity
  8
Default
 62
     7
420
 16777215
370
     5
100
AcDbLine
 10
1.438378
 20
-0.184107
 30
0.0
 11
1.458519
 21
-0.190923
 31
0.0
  0
LINE
  5
167
330
1F
100
AcDbEntity
  8
Default
 62
     7
420
 16777215
370
     5
100
AcDbLine
 10
1.458519
 20
-0.190923
 30
0.0
 11
1.481586
 21
-0.199311
 31
0.0
  0
LINE
  5
168
330
1F
100
AcDbEntity
  8
Default
 62
     7
420
 16777215
370
     5
100
AcDbLine
 10
1.481586
 20
-0.199311
 30
0.0
 11
1.502339
 21
-0.208686
 31
0.0
  0
LINE
  5
169
330
1F
100
AcDbEntity
  8
Default
 62
     7
420
 16777215
370
     5
100
AcDbLine
 10
1.502339
 20
-0.208686
 30
0.0
 11
1.524362
 21
-0.220385
 31
0.0
  0
LINE
  5
16A
330
1F
100
AcDbEntity
  8
Default
 62
     7
420
 16777215
370
     5
100
AcDbLine
 10
1.524362
 20
-0.220385
 30
0.0
 11
1.548298
 21
-0.234834
 31
0.0
  0
LINE
  5
16B
330
1F
100
AcDbEntity
  8
Default
 62
     7
420
 16777215
370
     5
100
AcDbLine
 10
1.548298
 20
-0.234834
 30
0.0
 11
1.569066
 21
-0.249634
 31
0.0
  0
LINE
  5
16C
330
1F
100
AcDbEntity
  8
Default
 62
     7
420
 16777215
370
     5
100
AcDbLine
 10
1.569066
 20
-0.249634
 30
0.0
 11
1.590889
 21
-0.267255
 31
0.0
  0
LINE
  5
16D
330
1F
100
AcDbEntity
  8
Default
 62
     7
420
 16777215
370
     5
100
AcDbLine
 10
1.590889
 20
-0.267255
 30
0.0
 11
1.609897
 21
-0.285579
 31
0.0
  0
LINE
  5
16E
330
1F
100
AcDbEntity
  8
Default
 62
     7
420
 16777215
370
     5
100
AcDbLine
 10
1.609897
 20
-0.285579
 30
0.0
 11
1.627145
 21
-0.303904
 31
0.0
  0
LINE
  5
16F
330
1F
100
AcDbEntity
  8
Default
 62
     7
420
 16777215
370
     5
100
AcDbLine
 10
1.627145
 20
-0.303904
 30
0.0
 11
1.642548
 21
-0.322098
 31
0.0
  0
LINE
  5
170
330
1F
100
AcDbEntity
  8
Default
 62
     7
420
 16777215
370
     5
100
AcDbLine
 10
1.642548
 20
-0.322098
 30
0.0
 11
1.65844
 21
-0.342904
 31
0.0
  0
LINE
  5
171
330
1F
100
AcDbEntity
  8
Default
 62
     7
420
 16777215
370
     5
100
AcDbLine
 10
1.65844
 20
-0.342904
 30
0.0
 11
1.666997
 21
-0.360039
 31
0.0
  0
LINE
  5
172
330
1F
100
AcDbEntity
  8
Default
 62
     7
420
 16777215
370
     5
100
AcDbLine
 10
1.666997
 20
-0.360039
 30
0.0
 11
1.669443
 21
-0.370442
 31
0.0
  0
LINE
  5
173
330
1F
100
AcDbEntity
  8
Default
 62
     7
420
 16777215
370
     5
100
AcDbLine
 10
1.669443
 20
-0.370442
 30
0.0
 11
1.669443
 21
-0.375339
 31
0.0
  0
LINE
  5
174
330
1F
100
AcDbEntity
  8
Default
 62
     7
420
 16777215
370
     5
100
AcDbLine
 10
1.669443
 20
-0.375339
 30
0.0
 11
1.664553
 21
-0.379011
 31
0.0
  0
LINE
  5
175
330
1F
100
AcDbEntity
  8
Default
 62
     7
420
 16777215
370
     5
100
AcDbLine
 10
1.664553
 20
-0.379011
 30
0.0
 11
1.654162
 21
-0.380847
 31
0.0
  0
LINE
  5
176
330
1F
100
AcDbEntity
  8
Default
 62
     7
420
 16777215
370
     5
100
AcDbLine
 10
1.654162
 20
-0.380847
 30
0.0
 11
1.628488
 21
-0.38207
 31
0.0
  0
LINE
  5
177
330
1F
100
AcDbEntity
  8
Default
 62
     7
420
 16777215
370
     5
100
AcDbLine
 10
1.628488
 20
-0.38207
 30
0.0
 11
1.596703
 21
-0.381457
 31
0.0
  0
LINE
  5
178
330
1F
100
AcDbEntity
  8
Default
 62
     7
420
 16777215
370
     5
100
AcDbLine
 10
1.596703
 20
-0.381457
 30
0.0
 11
1.563696
 21
-0.38207
 31
0.0
  0
LINE
  5
179
330
1F
100
AcDbEntity
  8
Default
 62
     7
420
 16777215
370
     5
100
AcDbLine
 10
1.563696
 20
-0.38207
 30
0.0
 11
1.535578
 21
-0.386354
 31
0.0
  0
LINE
  5
17A
330
1F
100
AcDbEntity
  8
Default
 62
     7
420
 16777215
370
     5
100
AcDbLine
 10
1.535578
 20
-0.386354
 30
0.0
 11
1.511604
 21
-0.393108
 31
0.0
  0
LINE
  5
17B
330
1F
100
AcDbEntity
  8
Default
 62
     7
420
 16777215
370
     5
100
AcDbLine
 10
1.511604
 20
-0.393108
 30
0.0
 11
1.482875
 21
-0.408408
 31
0.0
  0
LINE
  5
17C
330
1F
100
AcDbEntity
  8
Default
 62
     7
420
 16777215
370
     5
100
AcDbLine
 10
1.482875
 20
-0.408408
 30
0.0
 11
1.464537
 21
-0.426154
 31
0.0
  0
LINE
  5
17D
330
1F
100
AcDbEntity
  8
Default
 62
     7
420
 16777215
370
     5
100
AcDbLine
 10
1.464537
 20
-0.426154
 30
0.0
 11
1.455368
 21
-0.439618
 31
0.0
  0
LINE
  5
17E
330
1F
100
AcDbEntity
  8
Default
 62
     7
420
 16777215
370
     5
100
AcDbLine
 10
1.455368
 20
-0.439618
 30
0.0
 11
1.448033
 21
-0.460423
 31
0.0
  0
LINE
  5
17F
330
1F
100
AcDbEntity
  8
Default
 62
     7
420
 16777215
370
     5
100
AcDbLine
 10
1.448033
 20
-0.460423
 30
0.0
 11
1.443754
 21
-0.483679
 31
0.0
  0
LINE
  5
180
330
1F
100
AcDbEntity
  8
Default
 62
     7
420
 16777215
370
     5
100
AcDbLine
 10
1.443754
 20
-0.483679
 30
0.0
 11
1.446199
 21
-0.498977
 31
0.0
  0
LINE
  5
181
330
1F
100
AcDbEntity
  8
Default
 62
     7
420
 16777215
370
     5
100
AcDbLine
 10
1.446199
 20
-0.498977
 30
0.0
 11
1.451089
 21
-0.516112
 31
0.0
  0
LINE
  5
182
330
1F
100
AcDbEntity
  8
Default
 62
     7
420
 16777215
370
     5
100
AcDbLine
 10
1.451089
 20
-0.516112
 30
0.0
 11
1.457202
 21
-0.530187
 31
0.0
  0
LINE
  5
183
330
1F
100
AcDbEntity
  8
Default
 62
     7
420
 16777215
370
     5
100
AcDbLine
 10
1.457202
 20
-0.530187
 30
0.0
 11
1.468816
 21
-0.545486
 31
0.0
  0
LINE
  5
184
330
1F
100
AcDbEntity
  8
Default
 62
     7
420
 16777215
370
     5
100
AcDbLine
 10
1.468816
 20
-0.545486
 30
0.0
 11
1.509527
 21
-0.58955
 31
0.0
  0
LINE
  5
185
330
1F
100
AcDbEntity
  8
Default
 62
     7
420
 16777215
370
     5
100
AcDbLine
 10
1.509527
 20
-0.58955
 30
0.0
 11
1.813248
 21
-0.595314
 31
0.0
  0
LINE
  5
186
330
1F
100
AcDbEntity
  8
Default
 62
     7
420
 16777215
370
     5
100
AcDbLine
 10
1.813248
 20
-0.595314
 30
0.0
 11
2.65898
 21
-0.607138
 31
0.0
  0
LINE
  5
187
330
1F
100
AcDbEntity
  8
Default
 62
     7
420
 16777215
370
     5
100
AcDbLine
 10
2.65898
 20
-0.607138
 30
0.0
 11
2.664924
 21
-0.605089
 31
0.0
  0
LINE
  5
188
330
1F
100
AcDbEntity
  8
Default
 62
     7
420
 16777215
370
     5
100
AcDbLine
 10
2.664924
 20
-0.605089
 30
0.0
 11
2.676561
 21
-0.600518
 31
0.0
  0
LINE
  5
189
330
1F
100
AcDbEntity
  8
Default
 62
     7
420
 16777215
370
     5
100
AcDbLine
 10
2.676561
 20
-0.600518
 30
0.0
 11
2.685606
 21
-0.595777
 31
0.0
  0
LINE
  5
18A
330
1F
100
AcDbEntity
  8
Default
 62
     7
420
 16777215
370
     5
100
AcDbLine
 10
2.685606
 20
-0.595777
 30
0.0
 11
2.694053
 21
-0.590581
 31
0.0
  0
LINE
  5
18B
330
1F
100
AcDbEntity
  8
Default
 62
     7
420
 16777215
370
     5
100
AcDbLine
 10
2.694053
 20
-0.590581
 30
0.0
 11
2.703035
 21
-0.583564
 31
0.0
  0
LINE
  5
18C
330
1F
100
AcDbEntity
  8
Default
 62
     7
420
 16777215
370
     5
100
AcDbLine
 10
2.703035
 20
-0.583564
 30
0.0
 11
2.710893
 21
-0.576861
 31
0.0
  0
LINE
  5
18D
330
1F
100
AcDbEntity
  8
Default
 62
     7
420
 16777215
370
     5
100
AcDbLine
 10
2.710893
 20
-0.576861
 30
0.0
 11
2.717551
 21
-0.570148
 31
0.0
  0
LINE
  5
18E
330
1F
100
AcDbEntity
  8
Default
 62
     7
420
 16777215
370
     5
100
AcDbLine
 10
2.717551
 20
-0.570148
 30
0.0
 11
2.723357
 21
-0.56341
 31
0.0
  0
LINE
  5
18F
330
1F
100
AcDbEntity
  8
Default
 62
     7
420
 16777215
370
     5
100
AcDbLine
 10
2.723357
 20
-0.56341
 30
0.0
 11
2.730176
 21
-0.555195
 31
0.0
  0
LINE
  5
190
330
1F
100
AcDbEntity
  8
Default
 62
     7
420
 16777215
370
     5
100
AcDbLine
 10
2.730176
 20
-0.555195
 30
0.0
 11
2.734371
 21
-0.550971
 31
0.0
  0
ARC
  5
191
330
1F
100
AcDbEntity
  8
Default
 62
     7
420
 16777215
370
     5
100
AcDbCircle
 10
2.741466
 20
-0.558018
 30
0.0
 40
0.01
100
AcDbArc
 50
84.64041499999985
 51
135.1969480000002
  0
LINE
  5
192
330
1F
100
AcDbEntity
  8
Default
 62
     7
420
 16777215
370
     5
100
AcDbLine
 10
2.7424
 20
-0.548062
 30
0.0
 11
2.744338
 21
-0.548244
 31
0.0
  0
LINE
  5
193
330
1F
100
AcDbEntity
  8
Default
 62
     7
420
 16777215
370
     5
100
AcDbLine
 10
2.744338
 20
-0.548244
 30
0.0
 11
2.752838
 21
-0.54905
 31
0.0
  0
LINE
  5
194
330
1F
100
AcDbEntity
  8
Default
 62
     7
420
 16777215
370
     5
100
AcDbLine
 10
2.752838
 20
-0.54905
 30
0.0
 11
2.759965
 21
-0.549736
 31
0.0
  0
LINE
  5
195
330
1F
100
AcDbEntity
  8
Default
 62
     7
420
 16777215
370
     5
100
AcDbLine
 10
2.759965
 20
-0.549736
 30
0.0
 11
2.765912
 21
-0.550318
 31
0.0
  0
LINE
  5
196
330
1F
100
AcDbEntity
  8
Default
 62
     7
420
 16777215
370
     5
100
AcDbLine
 10
2.765912
 20
-0.550318
 30
0.0
 11
2.770867
 21
-0.550811
 31
0.0
  0
LINE
  5
197
330
1F
100
AcDbEntity
  8
Default
 62
     7
420
 16777215
370
     5
100
AcDbLine
 10
2.770867
 20
-0.550811
 30
0.0
 11
2.775022
 21
-0.551233
 31
0.0
  0
LINE
  5
198
330
1F
100
AcDbEntity
  8
Default
 62
     7
420
 16777215
370
     5
100
AcDbLine
 10
2.775022
 20
-0.551233
 30
0.0
 11
2.778565
 21
-0.5516
 31
0.0
  0
LINE
  5
199
330
1F
100
AcDbEntity
  8
Default
 62
     7
420
 16777215
370
     5
100
AcDbLine
 10
2.778565
 20
-0.5516
 30
0.0
 11
2.781688
 21
-0.551928
 31
0.0
  0
LINE
  5
19A
330
1F
100
AcDbEntity
  8
Default
 62
     7
420
 16777215
370
     5
100
AcDbLine
 10
2.781688
 20
-0.551928
 30
0.0
 11
2.784554
 21
-0.552232
 31
0.0
  0
LINE
  5
19B
330
1F
100
AcDbEntity
  8
Default
 62
     7
420
 16777215
370
     5
100
AcDbLine
 10
2.784554
 20
-0.552232
 30
0.0
 11
2.787226
 21
-0.552516
 31
0.0
  0
LINE
  5
19C
330
1F
100
AcDbEntity
  8
Default
 62
     7
420
 16777215
370
     5
100
AcDbLine
 10
2.787226
 20
-0.552516
 30
0.0
 11
2.789737
 21
-0.552782
 31
0.0
  0
LINE
  5
19D
330
1F
100
AcDbEntity
  8
Default
 62
     7
420
 16777215
370
     5
100
AcDbLine
 10
2.789737
 20
-0.552782
 30
0.0
 11
2.792124
 21
-0.553033
 31
0.0
  0
LINE
  5
19E
330
1F
100
AcDbEntity
  8
Default
 62
     7
420
 16777215
370
     5
100
AcDbLine
 10
2.792124
 20
-0.553033
 30
0.0
 11
2.794422
 21
-0.55327
 31
0.0
  0
LINE
  5
19F
330
1F
100
AcDbEntity
  8
Default
 62
     7
420
 16777215
370
     5
100
AcDbLine
 10
2.794422
 20
-0.55327
 30
0.0
 11
2.796666
 21
-0.553496
 31
0.0
  0
LINE
  5
1A0
330
1F
100
AcDbEntity
  8
Default
 62
     7
420
 16777215
370
     5
100
AcDbLine
 10
2.796666
 20
-0.553496
 30
0.0
 11
2.798892
 21
-0.553714
 31
0.0
  0
LINE
  5
1A1
330
1F
100
AcDbEntity
  8
Default
 62
     7
420
 16777215
370
     5
100
AcDbLine
 10
2.798892
 20
-0.553714
 30
0.0
 11
2.801135
 21
-0.553924
 31
0.0
  0
LINE
  5
1A2
330
1F
100
AcDbEntity
  8
Default
 62
     7
420
 16777215
370
     5
100
AcDbLine
 10
2.801135
 20
-0.553924
 30
0.0
 11
2.803424
 21
-0.55413
 31
0.0
  0
LINE
  5
1A3
330
1F
100
AcDbEntity
  8
Default
 62
     7
420
 16777215
370
     5
100
AcDbLine
 10
2.803424
 20
-0.55413
 30
0.0
 11
2.80576
 21
-0.554333
 31
0.0
  0
LINE
  5
1A4
330
1F
100
AcDbEntity
  8
Default
 62
     7
420
 16777215
370
     5
100
AcDbLine
 10
2.80576
 20
-0.554333
 30
0.0
 11
2.808138
 21
-0.554533
 31
0.0
  0
LINE
  5
1A5
330
1F
100
AcDbEntity
  8
Default
 62
     7
420
 16777215
370
     5
100
AcDbLine
 10
2.808138
 20
-0.554533
 30
0.0
 11
2.810553
 21
-0.554731
 31
0.0
  0
LINE
  5
1A6
330
1F
100
AcDbEntity
  8
Default
 62
     7
420
 16777215
370
     5
100
AcDbLine
 10
2.810553
 20
-0.554731
 30
0.0
 11
2.812999
 21
-0.554929
 31
0.0
  0
LINE
  5
1A7
330
1F
100
AcDbEntity
  8
Default
 62
     7
420
 16777215
370
     5
100
AcDbLine
 10
2.812999
 20
-0.554929
 30
0.0
 11
2.815472
 21
-0.555126
 31
0.0
  0
LINE
  5
1A8
330
1F
100
AcDbEntity
  8
Default
 62
     7
420
 16777215
370
     5
100
AcDbLine
 10
2.815472
 20
-0.555126
 30
0.0
 11
2.817967
 21
-0.555324
 31
0.0
  0
LINE
  5
1A9
330
1F
100
AcDbEntity
  8
Default
 62
     7
420
 16777215
370
     5
100
AcDbLine
 10
2.817967
 20
-0.555324
 30
0.0
 11
2.820477
 21
-0.555524
 31
0.0
  0
LINE
  5
1AA
330
1F
100
AcDbEntity
  8
Default
 62
     7
420
 16777215
370
     5
100
AcDbLine
 10
2.820477
 20
-0.555524
 30
0.0
 11
2.823001
 21
-0.555726
 31
0.0
  0
LINE
  5
1AB
330
1F
100
AcDbEntity
  8
Default
 62
     7
420
 16777215
370
     5
100
AcDbLine
 10
2.823001
 20
-0.555726
 30
0.0
 11
2.825544
 21
-0.555929
 31
0.0
  0
LINE
  5
1AC
330
1F
100
AcDbEntity
  8
Default
 62
     7
420
 16777215
370
     5
100
AcDbLine
 10
2.825544
 20
-0.555929
 30
0.0
 11
2.828113
 21
-0.556134
 31
0.0
  0
LINE
  5
1AD
330
1F
100
AcDbEntity
  8
Default
 62
     7
420
 16777215
370
     5
100
AcDbLine
 10
2.828113
 20
-0.556134
 30
0.0
 11
2.830716
 21
-0.556339
 31
0.0
  0
LINE
  5
1AE
330
1F
100
AcDbEntity
  8
Default
 62
     7
420
 16777215
370
     5
100
AcDbLine
 10
2.830716
 20
-0.556339
 30
0.0
 11
2.833362
 21
-0.556542
 31
0.0
  0
LINE
  5
1AF
330
1F
100
AcDbEntity
  8
Default
 62
     7
420
 16777215
370
     5
100
AcDbLine
 10
2.833362
 20
-0.556542
 30
0.0
 11
2.836058
 21
-0.556744
 31
0.0
  0
LINE
  5
1B0
330
1F
100
AcDbEntity
  8
Default
 62
     7
420
 16777215
370
     5
100
AcDbLine
 10
2.836058
 20
-0.556744
 30
0.0
 11
2.838811
 21
-0.556943
 31
0.0
  0
LINE
  5
1B1
330
1F
100
AcDbEntity
  8
Default
 62
     7
420
 16777215
370
     5
100
AcDbLine
 10
2.838811
 20
-0.556943
 30
0.0
 11
2.84163
 21
-0.557139
 31
0.0
  0
LINE
  5
1B2
330
1F
100
AcDbEntity
  8
Default
 62
     7
420
 16777215
370
     5
100
AcDbLine
 10
2.84163
 20
-0.557139
 30
0.0
 11
2.844524
 21
-0.557331
 31
0.0
  0
LINE
  5
1B3
330
1F
100
AcDbEntity
  8
Default
 62
     7
420
 16777215
370
     5
100
AcDbLine
 10
2.844524
 20
-0.557331
 30
0.0
 11
2.847507
 21
-0.557519
 31
0.0
  0
LINE
  5
1B4
330
1F
100
AcDbEntity
  8
Default
 62
     7
420
 16777215
370
     5
100
AcDbLine
 10
2.847507
 20
-0.557519
 30
0.0
 11
2.850594
 21
-0.557705
 31
0.0
  0
LINE
  5
1B5
330
1F
100
AcDbEntity
  8
Default
 62
     7
420
 16777215
370
     5
100
AcDbLine
 10
2.850594
 20
-0.557705
 30
0.0
 11
2.853802
 21
-0.557888
 31
0.0
  0
LINE
  5
1B6
330
1F
100
AcDbEntity
  8
Default
 62
     7
420
 16777215
370
     5
100
AcDbLine
 10
2.853802
 20
-0.557888
 30
0.0
 11
2.857145
 21
-0.55807
 31
0.0
  0
LINE
  5
1B7
330
1F
100
AcDbEntity
  8
Default
 62
     7
420
 16777215
370
     5
100
AcDbLine
 10
2.857145
 20
-0.55807
 30
0.0
 11
2.86064
 21
-0.558251
 31
0.0
  0
LINE
  5
1B8
330
1F
100
AcDbEntity
  8
Default
 62
     7
420
 16777215
370
     5
100
AcDbLine
 10
2.86064
 20
-0.558251
 30
0.0
 11
2.864302
 21
-0.558433
 31
0.0
  0
LINE
  5
1B9
330
1F
100
AcDbEntity
  8
Default
 62
     7
420
 16777215
370
     5
100
AcDbLine
 10
2.864302
 20
-0.558433
 30
0.0
 11
2.868146
 21
-0.558615
 31
0.0
  0
LINE
  5
1BA
330
1F
100
AcDbEntity
  8
Default
 62
     7
420
 16777215
370
     5
100
AcDbLine
 10
2.868146
 20
-0.558615
 30
0.0
 11
2.872181
 21
-0.558799
 31
0.0
  0
LINE
  5
1BB
330
1F
100
AcDbEntity
  8
Default
 62
     7
420
 16777215
370
     5
100
AcDbLine
 10
2.872181
 20
-0.558799
 30
0.0
 11
2.876381
 21
-0.558984
 31
0.0
  0
LINE
  5
1BC
330
1F
100
AcDbEntity
  8
Default
 62
     7
420
 16777215
370
     5
100
AcDbLine
 10
2.876381
 20
-0.558984
 30
0.0
 11
2.880712
 21
-0.55917
 31
0.0
  0
LINE
  5
1BD
330
1F
100
AcDbEntity
  8
Default
 62
     7
420
 16777215
370
     5
100
AcDbLine
 10
2.880712
 20
-0.55917
 30
0.0
 11
2.885142
 21
-0.559357
 31
0.0
  0
LINE
  5
1BE
330
1F
100
AcDbEntity
  8
Default
 62
     7
420
 16777215
370
     5
100
AcDbLine
 10
2.885142
 20
-0.559357
 30
0.0
 11
2.889637
 21
-0.559545
 31
0.0
  0
LINE
  5
1BF
330
1F
100
AcDbEntity
  8
Default
 62
     7
420
 16777215
370
     5
100
AcDbLine
 10
2.889637
 20
-0.559545
 30
0.0
 11
2.898691
 21
-0.55992
 31
0.0
  0
LINE
  5
1C0
330
1F
100
AcDbEntity
  8
Default
 62
     7
420
 16777215
370
     5
100
AcDbLine
 10
2.898691
 20
-0.55992
 30
0.0
 11
2.903183
 21
-0.560108
 31
0.0
  0
LINE
  5
1C1
330
1F
100
AcDbEntity
  8
Default
 62
     7
420
 16777215
370
     5
100
AcDbLine
 10
2.903183
 20
-0.560108
 30
0.0
 11
2.907611
 21
-0.560294
 31
0.0
  0
LINE
  5
1C2
330
1F
100
AcDbEntity
  8
Default
 62
     7
420
 16777215
370
     5
100
AcDbLine
 10
2.907611
 20
-0.560294
 30
0.0
 11
2.911961
 21
-0.560478
 31
0.0
  0
LINE
  5
1C3
330
1F
100
AcDbEntity
  8
Default
 62
     7
420
 16777215
370
     5
100
AcDbLine
 10
2.911961
 20
-0.560478
 30
0.0
 11
2.916223
 21
-0.560655
 31
0.0
  0
LINE
  5
1C4
330
1F
100
AcDbEntity
  8
Default
 62
     7
420
 16777215
370
     5
100
AcDbLine
 10
2.916223
 20
-0.560655
 30
0.0
 11
2.920387
 21
-0.560823
 31
0.0
  0
LINE
  5
1C5
330
1F
100
AcDbEntity
  8
Default
 62
     7
420
 16777215
370
     5
100
AcDbLine
 10
2.920387
 20
-0.560823
 30
0.0
 11
2.924442
 21
-0.56098
 31
0.0
  0
LINE
  5
1C6
330
1F
100
AcDbEntity
  8
Default
 62
     7
420
 16777215
370
     5
100
AcDbLine
 10
2.924442
 20
-0.56098
 30
0.0
 11
2.928379
 21
-0.561123
 31
0.0
  0
LINE
  5
1C7
330
1F
100
AcDbEntity
  8
Default
 62
     7
420
 16777215
370
     5
100
AcDbLine
 10
2.928379
 20
-0.561123
 30
0.0
 11
2.932186
 21
-0.561249
 31
0.0
  0
LINE
  5
1C8
330
1F
100
AcDbEntity
  8
Default
 62
     7
420
 16777215
370
     5
100
AcDbLine
 10
2.932186
 20
-0.561249
 30
0.0
 11
2.935853
 21
-0.561354
 31
0.0
  0
LINE
  5
1C9
330
1F
100
AcDbEntity
  8
Default
 62
     7
420
 16777215
370
     5
100
AcDbLine
 10
2.935853
 20
-0.561354
 30
0.0
 11
2.93938
 21
-0.561438
 31
0.0
  0
LINE
  5
1CA
330
1F
100
AcDbEntity
  8
Default
 62
     7
420
 16777215
370
     5
100
AcDbLine
 10
2.93938
 20
-0.561438
 30
0.0
 11
2.942797
 21
-0.561503
 31
0.0
  0
LINE
  5
1CB
330
1F
100
AcDbEntity
  8
Default
 62
     7
420
 16777215
370
     5
100
AcDbLine
 10
2.942797
 20
-0.561503
 30
0.0
 11
2.946144
 21
-0.561552
 31
0.0
  0
LINE
  5
1CC
330
1F
100
AcDbEntity
  8
Default
 62
     7
420
 16777215
370
     5
100
AcDbLine
 10
2.946144
 20
-0.561552
 30
0.0
 11
2.949461
 21
-0.561588
 31
0.0
  0
LINE
  5
1CD
330
1F
100
AcDbEntity
  8
Default
 62
     7
420
 16777215
370
     5
100
AcDbLine
 10
2.949461
 20
-0.561588
 30
0.0
 11
2.952789
 21
-0.561615
 31
0.0
  0
LINE
  5
1CE
330
1F
100
AcDbEntity
  8
Default
 62
     7
420
 16777215
370
     5
100
AcDbLine
 10
2.952789
 20
-0.561615
 30
0.0
 11
2.956168
 21
-0.561635
 31
0.0
  0
LINE
  5
1CF
330
1F
100
AcDbEntity
  8
Default
 62
     7
420
 16777215
370
     5
100
AcDbLine
 10
2.956168
 20
-0.561635
 30
0.0
 11
2.959636
 21
-0.561653
 31
0.0
  0
LINE
  5
1D0
330
1F
100
AcDbEntity
  8
Default
 62
     7
420
 16777215
370
     5
100
AcDbLine
 10
2.959636
 20
-0.561653
 30
0.0
 11
2.963236
 21
-0.56167
 31
0.0
  0
LINE
  5
1D1
330
1F
100
AcDbEntity
  8
Default
 62
     7
420
 16777215
370
     5
100
AcDbLine
 10
2.963236
 20
-0.56167
 30
0.0
 11
2.966991
 21
-0.561691
 31
0.0
  0
LINE
  5
1D2
330
1F
100
AcDbEntity
  8
Default
 62
     7
420
 16777215
370
     5
100
AcDbLine
 10
2.966991
 20
-0.561691
 30
0.0
 11
2.97087
 21
-0.561713
 31
0.0
  0
LINE
  5
1D3
330
1F
100
AcDbEntity
  8
Default
 62
     7
420
 16777215
370
     5
100
AcDbLine
 10
2.97087
 20
-0.561713
 30
0.0
 11
2.974825
 21
-0.561734
 31
0.0
  0
LINE
  5
1D4
330
1F
100
AcDbEntity
  8
Default
 62
     7
420
 16777215
370
     5
100
AcDbLine
 10
2.974825
 20
-0.561734
 30
0.0
 11
2.978809
 21
-0.561752
 31
0.0
  0
LINE
  5
1D5
330
1F
100
AcDbEntity
  8
Default
 62
     7
420
 16777215
370
     5
100
AcDbLine
 10
2.978809
 20
-0.561752
 30
0.0
 11
2.982775
 21
-0.561766
 31
0.0
  0
LINE
  5
1D6
330
1F
100
AcDbEntity
  8
Default
 62
     7
420
 16777215
370
     5
100
AcDbLine
 10
2.982775
 20
-0.561766
 30
0.0
 11
2.986677
 21
-0.561772
 31
0.0
  0
LINE
  5
1D7
330
1F
100
AcDbEntity
  8
Default
 62
     7
420
 16777215
370
     5
100
AcDbLine
 10
2.986677
 20
-0.561772
 30
0.0
 11
2.990466
 21
-0.561769
 31
0.0
  0
LINE
  5
1D8
330
1F
100
AcDbEntity
  8
Default
 62
     7
420
 16777215
370
     5
100
AcDbLine
 10
2.990466
 20
-0.561769
 30
0.0
 11
2.994095
 21
-0.561754
 31
0.0
  0
LINE
  5
1D9
330
1F
100
AcDbEntity
  8
Default
 62
     7
420
 16777215
370
     5
100
AcDbLine
 10
2.994095
 20
-0.561754
 30
0.0
 11
2.997536
 21
-0.561726
 31
0.0
  0
LINE
  5
1DA
330
1F
100
AcDbEntity
  8
Default
 62
     7
420
 16777215
370
     5
100
AcDbLine
 10
2.997536
 20
-0.561726
 30
0.0
 11
3.000826
 21
-0.561682
 31
0.0
  0
LINE
  5
1DB
330
1F
100
AcDbEntity
  8
Default
 62
     7
420
 16777215
370
     5
100
AcDbLine
 10
3.000826
 20
-0.561682
 30
0.0
 11
3.00402
 21
-0.561621
 31
0.0
  0
LINE
  5
1DC
330
1F
100
AcDbEntity
  8
Default
 62
     7
420
 16777215
370
     5
100
AcDbLine
 10
3.00402
 20
-0.561621
 30
0.0
 11
3.007174
 21
-0.561542
 31
0.0
  0
LINE
  5
1DD
330
1F
100
AcDbEntity
  8
Default
 62
     7
420
 16777215
370
     5
100
AcDbLine
 10
3.007174
 20
-0.561542
 30
0.0
 11
3.010343
 21
-0.561441
 31
0.0
  0
LINE
  5
1DE
330
1F
100
AcDbEntity
  8
Default
 62
     7
420
 16777215
370
     5
100
AcDbLine
 10
3.010343
 20
-0.561441
 30
0.0
 11
3.013583
 21
-0.561319
 31
0.0
  0
LINE
  5
1DF
330
1F
100
AcDbEntity
  8
Default
 62
     7
420
 16777215
370
     5
100
AcDbLine
 10
3.013583
 20
-0.561319
 30
0.0
 11
3.016948
 21
-0.561171
 31
0.0
  0
LINE
  5
1E0
330
1F
100
AcDbEntity
  8
Default
 62
     7
420
 16777215
370
     5
100
AcDbLine
 10
3.016948
 20
-0.561171
 30
0.0
 11
3.020495
 21
-0.560999
 31
0.0
  0
LINE
  5
1E1
330
1F
100
AcDbEntity
  8
Default
 62
     7
420
 16777215
370
     5
100
AcDbLine
 10
3.020495
 20
-0.560999
 30
0.0
 11
3.024264
 21
-0.560799
 31
0.0
  0
LINE
  5
1E2
330
1F
100
AcDbEntity
  8
Default
 62
     7
420
 16777215
370
     5
100
AcDbLine
 10
3.024264
 20
-0.560799
 30
0.0
 11
3.028234
 21
-0.560576
 31
0.0
  0
LINE
  5
1E3
330
1F
100
AcDbEntity
  8
Default
 62
     7
420
 16777215
370
     5
100
AcDbLine
 10
3.028234
 20
-0.560576
 30
0.0
 11
3.032371
 21
-0.560334
 31
0.0
  0
LINE
  5
1E4
330
1F
100
AcDbEntity
  8
Default
 62
     7
420
 16777215
370
     5
100
AcDbLine
 10
3.032371
 20
-0.560334
 30
0.0
 11
3.036638
 21
-0.560077
 31
0.0
  0
LINE
  5
1E5
330
1F
100
AcDbEntity
  8
Default
 62
     7
420
 16777215
370
     5
100
AcDbLine
 10
3.036638
 20
-0.560077
 30
0.0
 11
3.041001
 21
-0.55981
 31
0.0
  0
LINE
  5
1E6
330
1F
100
AcDbEntity
  8
Default
 62
     7
420
 16777215
370
     5
100
AcDbLine
 10
3.041001
 20
-0.55981
 30
0.0
 11
3.045425
 21
-0.559538
 31
0.0
  0
LINE
  5
1E7
330
1F
100
AcDbEntity
  8
Default
 62
     7
420
 16777215
370
     5
100
AcDbLine
 10
3.045425
 20
-0.559538
 30
0.0
 11
3.049875
 21
-0.559264
 31
0.0
  0
LINE
  5
1E8
330
1F
100
AcDbEntity
  8
Default
 62
     7
420
 16777215
370
     5
100
AcDbLine
 10
3.049875
 20
-0.559264
 30
0.0
 11
3.054314
 21
-0.558993
 31
0.0
  0
LINE
  5
1E9
330
1F
100
AcDbEntity
  8
Default
 62
     7
420
 16777215
370
     5
100
AcDbLine
 10
3.054314
 20
-0.558993
 30
0.0
 11
3.058715
 21
-0.558728
 31
0.0
  0
LINE
  5
1EA
330
1F
100
AcDbEntity
  8
Default
 62
     7
420
 16777215
370
     5
100
AcDbLine
 10
3.058715
 20
-0.558728
 30
0.0
 11
3.063078
 21
-0.558467
 31
0.0
  0
LINE
  5
1EB
330
1F
100
AcDbEntity
  8
Default
 62
     7
420
 16777215
370
     5
100
AcDbLine
 10
3.063078
 20
-0.558467
 30
0.0
 11
3.067409
 21
-0.558206
 31
0.0
  0
LINE
  5
1EC
330
1F
100
AcDbEntity
  8
Default
 62
     7
420
 16777215
370
     5
100
AcDbLine
 10
3.067409
 20
-0.558206
 30
0.0
 11
3.071714
 21
-0.557944
 31
0.0
  0
LINE
  5
1ED
330
1F
100
AcDbEntity
  8
Default
 62
     7
420
 16777215
370
     5
100
AcDbLine
 10
3.071714
 20
-0.557944
 30
0.0
 11
3.076001
 21
-0.557676
 31
0.0
  0
LINE
  5
1EE
330
1F
100
AcDbEntity
  8
Default
 62
     7
420
 16777215
370
     5
100
AcDbLine
 10
3.076001
 20
-0.557676
 30
0.0
 11
3.080276
 21
-0.557398
 31
0.0
  0
LINE
  5
1EF
330
1F
100
AcDbEntity
  8
Default
 62
     7
420
 16777215
370
     5
100
AcDbLine
 10
3.080276
 20
-0.557398
 30
0.0
 11
3.084545
 21
-0.557109
 31
0.0
  0
LINE
  5
1F0
330
1F
100
AcDbEntity
  8
Default
 62
     7
420
 16777215
370
     5
100
AcDbLine
 10
3.084545
 20
-0.557109
 30
0.0
 11
3.088815
 21
-0.556804
 31
0.0
  0
LINE
  5
1F1
330
1F
100
AcDbEntity
  8
Default
 62
     7
420
 16777215
370
     5
100
AcDbLine
 10
3.088815
 20
-0.556804
 30
0.0
 11
3.09309
 21
-0.556481
 31
0.0
  0
LINE
  5
1F2
330
1F
100
AcDbEntity
  8
Default
 62
     7
420
 16777215
370
     5
100
AcDbLine
 10
3.09309
 20
-0.556481
 30
0.0
 11
3.097365
 21
-0.556139
 31
0.0
  0
LINE
  5
1F3
330
1F
100
AcDbEntity
  8
Default
 62
     7
420
 16777215
370
     5
100
AcDbLine
 10
3.097365
 20
-0.556139
 30
0.0
 11
3.101632
 21
-0.55578
 31
0.0
  0
LINE
  5
1F4
330
1F
100
AcDbEntity
  8
Default
 62
     7
420
 16777215
370
     5
100
AcDbLine
 10
3.101632
 20
-0.55578
 30
0.0
 11
3.105883
 21
-0.555403
 31
0.0
  0
LINE
  5
1F5
330
1F
100
AcDbEntity
  8
Default
 62
     7
420
 16777215
370
     5
100
AcDbLine
 10
3.105883
 20
-0.555403
 30
0.0
 11
3.11011
 21
-0.555009
 31
0.0
  0
LINE
  5
1F6
330
1F
100
AcDbEntity
  8
Default
 62
     7
420
 16777215
370
     5
100
AcDbLine
 10
3.11011
 20
-0.555009
 30
0.0
 11
3.114305
 21
-0.554599
 31
0.0
  0
LINE
  5
1F7
330
1F
100
AcDbEntity
  8
Default
 62
     7
420
 16777215
370
     5
100
AcDbLine
 10
3.114305
 20
-0.554599
 30
0.0
 11
3.11846
 21
-0.554172
 31
0.0
  0
LINE
  5
1F8
330
1F
100
AcDbEntity
  8
Default
 62
     7
420
 16777215
370
     5
100
AcDbLine
 10
3.11846
 20
-0.554172
 30
0.0
 11
3.122567
 21
-0.553729
 31
0.0
  0
LINE
  5
1F9
330
1F
100
AcDbEntity
  8
Default
 62
     7
420
 16777215
370
     5
100
AcDbLine
 10
3.122567
 20
-0.553729
 30
0.0
 11
3.126619
 21
-0.553272
 31
0.0
  0
LINE
  5
1FA
330
1F
100
AcDbEntity
  8
Default
 62
     7
420
 16777215
370
     5
100
AcDbLine
 10
3.126619
 20
-0.553272
 30
0.0
 11
3.130605
 21
-0.552804
 31
0.0
  0
LINE
  5
1FB
330
1F
100
AcDbEntity
  8
Default
 62
     7
420
 16777215
370
     5
100
AcDbLine
 10
3.130605
 20
-0.552804
 30
0.0
 11
3.134517
 21
-0.55233
 31
0.0
  0
LINE
  5
1FC
330
1F
100
AcDbEntity
  8
Default
 62
     7
420
 16777215
370
     5
100
AcDbLine
 10
3.134517
 20
-0.55233
 30
0.0
 11
3.138346
 21
-0.551855
 31
0.0
  0
LINE
  5
1FD
330
1F
100
AcDbEntity
  8
Default
 62
     7
420
 16777215
370
     5
100
AcDbLine
 10
3.138346
 20
-0.551855
 30
0.0
 11
3.142083
 21
-0.551382
 31
0.0
  0
LINE
  5
1FE
330
1F
100
AcDbEntity
  8
Default
 62
     7
420
 16777215
370
     5
100
AcDbLine
 10
3.142083
 20
-0.551382
 30
0.0
 11
3.145718
 21
-0.550918
 31
0.0
  0
LINE
  5
1FF
330
1F
100
AcDbEntity
  8
Default
 62
     7
420
 16777215
370
     5
100
AcDbLine
 10
3.145718
 20
-0.550918
 30
0.0
 11
3.149242
 21
-0.550466
 31
0.0
  0
LINE
  5
200
330
1F
100
AcDbEntity
  8
Default
 62
     7
420
 16777215
370
     5
100
AcDbLine
 10
3.149242
 20
-0.550466
 30
0.0
 11
3.152645
 21
-0.55003
 31
0.0
  0
LINE
  5
201
330
1F
100
AcDbEntity
  8
Default
 62
     7
420
 16777215
370
     5
100
AcDbLine
 10
3.152645
 20
-0.55003
 30
0.0
 11
3.155922
 21
-0.549616
 31
0.0
  0
LINE
  5
202
330
1F
100
AcDbEntity
  8
Default
 62
     7
420
 16777215
370
     5
100
AcDbLine
 10
3.155922
 20
-0.549616
 30
0.0
 11
3.159074
 21
-0.549221
 31
0.0
  0
LINE
  5
203
330
1F
100
AcDbEntity
  8
Default
 62
     7
420
 16777215
370
     5
100
AcDbLine
 10
3.159074
 20
-0.549221
 30
0.0
 11
3.162109
 21
-0.548844
 31
0.0
  0
LINE
  5
204
330
1F
100
AcDbEntity
  8
Default
 62
     7
420
 16777215
370
     5
100
AcDbLine
 10
3.162109
 20
-0.548844
 30
0.0
 11
3.16503
 21
-0.548483
 31
0.0
  0
LINE
  5
205
330
1F
100
AcDbEntity
  8
Default
 62
     7
420
 16777215
370
     5
100
AcDbLine
 10
3.16503
 20
-0.548483
 30
0.0
 11
3.170557
 21
-0.547802
 31
0.0
  0
LINE
  5
206
330
1F
100
AcDbEntity
  8
Default
 62
     7
420
 16777215
370
     5
100
AcDbLine
 10
3.170557
 20
-0.547802
 30
0.0
 11
3.173173
 21
-0.547479
 31
0.0
  0
LINE
  5
207
330
1F
100
AcDbEntity
  8
Default
 62
     7
420
 16777215
370
     5
100
AcDbLine
 10
3.173173
 20
-0.547479
 30
0.0
 11
3.175698
 21
-0.547164
 31
0.0
  0
LINE
  5
208
330
1F
100
AcDbEntity
  8
Default
 62
     7
420
 16777215
370
     5
100
AcDbLine
 10
3.175698
 20
-0.547164
 30
0.0
 11
3.178139
 21
-0.546856
 31
0.0
  0
LINE
  5
209
330
1F
100
AcDbEntity
  8
Default
 62
     7
420
 16777215
370
     5
100
AcDbLine
 10
3.178139
 20
-0.546856
 30
0.0
 11
3.18051
 21
-0.546553
 31
0.0
  0
LINE
  5
20A
330
1F
100
AcDbEntity
  8
Default
 62
     7
420
 16777215
370
     5
100
AcDbLine
 10
3.18051
 20
-0.546553
 30
0.0
 11
3.182826
 21
-0.546253
 31
0.0
  0
LINE
  5
20B
330
1F
100
AcDbEntity
  8
Default
 62
     7
420
 16777215
370
     5
100
AcDbLine
 10
3.182826
 20
-0.546253
 30
0.0
 11
3.1851
 21
-0.545954
 31
0.0
  0
LINE
  5
20C
330
1F
100
AcDbEntity
  8
Default
 62
     7
420
 16777215
370
     5
100
AcDbLine
 10
3.1851
 20
-0.545954
 30
0.0
 11
3.187348
 21
-0.545654
 31
0.0
  0
LINE
  5
20D
330
1F
100
AcDbEntity
  8
Default
 62
     7
420
 16777215
370
     5
100
AcDbLine
 10
3.187348
 20
-0.545654
 30
0.0
 11
3.189585
 21
-0.545351
 31
0.0
  0
LINE
  5
20E
330
1F
100
AcDbEntity
  8
Default
 62
     7
420
 16777215
370
     5
100
AcDbLine
 10
3.189585
 20
-0.545351
 30
0.0
 11
3.191824
 21
-0.545043
 31
0.0
  0
LINE
  5
20F
330
1F
100
AcDbEntity
  8
Default
 62
     7
420
 16777215
370
     5
100
AcDbLine
 10
3.191824
 20
-0.545043
 30
0.0
 11
3.194082
 21
-0.544728
 31
0.0
  0
LINE
  5
210
330
1F
100
AcDbEntity
  8
Default
 62
     7
420
 16777215
370
     5
100
AcDbLine
 10
3.194082
 20
-0.544728
 30
0.0
 11
3.196367
 21
-0.544405
 31
0.0
  0
LINE
  5
211
330
1F
100
AcDbEntity
  8
Default
 62
     7
420
 16777215
370
     5
100
AcDbLine
 10
3.196367
 20
-0.544405
 30
0.0
 11
3.19867
 21
-0.544077
 31
0.0
  0
LINE
  5
212
330
1F
100
AcDbEntity
  8
Default
 62
     7
420
 16777215
370
     5
100
AcDbLine
 10
3.19867
 20
-0.544077
 30
0.0
 11
3.199027
 21
-0.544046
 31
0.0
  0
ARC
  5
213
330
1F
100
AcDbEntity
  8
Default
 62
     7
420
 16777215
370
     5
100
AcDbCircle
 10
3.199027
 20
-0.564046
 30
0.0
 40
0.02
100
AcDbArc
 50
3.912680999999866
 51
90.0
  0
LINE
  5
214
330
1F
100
AcDbEntity
  8
Default
 62
     7
420
 16777215
370
     5
100
AcDbLine
 10
3.218981
 20
-0.562681
 30
0.0
 11
3.218857
 21
-0.564818
 31
0.0
  0
LINE
  5
215
330
1F
100
AcDbEntity
  8
Default
 62
     7
420
 16777215
370
     5
100
AcDbLine
 10
3.218857
 20
-0.564818
 30
0.0
 11
3.218673
 21
-0.572697
 31
0.0
  0
LINE
  5
216
330
1F
100
AcDbEntity
  8
Default
 62
     7
420
 16777215
370
     5
100
AcDbLine
 10
3.218673
 20
-0.572697
 30
0.0
 11
3.218837
 21
-0.581442
 31
0.0
  0
LINE
  5
217
330
1F
100
AcDbEntity
  8
Default
 62
     7
420
 16777215
370
     5
100
AcDbLine
 10
3.218837
 20
-0.581442
 30
0.0
 11
3.219478
 21
-0.59073
 31
0.0
  0
LINE
  5
218
330
1F
100
AcDbEntity
  8
Default
 62
     7
420
 16777215
370
     5
100
AcDbLine
 10
3.219478
 20
-0.59073
 30
0.0
 11
3.220739
 21
-0.600238
 31
0.0
  0
LINE
  5
219
330
1F
100
AcDbEntity
  8
Default
 62
     7
420
 16777215
370
     5
100
AcDbLine
 10
3.220739
 20
-0.600238
 30
0.0
 11
3.222756
 21
-0.609644
 31
0.0
  0
LINE
  5
21A
330
1F
100
AcDbEntity
  8
Default
 62
     7
420
 16777215
370
     5
100
AcDbLine
 10
3.222756
 20
-0.609644
 30
0.0
 11
3.225676
 21
-0.618624
 31
0.0
  0
LINE
  5
21B
330
1F
100
AcDbEntity
  8
Default
 62
     7
420
 16777215
370
     5
100
AcDbLine
 10
3.225676
 20
-0.618624
 30
0.0
 11
3.229643
 21
-0.626855
 31
0.0
  0
LINE
  5
21C
330
1F
100
AcDbEntity
  8
Default
 62
     7
420
 16777215
370
     5
100
AcDbLine
 10
3.229643
 20
-0.626855
 30
0.0
 11
3.234784
 21
-0.634016
 31
0.0
  0
LINE
  5
21D
330
1F
100
AcDbEntity
  8
Default
 62
     7
420
 16777215
370
     5
100
AcDbLine
 10
3.234784
 20
-0.634016
 30
0.0
 11
3.241953
 21
-0.643129
 31
0.0
  0
LINE
  5
21E
330
1F
100
AcDbEntity
  8
Default
 62
     7
420
 16777215
370
     5
100
AcDbLine
 10
3.241953
 20
-0.643129
 30
0.0
 11
3.246948
 21
-0.651609
 31
0.0
  0
LINE
  5
21F
330
1F
100
AcDbEntity
  8
Default
 62
     7
420
 16777215
370
     5
100
AcDbLine
 10
3.246948
 20
-0.651609
 30
0.0
 11
3.250042
 21
-0.659435
 31
0.0
  0
LINE
  5
220
330
1F
100
AcDbEntity
  8
Default
 62
     7
420
 16777215
370
     5
100
AcDbLine
 10
3.250042
 20
-0.659435
 30
0.0
 11
3.251526
 21
-0.666586
 31
0.0
  0
ARC
  5
221
330
1F
100
AcDbEntity
  8
Default
 62
     7
420
 16777215
370
     5
100
AcDbCircle
 10
3.09068
 20
-0.696968
 30
0.0
 40
0.16369
100
AcDbArc
 50
349.3035469999999
 51
10.69645299999999
  0
LINE
  5
222
330
1F
100
AcDbEntity
  8
Default
 62
     7
420
 16777215
370
     5
100
AcDbLine
 10
3.251526
 20
-0.72735
 30
0.0
 11
3.250042
 21
-0.734501
 31
0.0
  0
LINE
  5
223
330
1F
100
AcDbEntity
  8
Default
 62
     7
420
 16777215
370
     5
100
AcDbLine
 10
3.250042
 20
-0.734501
 30
0.0
 11
3.246948
 21
-0.742327
 31
0.0
  0
LINE
  5
224
330
1F
100
AcDbEntity
  8
Default
 62
     7
420
 16777215
370
     5
100
AcDbLine
 10
3.246948
 20
-0.742327
 30
0.0
 11
3.241953
 21
-0.750807
 31
0.0
  0
LINE
  5
225
330
1F
100
AcDbEntity
  8
Default
 62
     7
420
 16777215
370
     5
100
AcDbLine
 10
3.241953
 20
-0.750807
 30
0.0
 11
3.234784
 21
-0.759921
 31
0.0
  0
LINE
  5
226
330
1F
100
AcDbEntity
  8
Default
 62
     7
420
 16777215
370
     5
100
AcDbLine
 10
3.234784
 20
-0.759921
 30
0.0
 11
3.229643
 21
-0.767081
 31
0.0
  0
LINE
  5
227
330
1F
100
AcDbEntity
  8
Default
 62
     7
420
 16777215
370
     5
100
AcDbLine
 10
3.229643
 20
-0.767081
 30
0.0
 11
3.225676
 21
-0.775313
 31
0.0
  0
LINE
  5
228
330
1F
100
AcDbEntity
  8
Default
 62
     7
420
 16777215
370
     5
100
AcDbLine
 10
3.225676
 20
-0.775313
 30
0.0
 11
3.222756
 21
-0.784292
 31
0.0
  0
LINE
  5
229
330
1F
100
AcDbEntity
  8
Default
 62
     7
420
 16777215
370
     5
100
AcDbLine
 10
3.222756
 20
-0.784292
 30
0.0
 11
3.220739
 21
-0.793698
 31
0.0
  0
LINE
  5
22A
330
1F
100
AcDbEntity
  8
Default
 62
     7
420
 16777215
370
     5
100
AcDbLine
 10
3.220739
 20
-0.793698
 30
0.0
 11
3.219478
 21
-0.803206
 31
0.0
  0
LINE
  5
22B
330
1F
100
AcDbEntity
  8
Default
 62
     7
420
 16777215
370
     5
100
AcDbLine
 10
3.219478
 20
-0.803206
 30
0.0
 11
3.218837
 21
-0.812495
 31
0.0
  0
LINE
  5
22C
330
1F
100
AcDbEntity
  8
Default
 62
     7
420
 16777215
370
     5
100
AcDbLine
 10
3.218837
 20
-0.812495
 30
0.0
 11
3.218673
 21
-0.821239
 31
0.0
  0
LINE
  5
22D
330
1F
100
AcDbEntity
  8
Default
 62
     7
420
 16777215
370
     5
100
AcDbLine
 10
3.218673
 20
-0.821239
 30
0.0
 11
3.218857
 21
-0.829118
 31
0.0
  0
LINE
  5
22E
330
1F
100
AcDbEntity
  8
Default
 62
     7
420
 16777215
370
     5
100
AcDbLine
 10
3.218857
 20
-0.829118
 30
0.0
 11
3.218953
 21
-0.830772
 31
0.0
  0
ARC
  5
22F
330
1F
100
AcDbEntity
  8
Default
 62
     7
420
 16777215
370
     5
100
AcDbCircle
 10
3.198976
 20
-0.829797
 30
0.0
 40
0.02
100
AcDbArc
 50
267.4966639999997
 51
357.2071629999997
  0
LINE
  5
230
330
1F
100
AcDbEntity
  8
Default
 62
     7
420
 16777215
370
     5
100
AcDbLine
 10
3.198103
 20
-0.849778
 30
0.0
 11
3.196367
 21
-0.849531
 31
0.0
  0
LINE
  5
231
330
1F
100
AcDbEntity
  8
Default
 62
     7
420
 16777215
370
     5
100
AcDbLine
 10
3.196367
 20
-0.849531
 30
0.0
 11
3.194082
 21
-0.849209
 31
0.0
  0
LINE
  5
232
330
1F
100
AcDbEntity
  8
Default
 62
     7
420
 16777215
370
     5
100
AcDbLine
 10
3.194082
 20
-0.849209
 30
0.0
 11
3.191824
 21
-0.848893
 31
0.0
  0
LINE
  5
233
330
1F
100
AcDbEntity
  8
Default
 62
     7
420
 16777215
370
     5
100
AcDbLine
 10
3.191824
 20
-0.848893
 30
0.0
 11
3.189585
 21
-0.848585
 31
0.0
  0
LINE
  5
234
330
1F
100
AcDbEntity
  8
Default
 62
     7
420
 16777215
370
     5
100
AcDbLine
 10
3.189585
 20
-0.848585
 30
0.0
 11
3.187348
 21
-0.848282
 31
0.0
  0
LINE
  5
235
330
1F
100
AcDbEntity
  8
Default
 62
     7
420
 16777215
370
     5
100
AcDbLine
 10
3.187348
 20
-0.848282
 30
0.0
 11
3.1851
 21
-0.847982
 31
0.0
  0
LINE
  5
236
330
1F
100
AcDbEntity
  8
Default
 62
     7
420
 16777215
370
     5
100
AcDbLine
 10
3.1851
 20
-0.847982
 30
0.0
 11
3.182826
 21
-0.847683
 31
0.0
  0
LINE
  5
237
330
1F
100
AcDbEntity
  8
Default
 62
     7
420
 16777215
370
     5
100
AcDbLine
 10
3.182826
 20
-0.847683
 30
0.0
 11
3.18051
 21
-0.847383
 31
0.0
  0
LINE
  5
238
330
1F
100
AcDbEntity
  8
Default
 62
     7
420
 16777215
370
     5
100
AcDbLine
 10
3.18051
 20
-0.847383
 30
0.0
 11
3.178139
 21
-0.84708
 31
0.0
  0
LINE
  5
239
330
1F
100
AcDbEntity
  8
Default
 62
     7
420
 16777215
370
     5
100
AcDbLine
 10
3.178139
 20
-0.84708
 30
0.0
 11
3.175698
 21
-0.846772
 31
0.0
  0
LINE
  5
23A
330
1F
100
AcDbEntity
  8
Default
 62
     7
420
 16777215
370
     5
100
AcDbLine
 10
3.175698
 20
-0.846772
 30
0.0
 11
3.173173
 21
-0.846458
 31
0.0
  0
LINE
  5
23B
330
1F
100
AcDbEntity
  8
Default
 62
     7
420
 16777215
370
     5
100
AcDbLine
 10
3.173173
 20
-0.846458
 30
0.0
 11
3.170557
 21
-0.846134
 31
0.0
  0
LINE
  5
23C
330
1F
100
AcDbEntity
  8
Default
 62
     7
420
 16777215
370
     5
100
AcDbLine
 10
3.170557
 20
-0.846134
 30
0.0
 11
3.167844
 21
-0.8458
 31
0.0
  0
LINE
  5
23D
330
1F
100
AcDbEntity
  8
Default
 62
     7
420
 16777215
370
     5
100
AcDbLine
 10
3.167844
 20
-0.8458
 30
0.0
 11
3.16503
 21
-0.845453
 31
0.0
  0
LINE
  5
23E
330
1F
100
AcDbEntity
  8
Default
 62
     7
420
 16777215
370
     5
100
AcDbLine
 10
3.16503
 20
-0.845453
 30
0.0
 11
3.162109
 21
-0.845092
 31
0.0
  0
LINE
  5
23F
330
1F
100
AcDbEntity
  8
Default
 62
     7
420
 16777215
370
     5
100
AcDbLine
 10
3.162109
 20
-0.845092
 30
0.0
 11
3.159074
 21
-0.844715
 31
0.0
  0
LINE
  5
240
330
1F
100
AcDbEntity
  8
Default
 62
     7
420
 16777215
370
     5
100
AcDbLine
 10
3.159074
 20
-0.844715
 30
0.0
 11
3.155922
 21
-0.844321
 31
0.0
  0
LINE
  5
241
330
1F
100
AcDbEntity
  8
Default
 62
     7
420
 16777215
370
     5
100
AcDbLine
 10
3.155922
 20
-0.844321
 30
0.0
 11
3.152645
 21
-0.843906
 31
0.0
  0
LINE
  5
242
330
1F
100
AcDbEntity
  8
Default
 62
     7
420
 16777215
370
     5
100
AcDbLine
 10
3.152645
 20
-0.843906
 30
0.0
 11
3.149242
 21
-0.843471
 31
0.0
  0
LINE
  5
243
330
1F
100
AcDbEntity
  8
Default
 62
     7
420
 16777215
370
     5
100
AcDbLine
 10
3.149242
 20
-0.843471
 30
0.0
 11
3.145718
 21
-0.843018
 31
0.0
  0
LINE
  5
244
330
1F
100
AcDbEntity
  8
Default
 62
     7
420
 16777215
370
     5
100
AcDbLine
 10
3.145718
 20
-0.843018
 30
0.0
 11
3.142083
 21
-0.842554
 31
0.0
  0
LINE
  5
245
330
1F
100
AcDbEntity
  8
Default
 62
     7
420
 16777215
370
     5
100
AcDbLine
 10
3.142083
 20
-0.842554
 30
0.0
 11
3.138346
 21
-0.842081
 31
0.0
  0
LINE
  5
246
330
1F
100
AcDbEntity
  8
Default
 62
     7
420
 16777215
370
     5
100
AcDbLine
 10
3.138346
 20
-0.842081
 30
0.0
 11
3.134517
 21
-0.841606
 31
0.0
  0
LINE
  5
247
330
1F
100
AcDbEntity
  8
Default
 62
     7
420
 16777215
370
     5
100
AcDbLine
 10
3.134517
 20
-0.841606
 30
0.0
 11
3.130605
 21
-0.841132
 31
0.0
  0
LINE
  5
248
330
1F
100
AcDbEntity
  8
Default
 62
     7
420
 16777215
370
     5
100
AcDbLine
 10
3.130605
 20
-0.841132
 30
0.0
 11
3.126619
 21
-0.840664
 31
0.0
  0
LINE
  5
249
330
1F
100
AcDbEntity
  8
Default
 62
     7
420
 16777215
370
     5
100
AcDbLine
 10
3.126619
 20
-0.840664
 30
0.0
 11
3.122567
 21
-0.840207
 31
0.0
  0
LINE
  5
24A
330
1F
100
AcDbEntity
  8
Default
 62
     7
420
 16777215
370
     5
100
AcDbLine
 10
3.122567
 20
-0.840207
 30
0.0
 11
3.11846
 21
-0.839764
 31
0.0
  0
LINE
  5
24B
330
1F
100
AcDbEntity
  8
Default
 62
     7
420
 16777215
370
     5
100
AcDbLine
 10
3.11846
 20
-0.839764
 30
0.0
 11
3.114305
 21
-0.839338
 31
0.0
  0
LINE
  5
24C
330
1F
100
AcDbEntity
  8
Default
 62
     7
420
 16777215
370
     5
100
AcDbLine
 10
3.114305
 20
-0.839338
 30
0.0
 11
3.11011
 21
-0.838927
 31
0.0
  0
LINE
  5
24D
330
1F
100
AcDbEntity
  8
Default
 62
     7
420
 16777215
370
     5
100
AcDbLine
 10
3.11011
 20
-0.838927
 30
0.0
 11
3.105883
 21
-0.838533
 31
0.0
  0
LINE
  5
24E
330
1F
100
AcDbEntity
  8
Default
 62
     7
420
 16777215
370
     5
100
AcDbLine
 10
3.105883
 20
-0.838533
 30
0.0
 11
3.101632
 21
-0.838156
 31
0.0
  0
LINE
  5
24F
330
1F
100
AcDbEntity
  8
Default
 62
     7
420
 16777215
370
     5
100
AcDbLine
 10
3.101632
 20
-0.838156
 30
0.0
 11
3.097365
 21
-0.837797
 31
0.0
  0
LINE
  5
250
330
1F
100
AcDbEntity
  8
Default
 62
     7
420
 16777215
370
     5
100
AcDbLine
 10
3.097365
 20
-0.837797
 30
0.0
 11
3.09309
 21
-0.837456
 31
0.0
  0
LINE
  5
251
330
1F
100
AcDbEntity
  8
Default
 62
     7
420
 16777215
370
     5
100
AcDbLine
 10
3.09309
 20
-0.837456
 30
0.0
 11
3.088815
 21
-0.837132
 31
0.0
  0
LINE
  5
252
330
1F
100
AcDbEntity
  8
Default
 62
     7
420
 16777215
370
     5
100
AcDbLine
 10
3.088815
 20
-0.837132
 30
0.0
 11
3.084545
 21
-0.836827
 31
0.0
  0
LINE
  5
253
330
1F
100
AcDbEntity
  8
Default
 62
     7
420
 16777215
370
     5
100
AcDbLine
 10
3.084545
 20
-0.836827
 30
0.0
 11
3.080276
 21
-0.836538
 31
0.0
  0
LINE
  5
254
330
1F
100
AcDbEntity
  8
Default
 62
     7
420
 16777215
370
     5
100
AcDbLine
 10
3.080276
 20
-0.836538
 30
0.0
 11
3.076001
 21
-0.836261
 31
0.0
  0
LINE
  5
255
330
1F
100
AcDbEntity
  8
Default
 62
     7
420
 16777215
370
     5
100
AcDbLine
 10
3.076001
 20
-0.836261
 30
0.0
 11
3.071714
 21
-0.835992
 31
0.0
  0
LINE
  5
256
330
1F
100
AcDbEntity
  8
Default
 62
     7
420
 16777215
370
     5
100
AcDbLine
 10
3.071714
 20
-0.835992
 30
0.0
 11
3.067409
 21
-0.83573
 31
0.0
  0
LINE
  5
257
330
1F
100
AcDbEntity
  8
Default
 62
     7
420
 16777215
370
     5
100
AcDbLine
 10
3.067409
 20
-0.83573
 30
0.0
 11
3.063078
 21
-0.83547
 31
0.0
  0
LINE
  5
258
330
1F
100
AcDbEntity
  8
Default
 62
     7
420
 16777215
370
     5
100
AcDbLine
 10
3.063078
 20
-0.83547
 30
0.0
 11
3.058715
 21
-0.835209
 31
0.0
  0
LINE
  5
259
330
1F
100
AcDbEntity
  8
Default
 62
     7
420
 16777215
370
     5
100
AcDbLine
 10
3.058715
 20
-0.835209
 30
0.0
 11
3.054314
 21
-0.834944
 31
0.0
  0
LINE
  5
25A
330
1F
100
AcDbEntity
  8
Default
 62
     7
420
 16777215
370
     5
100
AcDbLine
 10
3.054314
 20
-0.834944
 30
0.0
 11
3.049875
 21
-0.834672
 31
0.0
  0
LINE
  5
25B
330
1F
100
AcDbEntity
  8
Default
 62
     7
420
 16777215
370
     5
100
AcDbLine
 10
3.049875
 20
-0.834672
 30
0.0
 11
3.045425
 21
-0.834398
 31
0.0
  0
LINE
  5
25C
330
1F
100
AcDbEntity
  8
Default
 62
     7
420
 16777215
370
     5
100
AcDbLine
 10
3.045425
 20
-0.834398
 30
0.0
 11
3.041001
 21
-0.834126
 31
0.0
  0
LINE
  5
25D
330
1F
100
AcDbEntity
  8
Default
 62
     7
420
 16777215
370
     5
100
AcDbLine
 10
3.041001
 20
-0.834126
 30
0.0
 11
3.036638
 21
-0.833859
 31
0.0
  0
LINE
  5
25E
330
1F
100
AcDbEntity
  8
Default
 62
     7
420
 16777215
370
     5
100
AcDbLine
 10
3.036638
 20
-0.833859
 30
0.0
 11
3.032371
 21
-0.833602
 31
0.0
  0
LINE
  5
25F
330
1F
100
AcDbEntity
  8
Default
 62
     7
420
 16777215
370
     5
100
AcDbLine
 10
3.032371
 20
-0.833602
 30
0.0
 11
3.028234
 21
-0.83336
 31
0.0
  0
LINE
  5
260
330
1F
100
AcDbEntity
  8
Default
 62
     7
420
 16777215
370
     5
100
AcDbLine
 10
3.028234
 20
-0.83336
 30
0.0
 11
3.024264
 21
-0.833137
 31
0.0
  0
LINE
  5
261
330
1F
100
AcDbEntity
  8
Default
 62
     7
420
 16777215
370
     5
100
AcDbLine
 10
3.024264
 20
-0.833137
 30
0.0
 11
3.020495
 21
-0.832938
 31
0.0
  0
LINE
  5
262
330
1F
100
AcDbEntity
  8
Default
 62
     7
420
 16777215
370
     5
100
AcDbLine
 10
3.020495
 20
-0.832938
 30
0.0
 11
3.016948
 21
-0.832765
 31
0.0
  0
LINE
  5
263
330
1F
100
AcDbEntity
  8
Default
 62
     7
420
 16777215
370
     5
100
AcDbLine
 10
3.016948
 20
-0.832765
 30
0.0
 11
3.013583
 21
-0.832618
 31
0.0
  0
LINE
  5
264
330
1F
100
AcDbEntity
  8
Default
 62
     7
420
 16777215
370
     5
100
AcDbLine
 10
3.013583
 20
-0.832618
 30
0.0
 11
3.010343
 21
-0.832495
 31
0.0
  0
LINE
  5
265
330
1F
100
AcDbEntity
  8
Default
 62
     7
420
 16777215
370
     5
100
AcDbLine
 10
3.010343
 20
-0.832495
 30
0.0
 11
3.007174
 21
-0.832394
 31
0.0
  0
LINE
  5
266
330
1F
100
AcDbEntity
  8
Default
 62
     7
420
 16777215
370
     5
100
AcDbLine
 10
3.007174
 20
-0.832394
 30
0.0
 11
3.00402
 21
-0.832315
 31
0.0
  0
LINE
  5
267
330
1F
100
AcDbEntity
  8
Default
 62
     7
420
 16777215
370
     5
100
AcDbLine
 10
3.00402
 20
-0.832315
 30
0.0
 11
3.000826
 21
-0.832254
 31
0.0
  0
LINE
  5
268
330
1F
100
AcDbEntity
  8
Default
 62
     7
420
 16777215
370
     5
100
AcDbLine
 10
3.000826
 20
-0.832254
 30
0.0
 11
2.997536
 21
-0.83221
 31
0.0
  0
LINE
  5
269
330
1F
100
AcDbEntity
  8
Default
 62
     7
420
 16777215
370
     5
100
AcDbLine
 10
2.997536
 20
-0.83221
 30
0.0
 11
2.994095
 21
-0.832182
 31
0.0
  0
LINE
  5
26A
330
1F
100
AcDbEntity
  8
Default
 62
     7
420
 16777215
370
     5
100
AcDbLine
 10
2.994095
 20
-0.832182
 30
0.0
 11
2.990466
 21
-0.832167
 31
0.0
  0
LINE
  5
26B
330
1F
100
AcDbEntity
  8
Default
 62
     7
420
 16777215
370
     5
100
AcDbLine
 10
2.990466
 20
-0.832167
 30
0.0
 11
2.986677
 21
-0.832164
 31
0.0
  0
LINE
  5
26C
330
1F
100
AcDbEntity
  8
Default
 62
     7
420
 16777215
370
     5
100
AcDbLine
 10
2.986677
 20
-0.832164
 30
0.0
 11
2.982775
 21
-0.832171
 31
0.0
  0
LINE
  5
26D
330
1F
100
AcDbEntity
  8
Default
 62
     7
420
 16777215
370
     5
100
AcDbLine
 10
2.982775
 20
-0.832171
 30
0.0
 11
2.978809
 21
-0.832184
 31
0.0
  0
LINE
  5
26E
330
1F
100
AcDbEntity
  8
Default
 62
     7
420
 16777215
370
     5
100
AcDbLine
 10
2.978809
 20
-0.832184
 30
0.0
 11
2.974825
 21
-0.832202
 31
0.0
  0
LINE
  5
26F
330
1F
100
AcDbEntity
  8
Default
 62
     7
420
 16777215
370
     5
100
AcDbLine
 10
2.974825
 20
-0.832202
 30
0.0
 11
2.97087
 21
-0.832224
 31
0.0
  0
LINE
  5
270
330
1F
100
AcDbEntity
  8
Default
 62
     7
420
 16777215
370
     5
100
AcDbLine
 10
2.97087
 20
-0.832224
 30
0.0
 11
2.966991
 21
-0.832245
 31
0.0
  0
LINE
  5
271
330
1F
100
AcDbEntity
  8
Default
 62
     7
420
 16777215
370
     5
100
AcDbLine
 10
2.966991
 20
-0.832245
 30
0.0
 11
2.963236
 21
-0.832266
 31
0.0
  0
LINE
  5
272
330
1F
100
AcDbEntity
  8
Default
 62
     7
420
 16777215
370
     5
100
AcDbLine
 10
2.963236
 20
-0.832266
 30
0.0
 11
2.959636
 21
-0.832284
 31
0.0
  0
LINE
  5
273
330
1F
100
AcDbEntity
  8
Default
 62
     7
420
 16777215
370
     5
100
AcDbLine
 10
2.959636
 20
-0.832284
 30
0.0
 11
2.956168
 21
-0.832301
 31
0.0
  0
LINE
  5
274
330
1F
100
AcDbEntity
  8
Default
 62
     7
420
 16777215
370
     5
100
AcDbLine
 10
2.956168
 20
-0.832301
 30
0.0
 11
2.952789
 21
-0.832322
 31
0.0
  0
LINE
  5
275
330
1F
100
AcDbEntity
  8
Default
 62
     7
420
 16777215
370
     5
100
AcDbLine
 10
2.952789
 20
-0.832322
 30
0.0
 11
2.949461
 21
-0.832348
 31
0.0
  0
LINE
  5
276
330
1F
100
AcDbEntity
  8
Default
 62
     7
420
 16777215
370
     5
100
AcDbLine
 10
2.949461
 20
-0.832348
 30
0.0
 11
2.946144
 21
-0.832384
 31
0.0
  0
LINE
  5
277
330
1F
100
AcDbEntity
  8
Default
 62
     7
420
 16777215
370
     5
100
AcDbLine
 10
2.946144
 20
-0.832384
 30
0.0
 11
2.942797
 21
-0.832433
 31
0.0
  0
LINE
  5
278
330
1F
100
AcDbEntity
  8
Default
 62
     7
420
 16777215
370
     5
100
AcDbLine
 10
2.942797
 20
-0.832433
 30
0.0
 11
2.93938
 21
-0.832498
 31
0.0
  0
LINE
  5
279
330
1F
100
AcDbEntity
  8
Default
 62
     7
420
 16777215
370
     5
100
AcDbLine
 10
2.93938
 20
-0.832498
 30
0.0
 11
2.935853
 21
-0.832582
 31
0.0
  0
LINE
  5
27A
330
1F
100
AcDbEntity
  8
Default
 62
     7
420
 16777215
370
     5
100
AcDbLine
 10
2.935853
 20
-0.832582
 30
0.0
 11
2.932186
 21
-0.832688
 31
0.0
  0
LINE
  5
27B
330
1F
100
AcDbEntity
  8
Default
 62
     7
420
 16777215
370
     5
100
AcDbLine
 10
2.932186
 20
-0.832688
 30
0.0
 11
2.928379
 21
-0.832813
 31
0.0
  0
LINE
  5
27C
330
1F
100
AcDbEntity
  8
Default
 62
     7
420
 16777215
370
     5
100
AcDbLine
 10
2.928379
 20
-0.832813
 30
0.0
 11
2.924442
 21
-0.832956
 31
0.0
  0
LINE
  5
27D
330
1F
100
AcDbEntity
  8
Default
 62
     7
420
 16777215
370
     5
100
AcDbLine
 10
2.924442
 20
-0.832956
 30
0.0
 11
2.920387
 21
-0.833113
 31
0.0
  0
LINE
  5
27E
330
1F
100
AcDbEntity
  8
Default
 62
     7
420
 16777215
370
     5
100
AcDbLine
 10
2.920387
 20
-0.833113
 30
0.0
 11
2.916223
 21
-0.833281
 31
0.0
  0
LINE
  5
27F
330
1F
100
AcDbEntity
  8
Default
 62
     7
420
 16777215
370
     5
100
AcDbLine
 10
2.916223
 20
-0.833281
 30
0.0
 11
2.911961
 21
-0.833459
 31
0.0
  0
LINE
  5
280
330
1F
100
AcDbEntity
  8
Default
 62
     7
420
 16777215
370
     5
100
AcDbLine
 10
2.911961
 20
-0.833459
 30
0.0
 11
2.903183
 21
-0.833829
 31
0.0
  0
LINE
  5
281
330
1F
100
AcDbEntity
  8
Default
 62
     7
420
 16777215
370
     5
100
AcDbLine
 10
2.903183
 20
-0.833829
 30
0.0
 11
2.898691
 21
-0.834016
 31
0.0
  0
LINE
  5
282
330
1F
100
AcDbEntity
  8
Default
 62
     7
420
 16777215
370
     5
100
AcDbLine
 10
2.898691
 20
-0.834016
 30
0.0
 11
2.889637
 21
-0.834392
 31
0.0
  0
LINE
  5
283
330
1F
100
AcDbEntity
  8
Default
 62
     7
420
 16777215
370
     5
100
AcDbLine
 10
2.889637
 20
-0.834392
 30
0.0
 11
2.885142
 21
-0.834579
 31
0.0
  0
LINE
  5
284
330
1F
100
AcDbEntity
  8
Default
 62
     7
420
 16777215
370
     5
100
AcDbLine
 10
2.885142
 20
-0.834579
 30
0.0
 11
2.880712
 21
-0.834766
 31
0.0
  0
LINE
  5
285
330
1F
100
AcDbEntity
  8
Default
 62
     7
420
 16777215
370
     5
100
AcDbLine
 10
2.880712
 20
-0.834766
 30
0.0
 11
2.876381
 21
-0.834952
 31
0.0
  0
LINE
  5
286
330
1F
100
AcDbEntity
  8
Default
 62
     7
420
 16777215
370
     5
100
AcDbLine
 10
2.876381
 20
-0.834952
 30
0.0
 11
2.872181
 21
-0.835138
 31
0.0
  0
LINE
  5
287
330
1F
100
AcDbEntity
  8
Default
 62
     7
420
 16777215
370
     5
100
AcDbLine
 10
2.872181
 20
-0.835138
 30
0.0
 11
2.868146
 21
-0.835321
 31
0.0
  0
LINE
  5
288
330
1F
100
AcDbEntity
  8
Default
 62
     7
420
 16777215
370
     5
100
AcDbLine
 10
2.868146
 20
-0.835321
 30
0.0
 11
2.864302
 21
-0.835504
 31
0.0
  0
LINE
  5
289
330
1F
100
AcDbEntity
  8
Default
 62
     7
420
 16777215
370
     5
100
AcDbLine
 10
2.864302
 20
-0.835504
 30
0.0
 11
2.86064
 21
-0.835685
 31
0.0
  0
LINE
  5
28A
330
1F
100
AcDbEntity
  8
Default
 62
     7
420
 16777215
370
     5
100
AcDbLine
 10
2.86064
 20
-0.835685
 30
0.0
 11
2.857145
 21
-0.835866
 31
0.0
  0
LINE
  5
28B
330
1F
100
AcDbEntity
  8
Default
 62
     7
420
 16777215
370
     5
100
AcDbLine
 10
2.857145
 20
-0.835866
 30
0.0
 11
2.853802
 21
-0.836048
 31
0.0
  0
LINE
  5
28C
330
1F
100
AcDbEntity
  8
Default
 62
     7
420
 16777215
370
     5
100
AcDbLine
 10
2.853802
 20
-0.836048
 30
0.0
 11
2.850594
 21
-0.836231
 31
0.0
  0
LINE
  5
28D
330
1F
100
AcDbEntity
  8
Default
 62
     7
420
 16777215
370
     5
100
AcDbLine
 10
2.850594
 20
-0.836231
 30
0.0
 11
2.847507
 21
-0.836417
 31
0.0
  0
LINE
  5
28E
330
1F
100
AcDbEntity
  8
Default
 62
     7
420
 16777215
370
     5
100
AcDbLine
 10
2.847507
 20
-0.836417
 30
0.0
 11
2.844524
 21
-0.836605
 31
0.0
  0
LINE
  5
28F
330
1F
100
AcDbEntity
  8
Default
 62
     7
420
 16777215
370
     5
100
AcDbLine
 10
2.844524
 20
-0.836605
 30
0.0
 11
2.84163
 21
-0.836797
 31
0.0
  0
LINE
  5
290
330
1F
100
AcDbEntity
  8
Default
 62
     7
420
 16777215
370
     5
100
AcDbLine
 10
2.84163
 20
-0.836797
 30
0.0
 11
2.838811
 21
-0.836993
 31
0.0
  0
LINE
  5
291
330
1F
100
AcDbEntity
  8
Default
 62
     7
420
 16777215
370
     5
100
AcDbLine
 10
2.838811
 20
-0.836993
 30
0.0
 11
2.836058
 21
-0.837192
 31
0.0
  0
LINE
  5
292
330
1F
100
AcDbEntity
  8
Default
 62
     7
420
 16777215
370
     5
100
AcDbLine
 10
2.836058
 20
-0.837192
 30
0.0
 11
2.833362
 21
-0.837394
 31
0.0
  0
LINE
  5
293
330
1F
100
AcDbEntity
  8
Default
 62
     7
420
 16777215
370
     5
100
AcDbLine
 10
2.833362
 20
-0.837394
 30
0.0
 11
2.830716
 21
-0.837598
 31
0.0
  0
LINE
  5
294
330
1F
100
AcDbEntity
  8
Default
 62
     7
420
 16777215
370
     5
100
AcDbLine
 10
2.830716
 20
-0.837598
 30
0.0
 11
2.828113
 21
-0.837802
 31
0.0
  0
LINE
  5
295
330
1F
100
AcDbEntity
  8
Default
 62
     7
420
 16777215
370
     5
100
AcDbLine
 10
2.828113
 20
-0.837802
 30
0.0
 11
2.825544
 21
-0.838007
 31
0.0
  0
LINE
  5
296
330
1F
100
AcDbEntity
  8
Default
 62
     7
420
 16777215
370
     5
100
AcDbLine
 10
2.825544
 20
-0.838007
 30
0.0
 11
2.823001
 21
-0.83821
 31
0.0
  0
LINE
  5
297
330
1F
100
AcDbEntity
  8
Default
 62
     7
420
 16777215
370
     5
100
AcDbLine
 10
2.823001
 20
-0.83821
 30
0.0
 11
2.820477
 21
-0.838413
 31
0.0
  0
LINE
  5
298
330
1F
100
AcDbEntity
  8
Default
 62
     7
420
 16777215
370
     5
100
AcDbLine
 10
2.820477
 20
-0.838413
 30
0.0
 11
2.817967
 21
-0.838612
 31
0.0
  0
LINE
  5
299
330
1F
100
AcDbEntity
  8
Default
 62
     7
420
 16777215
370
     5
100
AcDbLine
 10
2.817967
 20
-0.838612
 30
0.0
 11
2.815472
 21
-0.83881
 31
0.0
  0
LINE
  5
29A
330
1F
100
AcDbEntity
  8
Default
 62
     7
420
 16777215
370
     5
100
AcDbLine
 10
2.815472
 20
-0.83881
 30
0.0
 11
2.812999
 21
-0.839008
 31
0.0
  0
LINE
  5
29B
330
1F
100
AcDbEntity
  8
Default
 62
     7
420
 16777215
370
     5
100
AcDbLine
 10
2.812999
 20
-0.839008
 30
0.0
 11
2.810553
 21
-0.839205
 31
0.0
  0
LINE
  5
29C
330
1F
100
AcDbEntity
  8
Default
 62
     7
420
 16777215
370
     5
100
AcDbLine
 10
2.810553
 20
-0.839205
 30
0.0
 11
2.808138
 21
-0.839403
 31
0.0
  0
LINE
  5
29D
330
1F
100
AcDbEntity
  8
Default
 62
     7
420
 16777215
370
     5
100
AcDbLine
 10
2.808138
 20
-0.839403
 30
0.0
 11
2.80576
 21
-0.839603
 31
0.0
  0
LINE
  5
29E
330
1F
100
AcDbEntity
  8
Default
 62
     7
420
 16777215
370
     5
100
AcDbLine
 10
2.80576
 20
-0.839603
 30
0.0
 11
2.803424
 21
-0.839806
 31
0.0
  0
LINE
  5
29F
330
1F
100
AcDbEntity
  8
Default
 62
     7
420
 16777215
370
     5
100
AcDbLine
 10
2.803424
 20
-0.839806
 30
0.0
 11
2.801135
 21
-0.840012
 31
0.0
  0
LINE
  5
2A0
330
1F
100
AcDbEntity
  8
Default
 62
     7
420
 16777215
370
     5
100
AcDbLine
 10
2.801135
 20
-0.840012
 30
0.0
 11
2.798892
 21
-0.840223
 31
0.0
  0
LINE
  5
2A1
330
1F
100
AcDbEntity
  8
Default
 62
     7
420
 16777215
370
     5
100
AcDbLine
 10
2.798892
 20
-0.840223
 30
0.0
 11
2.796666
 21
-0.84044
 31
0.0
  0
LINE
  5
2A2
330
1F
100
AcDbEntity
  8
Default
 62
     7
420
 16777215
370
     5
100
AcDbLine
 10
2.796666
 20
-0.84044
 30
0.0
 11
2.794422
 21
-0.840666
 31
0.0
  0
LINE
  5
2A3
330
1F
100
AcDbEntity
  8
Default
 62
     7
420
 16777215
370
     5
100
AcDbLine
 10
2.794422
 20
-0.840666
 30
0.0
 11
2.792124
 21
-0.840903
 31
0.0
  0
LINE
  5
2A4
330
1F
100
AcDbEntity
  8
Default
 62
     7
420
 16777215
370
     5
100
AcDbLine
 10
2.792124
 20
-0.840903
 30
0.0
 11
2.789737
 21
-0.841154
 31
0.0
  0
LINE
  5
2A5
330
1F
100
AcDbEntity
  8
Default
 62
     7
420
 16777215
370
     5
100
AcDbLine
 10
2.789737
 20
-0.841154
 30
0.0
 11
2.787226
 21
-0.84142
 31
0.0
  0
LINE
  5
2A6
330
1F
100
AcDbEntity
  8
Default
 62
     7
420
 16777215
370
     5
100
AcDbLine
 10
2.787226
 20
-0.84142
 30
0.0
 11
2.784554
 21
-0.841704
 31
0.0
  0
LINE
  5
2A7
330
1F
100
AcDbEntity
  8
Default
 62
     7
420
 16777215
370
     5
100
AcDbLine
 10
2.784554
 20
-0.841704
 30
0.0
 11
2.781688
 21
-0.842008
 31
0.0
  0
LINE
  5
2A8
330
1F
100
AcDbEntity
  8
Default
 62
     7
420
 16777215
370
     5
100
AcDbLine
 10
2.781688
 20
-0.842008
 30
0.0
 11
2.778565
 21
-0.842336
 31
0.0
  0
LINE
  5
2A9
330
1F
100
AcDbEntity
  8
Default
 62
     7
420
 16777215
370
     5
100
AcDbLine
 10
2.778565
 20
-0.842336
 30
0.0
 11
2.775022
 21
-0.842703
 31
0.0
  0
LINE
  5
2AA
330
1F
100
AcDbEntity
  8
Default
 62
     7
420
 16777215
370
     5
100
AcDbLine
 10
2.775022
 20
-0.842703
 30
0.0
 11
2.770867
 21
-0.843125
 31
0.0
  0
LINE
  5
2AB
330
1F
100
AcDbEntity
  8
Default
 62
     7
420
 16777215
370
     5
100
AcDbLine
 10
2.770867
 20
-0.843125
 30
0.0
 11
2.765912
 21
-0.843619
 31
0.0
  0
LINE
  5
2AC
330
1F
100
AcDbEntity
  8
Default
 62
     7
420
 16777215
370
     5
100
AcDbLine
 10
2.765912
 20
-0.843619
 30
0.0
 11
2.759965
 21
-0.8442
 31
0.0
  0
LINE
  5
2AD
330
1F
100
AcDbEntity
  8
Default
 62
     7
420
 16777215
370
     5
100
AcDbLine
 10
2.759965
 20
-0.8442
 30
0.0
 11
2.752838
 21
-0.844886
 31
0.0
  0
LINE
  5
2AE
330
1F
100
AcDbEntity
  8
Default
 62
     7
420
 16777215
370
     5
100
AcDbLine
 10
2.752838
 20
-0.844886
 30
0.0
 11
2.742413
 21
-0.845875
 31
0.0
  0
ARC
  5
2AF
330
1F
100
AcDbEntity
  8
Default
 62
     7
420
 16777215
370
     5
100
AcDbCircle
 10
2.741468
 20
-0.83592
 30
0.0
 40
0.01
100
AcDbArc
 50
224.8029560000014
 51
275.421631000001
  0
LINE
  5
2B0
330
1F
100
AcDbEntity
  8
Default
 62
     7
420
 16777215
370
     5
100
AcDbLine
 10
2.734373
 20
-0.842967
 30
0.0
 11
2.730176
 21
-0.838741
 31
0.0
  0
LINE
  5
2B1
330
1F
100
AcDbEntity
  8
Default
 62
     7
420
 16777215
370
     5
100
AcDbLine
 10
2.730176
 20
-0.838741
 30
0.0
 11
2.723357
 21
-0.830526
 31
0.0
  0
LINE
  5
2B2
330
1F
100
AcDbEntity
  8
Default
 62
     7
420
 16777215
370
     5
100
AcDbLine
 10
2.723357
 20
-0.830526
 30
0.0
 11
2.717551
 21
-0.823788
 31
0.0
  0
LINE
  5
2B3
330
1F
100
AcDbEntity
  8
Default
 62
     7
420
 16777215
370
     5
100
AcDbLine
 10
2.717551
 20
-0.823788
 30
0.0
 11
2.710893
 21
-0.817075
 31
0.0
  0
LINE
  5
2B4
330
1F
100
AcDbEntity
  8
Default
 62
     7
420
 16777215
370
     5
100
AcDbLine
 10
2.710893
 20
-0.817075
 30
0.0
 11
2.703035
 21
-0.810372
 31
0.0
  0
LINE
  5
2B5
330
1F
100
AcDbEntity
  8
Default
 62
     7
420
 16777215
370
     5
100
AcDbLine
 10
2.703035
 20
-0.810372
 30
0.0
 11
2.694053
 21
-0.803355
 31
0.0
  0
LINE
  5
2B6
330
1F
100
AcDbEntity
  8
Default
 62
     7
420
 16777215
370
     5
100
AcDbLine
 10
2.694053
 20
-0.803355
 30
0.0
 11
2.685606
 21
-0.798159
 31
0.0
  0
LINE
  5
2B7
330
1F
100
AcDbEntity
  8
Default
 62
     7
420
 16777215
370
     5
100
AcDbLine
 10
2.685606
 20
-0.798159
 30
0.0
 11
2.676561
 21
-0.793418
 31
0.0
  0
LINE
  5
2B8
330
1F
100
AcDbEntity
  8
Default
 62
     7
420
 16777215
370
     5
100
AcDbLine
 10
2.676561
 20
-0.793418
 30
0.0
 11
2.664924
 21
-0.788848
 31
0.0
  0
LINE
  5
2B9
330
1F
100
AcDbEntity
  8
Default
 62
     7
420
 16777215
370
     5
100
AcDbLine
 10
2.664924
 20
-0.788848
 30
0.0
 11
2.658765
 21
-0.786724
 31
0.0
  0
LINE
  5
2BA
330
1F
100
AcDbEntity
  8
Default
 62
     7
420
 16777215
370
     5
100
AcDbLine
 10
2.658765
 20
-0.786724
 30
0.0
 11
1.727558
 21
-0.799743
 31
0.0
  0
LINE
  5
2BB
330
1F
100
AcDbEntity
  8
Default
 62
     7
420
 16777215
370
     5
100
AcDbLine
 10
1.727558
 20
-0.799743
 30
0.0
 11
1.726016
 21
-0.799736
 31
0.0
  0
LINE
  5
2BC
330
1F
100
AcDbEntity
  8
Default
 62
     7
420
 16777215
370
     5
100
AcDbLine
 10
1.726016
 20
-0.799736
 30
0.0
 11
1.509595
 21
-0.804225
 31
0.0
  0
LINE
  5
2BD
330
1F
100
AcDbEntity
  8
Default
 62
     7
420
 16777215
370
     5
100
AcDbLine
 10
1.509595
 20
-0.804225
 30
0.0
 11
1.485357
 21
-0.830634
 31
0.0
  0
LINE
  5
2BE
330
1F
100
AcDbEntity
  8
Default
 62
     7
420
 16777215
370
     5
100
AcDbLine
 10
1.485357
 20
-0.830634
 30
0.0
 11
1.463465
 21
-0.855814
 31
0.0
  0
LINE
  5
2BF
330
1F
100
AcDbEntity
  8
Default
 62
     7
420
 16777215
370
     5
100
AcDbLine
 10
1.463465
 20
-0.855814
 30
0.0
 11
1.453222
 21
-0.871368
 31
0.0
  0
LINE
  5
2C0
330
1F
100
AcDbEntity
  8
Default
 62
     7
420
 16777215
370
     5
100
AcDbLine
 10
1.453222
 20
-0.871368
 30
0.0
 11
1.44343
 21
-0.890322
 31
0.0
  0
LINE
  5
2C1
330
1F
100
AcDbEntity
  8
Default
 62
     7
420
 16777215
370
     5
100
AcDbLine
 10
1.44343
 20
-0.890322
 30
0.0
 11
1.437881
 21
-0.909275
 31
0.0
  0
LINE
  5
2C2
330
1F
100
AcDbEntity
  8
Default
 62
     7
420
 16777215
370
     5
100
AcDbLine
 10
1.437881
 20
-0.909275
 30
0.0
 11
1.43429
 21
-0.927249
 31
0.0
  0
LINE
  5
2C3
330
1F
100
AcDbEntity
  8
Default
 62
     7
420
 16777215
370
     5
100
AcDbLine
 10
1.43429
 20
-0.927249
 30
0.0
 11
1.433311
 21
-0.943915
 31
0.0
  0
LINE
  5
2C4
330
1F
100
AcDbEntity
  8
Default
 62
     7
420
 16777215
370
     5
100
AcDbLine
 10
1.433311
 20
-0.943915
 30
0.0
 11
1.433638
 21
-0.963849
 31
0.0
  0
LINE
  5
2C5
330
1F
100
AcDbEntity
  8
Default
 62
     7
420
 16777215
370
     5
100
AcDbLine
 10
1.433638
 20
-0.963849
 30
0.0
 11
1.437555
 21
-0.982803
 31
0.0
  0
LINE
  5
2C6
330
1F
100
AcDbEntity
  8
Default
 62
     7
420
 16777215
370
     5
100
AcDbLine
 10
1.437555
 20
-0.982803
 30
0.0
 11
1.445062
 21
-1.001756
 31
0.0
  0
LINE
  5
2C7
330
1F
100
AcDbEntity
  8
Default
 62
     7
420
 16777215
370
     5
100
AcDbLine
 10
1.445062
 20
-1.001756
 30
0.0
 11
1.453315
 21
-1.016106
 31
0.0
  0
LINE
  5
2C8
330
1F
100
AcDbEntity
  8
Default
 62
     7
420
 16777215
370
     5
100
AcDbLine
 10
1.453315
 20
-1.016106
 30
0.0
 11
1.465754
 21
-1.028927
 31
0.0
  0
LINE
  5
2C9
330
1F
100
AcDbEntity
  8
Default
 62
     7
420
 16777215
370
     5
100
AcDbLine
 10
1.465754
 20
-1.028927
 30
0.0
 11
1.47856
 21
-1.038084
 31
0.0
  0
LINE
  5
2CA
330
1F
100
AcDbEntity
  8
Default
 62
     7
420
 16777215
370
     5
100
AcDbLine
 10
1.47856
 20
-1.038084
 30
0.0
 11
1.492098
 21
-1.04541
 31
0.0
  0
LINE
  5
2CB
330
1F
100
AcDbEntity
  8
Default
 62
     7
420
 16777215
370
     5
100
AcDbLine
 10
1.492098
 20
-1.04541
 30
0.0
 11
1.510026
 21
-1.052003
 31
0.0
  0
LINE
  5
2CC
330
1F
100
AcDbEntity
  8
Default
 62
     7
420
 16777215
370
     5
100
AcDbLine
 10
1.510026
 20
-1.052003
 30
0.0
 11
1.529417
 21
-1.057864
 31
0.0
  0
LINE
  5
2CD
330
1F
100
AcDbEntity
  8
Default
 62
     7
420
 16777215
370
     5
100
AcDbLine
 10
1.529417
 20
-1.057864
 30
0.0
 11
1.549541
 21
-1.062626
 31
0.0
  0
LINE
  5
2CE
330
1F
100
AcDbEntity
  8
Default
 62
     7
420
 16777215
370
     5
100
AcDbLine
 10
1.549541
 20
-1.062626
 30
0.0
 11
1.563054
 21
-1.065187
 31
0.0
  0
LINE
  5
2CF
330
1F
100
AcDbEntity
  8
Default
 62
     7
420
 16777215
370
     5
100
AcDbLine
 10
1.563054
 20
-1.065187
 30
0.0
 11
1.573896
 21
-1.067534
 31
0.0
  0
LINE
  5
2D0
330
1F
100
AcDbEntity
  8
Default
 62
     7
420
 16777215
370
     5
100
AcDbLine
 10
1.573896
 20
-1.067534
 30
0.0
 11
1.58005
 21
-1.069881
 31
0.0
  0
LINE
  5
2D1
330
1F
100
AcDbEntity
  8
Default
 62
     7
420
 16777215
370
     5
100
AcDbLine
 10
1.58005
 20
-1.069881
 30
0.0
 11
1.584739
 21
-1.074574
 31
0.0
  0
LINE
  5
2D2
330
1F
100
AcDbEntity
  8
Default
 62
     7
420
 16777215
370
     5
100
AcDbLine
 10
1.584739
 20
-1.074574
 30
0.0
 11
1.586204
 21
-1.078975
 31
0.0
  0
LINE
  5
2D3
330
1F
100
AcDbEntity
  8
Default
 62
     7
420
 16777215
370
     5
100
AcDbLine
 10
1.586204
 20
-1.078975
 30
0.0
 11
1.586121
 21
-1.084708
 31
0.0
  0
LINE
  5
2D4
330
1F
100
AcDbEntity
  8
Default
 62
     7
420
 16777215
370
     5
100
AcDbLine
 10
1.586121
 20
-1.084708
 30
0.0
 11
1.583115
 21
-1.090726
 31
0.0
  0
LINE
  5
2D5
330
1F
100
AcDbEntity
  8
Default
 62
     7
420
 16777215
370
     5
100
AcDbLine
 10
1.583115
 20
-1.090726
 30
0.0
 11
1.575601
 21
-1.100828
 31
0.0
  0
LINE
  5
2D6
330
1F
100
AcDbEntity
  8
Default
 62
     7
420
 16777215
370
     5
100
AcDbLine
 10
1.575601
 20
-1.100828
 30
0.0
 11
1.567228
 21
-1.110071
 31
0.0
  0
LINE
  5
2D7
330
1F
100
AcDbEntity
  8
Default
 62
     7
420
 16777215
370
     5
100
AcDbLine
 10
1.567228
 20
-1.110071
 30
0.0
 11
1.557137
 21
-1.119098
 31
0.0
  0
LINE
  5
2D8
330
1F
100
AcDbEntity
  8
Default
 62
     7
420
 16777215
370
     5
100
AcDbLine
 10
1.557137
 20
-1.119098
 30
0.0
 11
1.545673
 21
-1.129126
 31
0.0
  0
LINE
  5
2D9
330
1F
100
AcDbEntity
  8
Default
 62
     7
420
 16777215
370
     5
100
AcDbLine
 10
1.545673
 20
-1.129126
 30
0.0
 11
1.532725
 21
-1.139388
 31
0.0
  0
LINE
  5
2DA
330
1F
100
AcDbEntity
  8
Default
 62
     7
420
 16777215
370
     5
100
AcDbLine
 10
1.532725
 20
-1.139388
 30
0.0
 11
1.521935
 21
-1.14695
 31
0.0
  0
LINE
  5
2DB
330
1F
100
AcDbEntity
  8
Default
 62
     7
420
 16777215
370
     5
100
AcDbLine
 10
1.521935
 20
-1.14695
 30
0.0
 11
1.510066
 21
-1.155052
 31
0.0
  0
LINE
  5
2DC
330
1F
100
AcDbEntity
  8
Default
 62
     7
420
 16777215
370
     5
100
AcDbLine
 10
1.510066
 20
-1.155052
 30
0.0
 11
1.497927
 21
-1.162613
 31
0.0
  0
LINE
  5
2DD
330
1F
100
AcDbEntity
  8
Default
 62
     7
420
 16777215
370
     5
100
AcDbLine
 10
1.497927
 20
-1.162613
 30
0.0
 11
1.484169
 21
-1.170985
 31
0.0
  0
LINE
  5
2DE
330
1F
100
AcDbEntity
  8
Default
 62
     7
420
 16777215
370
     5
100
AcDbLine
 10
1.484169
 20
-1.170985
 30
0.0
 11
1.467984
 21
-1.181248
 31
0.0
  0
LINE
  5
2DF
330
1F
100
AcDbEntity
  8
Default
 62
     7
420
 16777215
370
     5
100
AcDbLine
 10
1.467984
 20
-1.181248
 30
0.0
 11
1.453093
 21
-1.188463
 31
0.0
  0
LINE
  5
2E0
330
1F
100
AcDbEntity
  8
Default
 62
     7
420
 16777215
370
     5
100
AcDbLine
 10
1.453093
 20
-1.188463
 30
0.0
 11
1.440606
 21
-1.194441
 31
0.0
  0
LINE
  5
2E1
330
1F
100
AcDbEntity
  8
Default
 62
     7
420
 16777215
370
     5
100
AcDbLine
 10
1.440606
 20
-1.194441
 30
0.0
 11
1.428934
 21
-1.199333
 31
0.0
  0
LINE
  5
2E2
330
1F
100
AcDbEntity
  8
Default
 62
     7
420
 16777215
370
     5
100
AcDbLine
 10
1.428934
 20
-1.199333
 30
0.0
 11
1.41509
 21
-1.20504
 31
0.0
  0
LINE
  5
2E3
330
1F
100
AcDbEntity
  8
Default
 62
     7
420
 16777215
370
     5
100
AcDbLine
 10
1.41509
 20
-1.20504
 30
0.0
 11
1.400703
 21
-1.210475
 31
0.0
  0
LINE
  5
2E4
330
1F
100
AcDbEntity
  8
Default
 62
     7
420
 16777215
370
     5
100
AcDbLine
 10
1.400703
 20
-1.210475
 30
0.0
 11
1.389173
 21
-1.213985
 31
0.0
  0
LINE
  5
2E5
330
1F
100
AcDbEntity
  8
Default
 62
     7
420
 16777215
370
     5
100
AcDbLine
 10
1.389173
 20
-1.213985
 30
0.0
 11
1.377501
 21
-1.21779
 31
0.0
  0
LINE
  5
2E6
330
1F
100
AcDbEntity
  8
Default
 62
     7
420
 16777215
370
     5
100
AcDbLine
 10
1.377501
 20
-1.21779
 30
0.0
 11
1.3642
 21
-1.220507
 31
0.0
  0
LINE
  5
2E7
330
1F
100
AcDbEntity
  8
Default
 62
     7
420
 16777215
370
     5
100
AcDbLine
 10
1.3642
 20
-1.220507
 30
0.0
 11
1.34927
 21
-1.223497
 31
0.0
  0
LINE
  5
2E8
330
1F
100
AcDbEntity
  8
Default
 62
     7
420
 16777215
370
     5
100
AcDbLine
 10
1.34927
 20
-1.223497
 30
0.0
 11
1.338141
 21
-1.225671
 31
0.0
  0
LINE
  5
2E9
330
1F
100
AcDbEntity
  8
Default
 62
     7
420
 16777215
370
     5
100
AcDbLine
 10
1.338141
 20
-1.225671
 30
0.0
 11
1.329691
 21
-1.226943
 31
0.0
  0
LINE
  5
2EA
330
1F
100
AcDbEntity
  8
Default
 62
     7
420
 16777215
370
     5
100
AcDbLine
 10
1.329691
 20
-1.226943
 30
0.0
 11
1.299334
 21
-1.230294
 31
0.0
  0
LINE
  5
2EB
330
1F
100
AcDbEntity
  8
Default
 62
     7
420
 16777215
370
     5
100
AcDbLine
 10
1.299334
 20
-1.230294
 30
0.0
 11
1.279015
 21
-1.232245
 31
0.0
  0
LINE
  5
2EC
330
1F
100
AcDbEntity
  8
Default
 62
     7
420
 16777215
370
     5
100
AcDbLine
 10
1.279015
 20
-1.232245
 30
0.0
 11
1.260923
 21
-1.232802
 31
0.0
  0
LINE
  5
2ED
330
1F
100
AcDbEntity
  8
Default
 62
     7
420
 16777215
370
     5
100
AcDbLine
 10
1.260923
 20
-1.232802
 30
0.0
 11
1.240882
 21
-1.232245
 31
0.0
  0
LINE
  5
2EE
330
1F
100
AcDbEntity
  8
Default
 62
     7
420
 16777215
370
     5
100
AcDbLine
 10
1.240882
 20
-1.232245
 30
0.0
 11
1.224737
 21
-1.231456
 31
0.0
  0
LINE
  5
2EF
330
1F
100
AcDbEntity
  8
Default
 62
     7
420
 16777215
370
     5
100
AcDbLine
 10
1.224737
 20
-1.231456
 30
0.0
 11
1.204803
 21
-1.229355
 31
0.0
  0
LINE
  5
2F0
330
1F
100
AcDbEntity
  8
Default
 62
     7
420
 16777215
370
     5
100
AcDbLine
 10
1.204803
 20
-1.229355
 30
0.0
 11
1.186617
 21
-1.227255
 31
0.0
  0
LINE
  5
2F1
330
1F
100
AcDbEntity
  8
Default
 62
     7
420
 16777215
370
     5
100
AcDbLine
 10
1.186617
 20
-1.227255
 30
0.0
 11
1.169831
 21
-1.223753
 31
0.0
  0
LINE
  5
2F2
330
1F
100
AcDbEntity
  8
Default
 62
     7
420
 16777215
370
     5
100
AcDbLine
 10
1.169831
 20
-1.223753
 30
0.0
 11
1.151296
 21
-1.219902
 31
0.0
  0
LINE
  5
2F3
330
1F
100
AcDbEntity
  8
Default
 62
     7
420
 16777215
370
     5
100
AcDbLine
 10
1.151296
 20
-1.219902
 30
0.0
 11
1.13276
 21
-1.215
 31
0.0
  0
LINE
  5
2F4
330
1F
100
AcDbEntity
  8
Default
 62
     7
420
 16777215
370
     5
100
AcDbLine
 10
1.13276
 20
-1.215
 30
0.0
 11
1.111625
 21
-1.208374
 31
0.0
  0
LINE
  5
2F5
330
1F
100
AcDbEntity
  8
Default
 62
     7
420
 16777215
370
     5
100
AcDbLine
 10
1.111625
 20
-1.208374
 30
0.0
 11
1.085194
 21
-1.199554
 31
0.0
  0
LINE
  5
2F6
330
1F
100
AcDbEntity
  8
Default
 62
     7
420
 16777215
370
     5
100
AcDbLine
 10
1.085194
 20
-1.199554
 30
0.0
 11
1.055826
 21
-1.188774
 31
0.0
  0
LINE
  5
2F7
330
1F
100
AcDbEntity
  8
Default
 62
     7
420
 16777215
370
     5
100
AcDbLine
 10
1.055826
 20
-1.188774
 30
0.0
 11
1.028417
 21
-1.178483
 31
0.0
  0
LINE
  5
2F8
330
1F
100
AcDbEntity
  8
Default
 62
     7
420
 16777215
370
     5
100
AcDbLine
 10
1.028417
 20
-1.178483
 30
0.0
 11
1.006869
 21
-1.170193
 31
0.0
  0
LINE
  5
2F9
330
1F
100
AcDbEntity
  8
Default
 62
     7
420
 16777215
370
     5
100
AcDbLine
 10
1.006869
 20
-1.170193
 30
0.0
 11
0.990172
 21
-1.163595
 31
0.0
  0
LINE
  5
2FA
330
1F
100
AcDbEntity
  8
Default
 62
     7
420
 16777215
370
     5
100
AcDbLine
 10
0.990172
 20
-1.163595
 30
0.0
 11
0.973913
 21
-1.158316
 31
0.0
  0
LINE
  5
2FB
330
1F
100
AcDbEntity
  8
Default
 62
     7
420
 16777215
370
     5
100
AcDbLine
 10
0.973913
 20
-1.158316
 30
0.0
 11
0.951943
 21
-1.153477
 31
0.0
  0
LINE
  5
2FC
330
1F
100
AcDbEntity
  8
Default
 62
     7
420
 16777215
370
     5
100
AcDbLine
 10
0.951943
 20
-1.153477
 30
0.0
 11
0.940579
 21
-1.150296
 31
0.0
  0
LINE
  5
2FD
330
1F
100
AcDbEntity
  8
Default
 62
     7
420
 16777215
370
     5
100
AcDbLine
 10
0.940579
 20
-1.150296
 30
0.0
 11
0.924325
 21
-1.148324
 31
0.0
  0
LINE
  5
2FE
330
1F
100
AcDbEntity
  8
Default
 62
     7
420
 16777215
370
     5
100
AcDbLine
 10
0.924325
 20
-1.148324
 30
0.0
 11
0.910042
 21
-1.147831
 31
0.0
  0
LINE
  5
2FF
330
1F
100
AcDbEntity
  8
Default
 62
     7
420
 16777215
370
     5
100
AcDbLine
 10
0.910042
 20
-1.147831
 30
0.0
 11
0.896251
 21
-1.148817
 31
0.0
  0
LINE
  5
300
330
1F
100
AcDbEntity
  8
Default
 62
     7
420
 16777215
370
     5
100
AcDbLine
 10
0.896251
 20
-1.148817
 30
0.0
 11
0.884922
 21
-1.150789
 31
0.0
  0
LINE
  5
301
330
1F
100
AcDbEntity
  8
Default
 62
     7
420
 16777215
370
     5
100
AcDbLine
 10
0.884922
 20
-1.150789
 30
0.0
 11
0.871624
 21
-1.153748
 31
0.0
  0
LINE
  5
302
330
1F
100
AcDbEntity
  8
Default
 62
     7
420
 16777215
370
     5
100
AcDbLine
 10
0.871624
 20
-1.153748
 30
0.0
 11
0.865714
 21
-1.155227
 31
0.0
  0
LINE
  5
303
330
1F
100
AcDbEntity
  8
Default
 62
     7
420
 16777215
370
     5
100
AcDbLine
 10
0.865714
 20
-1.155227
 30
0.0
 11
0.8542
 21
-1.15907
 31
0.0
  0
LINE
  5
304
330
1F
100
AcDbEntity
  8
Default
 62
     7
420
 16777215
370
     5
100
AcDbLine
 10
0.8542
 20
-1.15907
 30
0.0
 11
0.839279
 21
-1.167016
 31
0.0
  0
LINE
  5
305
330
1F
100
AcDbEntity
  8
Default
 62
     7
420
 16777215
370
     5
100
AcDbLine
 10
0.839279
 20
-1.167016
 30
0.0
 11
0.818485
 21
-1.179969
 31
0.0
  0
LINE
  5
306
330
1F
100
AcDbEntity
  8
Default
 62
     7
420
 16777215
370
     5
100
AcDbLine
 10
0.818485
 20
-1.179969
 30
0.0
 11
0.795843
 21
-1.195698
 31
0.0
  0
LINE
  5
307
330
1F
100
AcDbEntity
  8
Default
 62
     7
420
 16777215
370
     5
100
AcDbLine
 10
0.795843
 20
-1.195698
 30
0.0
 11
0.773663
 21
-1.211889
 31
0.0
  0
LINE
  5
308
330
1F
100
AcDbEntity
  8
Default
 62
     7
420
 16777215
370
     5
100
AcDbLine
 10
0.773663
 20
-1.211889
 30
0.0
 11
0.754717
 21
-1.227156
 31
0.0
  0
LINE
  5
309
330
1F
100
AcDbEntity
  8
Default
 62
     7
420
 16777215
370
     5
100
AcDbLine
 10
0.754717
 20
-1.227156
 30
0.0
 11
0.742703
 21
-1.235946
 31
0.0
  0
LINE
  5
30A
330
1F
100
AcDbEntity
  8
Default
 62
     7
420
 16777215
370
     5
100
AcDbLine
 10
0.742703
 20
-1.235946
 30
0.0
 11
0.720261
 21
-1.252567
 31
0.0
  0
LINE
  5
30B
330
1F
100
AcDbEntity
  8
Default
 62
     7
420
 16777215
370
     5
100
AcDbLine
 10
0.720261
 20
-1.252567
 30
0.0
 11
0.701102
 21
-1.264772
 31
0.0
  0
LINE
  5
30C
330
1F
100
AcDbEntity
  8
Default
 62
     7
420
 16777215
370
     5
100
AcDbLine
 10
0.701102
 20
-1.264772
 30
0.0
 11
0.676137
 21
-1.279305
 31
0.0
  0
LINE
  5
30D
330
1F
100
AcDbEntity
  8
Default
 62
     7
420
 16777215
370
     5
100
AcDbLine
 10
0.676137
 20
-1.279305
 30
0.0
 11
0.647108
 21
-1.294417
 31
0.0
  0
LINE
  5
30E
330
1F
100
AcDbEntity
  8
Default
 62
     7
420
 16777215
370
     5
100
AcDbLine
 10
0.647108
 20
-1.294417
 30
0.0
 11
0.61866
 21
-1.307785
 31
0.0
  0
LINE
  5
30F
330
1F
100
AcDbEntity
  8
Default
 62
     7
420
 16777215
370
     5
100
AcDbLine
 10
0.61866
 20
-1.307785
 30
0.0
 11
0.596017
 21
-1.318248
 31
0.0
  0
LINE
  5
310
330
1F
100
AcDbEntity
  8
Default
 62
     7
420
 16777215
370
     5
100
AcDbLine
 10
0.596017
 20
-1.318248
 30
0.0
 11
0.577338
 21
-1.325022
 31
0.0
  0
LINE
  5
311
330
1F
100
AcDbEntity
  8
Default
 62
     7
420
 16777215
370
     5
100
AcDbLine
 10
0.577338
 20
-1.325022
 30
0.0
 11
0.555309
 21
-1.332372
 31
0.0
  0
LINE
  5
312
330
1F
100
AcDbEntity
  8
Default
 62
     7
420
 16777215
370
     5
100
AcDbLine
 10
0.555309
 20
-1.332372
 30
0.0
 11
0.529084
 21
-1.338674
 31
0.0
  0
LINE
  5
313
330
1F
100
AcDbEntity
  8
Default
 62
     7
420
 16777215
370
     5
100
AcDbLine
 10
0.529084
 20
-1.338674
 30
0.0
 11
0.502335
 21
-1.3434
 31
0.0
  0
LINE
  5
314
330
1F
100
AcDbEntity
  8
Default
 62
     7
420
 16777215
370
     5
100
AcDbLine
 10
0.502335
 20
-1.3434
 30
0.0
 11
0.47139
 21
-1.346551
 31
0.0
  0
LINE
  5
315
330
1F
100
AcDbEntity
  8
Default
 62
     7
420
 16777215
370
     5
100
AcDbLine
 10
0.47139
 20
-1.346551
 30
0.0
 11
0.45041
 21
-1.347601
 31
0.0
  0
LINE
  5
316
330
1F
100
AcDbEntity
  8
Default
 62
     7
420
 16777215
370
     5
100
AcDbLine
 10
0.45041
 20
-1.347601
 30
0.0
 11
0.426808
 21
-1.347076
 31
0.0
  0
LINE
  5
317
330
1F
100
AcDbEntity
  8
Default
 62
     7
420
 16777215
370
     5
100
AcDbLine
 10
0.426808
 20
-1.347076
 30
0.0
 11
0.403676
 21
-1.345194
 31
0.0
  0
LINE
  5
318
330
1F
100
AcDbEntity
  8
Default
 62
     7
420
 16777215
370
     5
100
AcDbLine
 10
0.403676
 20
-1.345194
 30
0.0
 11
0.377813
 21
-1.341495
 31
0.0
  0
LINE
  5
319
330
1F
100
AcDbEntity
  8
Default
 62
     7
420
 16777215
370
     5
100
AcDbLine
 10
0.377813
 20
-1.341495
 30
0.0
 11
0.350896
 21
-1.336211
 31
0.0
  0
LINE
  5
31A
330
1F
100
AcDbEntity
  8
Default
 62
     7
420
 16777215
370
     5
100
AcDbLine
 10
0.350896
 20
-1.336211
 30
0.0
 11
0.326618
 21
-1.329342
 31
0.0
  0
LINE
  5
31B
330
1F
100
AcDbEntity
  8
Default
 62
     7
420
 16777215
370
     5
100
AcDbLine
 10
0.326618
 20
-1.329342
 30
0.0
 11
0.302867
 21
-1.317716
 31
0.0
  0
LINE
  5
31C
330
1F
100
AcDbEntity
  8
Default
 62
     7
420
 16777215
370
     5
100
AcDbLine
 10
0.302867
 20
-1.317716
 30
0.0
 11
0.280172
 21
-1.305036
 31
0.0
  0
LINE
  5
31D
330
1F
100
AcDbEntity
  8
Default
 62
     7
420
 16777215
370
     5
100
AcDbLine
 10
0.280172
 20
-1.305036
 30
0.0
 11
0.252727
 21
-1.286013
 31
0.0
  0
LINE
  5
31E
330
1F
100
AcDbEntity
  8
Default
 62
     7
420
 16777215
370
     5
100
AcDbLine
 10
0.252727
 20
-1.286013
 30
0.0
 11
0.241128
 21
-1.278367
 31
0.0
  0
LINE
  5
31F
330
1F
100
AcDbEntity
  8
Default
 62
     7
420
 16777215
370
     5
100
AcDbLine
 10
0.241128
 20
-1.278367
 30
0.0
 11
0.226665
 21
-1.264738
 31
0.0
  0
LINE
  5
320
330
1F
100
AcDbEntity
  8
Default
 62
     7
420
 16777215
370
     5
100
AcDbLine
 10
0.226665
 20
-1.264738
 30
0.0
 11
0.213054
 21
-1.251537
 31
0.0
  0
LINE
  5
321
330
1F
100
AcDbEntity
  8
Default
 62
     7
420
 16777215
370
     5
100
AcDbLine
 10
0.213054
 20
-1.251537
 30
0.0
 11
0.199442
 21
-1.235354
 31
0.0
  0
LINE
  5
322
330
1F
100
AcDbEntity
  8
Default
 62
     7
420
 16777215
370
     5
100
AcDbLine
 10
0.199442
 20
-1.235354
 30
0.0
 11
0.187106
 21
-1.218745
 31
0.0
  0
LINE
  5
323
330
1F
100
AcDbEntity
  8
Default
 62
     7
420
 16777215
370
     5
100
AcDbLine
 10
0.187106
 20
-1.218745
 30
0.0
 11
0.172643
 21
-1.19873
 31
0.0
  0
LINE
  5
324
330
1F
100
AcDbEntity
  8
Default
 62
     7
420
 16777215
370
     5
100
AcDbLine
 10
0.172643
 20
-1.19873
 30
0.0
 11
0.155663
 21
-1.173686
 31
0.0
  0
LINE
  5
325
330
1F
100
AcDbEntity
  8
Default
 62
     7
420
 16777215
370
     5
100
AcDbLine
 10
0.155663
 20
-1.173686
 30
0.0
 11
0.139625
 21
-1.144629
 31
0.0
  0
LINE
  5
326
330
1F
100
AcDbEntity
  8
Default
 62
     7
420
 16777215
370
     5
100
AcDbLine
 10
0.139625
 20
-1.144629
 30
0.0
 11
0.122822
 21
-1.108309
 31
0.0
  0
LINE
  5
327
330
1F
100
AcDbEntity
  8
Default
 62
     7
420
 16777215
370
     5
100
AcDbLine
 10
0.122822
 20
-1.108309
 30
0.0
 11
0.107165
 21
-1.06549
 31
0.0
  0
LINE
  5
328
330
1F
100
AcDbEntity
  8
Default
 62
     7
420
 16777215
370
     5
100
AcDbLine
 10
0.107165
 20
-1.06549
 30
0.0
 11
0.095443
 21
-1.028553
 31
0.0
  0
LINE
  5
329
330
1F
100
AcDbEntity
  8
Default
 62
     7
420
 16777215
370
     5
100
AcDbLine
 10
0.095443
 20
-1.028553
 30
0.0
 11
0.084754
 21
-0.990027
 31
0.0
  0
LINE
  5
32A
330
1F
100
AcDbEntity
  8
Default
 62
     7
420
 16777215
370
     5
100
AcDbLine
 10
0.084754
 20
-0.990027
 30
0.0
 11
0.077272
 21
-0.956854
 31
0.0
  0
LINE
  5
32B
330
1F
100
AcDbEntity
  8
Default
 62
     7
420
 16777215
370
     5
100
AcDbLine
 10
0.077272
 20
-0.956854
 30
0.0
 11
0.068721
 21
-0.916723
 31
0.0
  0
LINE
  5
32C
330
1F
100
AcDbEntity
  8
Default
 62
     7
420
 16777215
370
     5
100
AcDbLine
 10
0.068721
 20
-0.916723
 30
0.0
 11
0.06391
 21
-0.880338
 31
0.0
  0
LINE
  5
32D
330
1F
100
AcDbEntity
  8
Default
 62
     7
420
 16777215
370
     5
100
AcDbLine
 10
0.06391
 20
-0.880338
 30
0.0
 11
0.058031
 21
-0.832182
 31
0.0
  0
LINE
  5
32E
330
1F
100
AcDbEntity
  8
Default
 62
     7
420
 16777215
370
     5
100
AcDbLine
 10
0.058031
 20
-0.832182
 30
0.0
 11
0.054291
 21
-0.795796
 31
0.0
  0
LINE
  5
32F
330
1F
100
AcDbEntity
  8
Default
 62
     7
420
 16777215
370
     5
100
AcDbLine
 10
0.054291
 20
-0.795796
 30
0.0
 11
0.050535
 21
-0.752335
 31
0.0
  0
LINE
  5
330
330
1F
100
AcDbEntity
  8
Default
 62
     7
420
 16777215
370
     5
100
AcDbLine
 10
0.050535
 20
-0.752335
 30
0.0
 11
0.05
 21
-0.718624
 31
0.0
  0
LINE
  5
331
330
1F
100
AcDbEntity
  8
Default
 62
     7
420
 16777215
370
     5
100
AcDbLine
 10
0.05
 20
-0.718624
 30
0.0
 11
0.05
 21
-0.678977
 31
0.0
  0
LINE
  5
332
330
1F
100
AcDbEntity
  8
Default
 62
     7
420
 16777215
370
     5
100
AcDbLine
 10
0.05
 20
-0.678977
 30
0.0
 11
0.050535
 21
-0.645266
 31
0.0
  0
ENDSEC
  0
SECTION
  2
OBJECTS
  0
DICTIONARY
  5
C
330
0
100
AcDbDictionary
281
     1
  3
ACAD_GROUP
350
D
  3
ACAD_LAYOUT
350
1A
  3
ACAD_MLEADERSTYLE
350
334
  3
ACAD_MLINESTYLE
350
17
  3
ACAD_PLOTSETTINGS
350
19
  3
ACAD_PLOTSTYLENAME
350
E
  3
ACAD_TABLESTYLE
350
333
  3
ACAD_VISUALSTYLE
350
2A
  0
DICTIONARY
  5
D
102
{ACAD_REACTORS
330
C
102
}
330
C
100
AcDbDictionary
281
     1
  0
DICTIONARY
  5
1A
102
{ACAD_REACTORS
330
C
102
}
330
C
100
AcDbDictionary
281
     1
  3
Layout1
350
1E
  3
Layout2
350
26
  3
Model
350
22
  0
DICTIONARY
  5
334
102
{ACAD_REACTORS
330
C
102
}
330
C
100
AcDbDictionary
281
     1
  0
DICTIONARY
  5
17
102
{ACAD_REACTORS
330
C
102
}
330
C
100
AcDbDictionary
281
     1
  3
Standard
350
18
  0
DICTIONARY
  5
19
102
{ACAD_REACTORS
330
C
102
}
330
C
100
AcDbDictionary
281
     1
  0
ACDBDICTIONARYWDFLT
  5
E
102
{ACAD_REACTORS
330
C
102
}
330
C
100
AcDbDictionary
281
     1
  3
Normal
350
F
100
AcDbDictionaryWithDefault
340
F
  0
DICTIONARY
  5
333
102
{ACAD_REACTORS
330
C
102
}
330
C
100
AcDbDictionary
281
     1
  0
DICTIONARY
  5
2A
102
{ACAD_REACTORS
330
C
102
}
330
C
100
AcDbDictionary
281
     1
  3
2dWireframe
350
2F
  3
3D Hidden
350
31
  3
3dWireframe
350
30
  3
Basic
350
32
  3
Brighten
350
36
  3
ColorChange
350
3A
  3
Conceptual
350
34
  3
Dim
350
35
  3
Facepattern
350
39
  3
Flat
350
2B
  3
FlatWithEdges
350
2C
  3
Gouraud
350
2D
  3
GouraudWithEdges
350
2E
  3
Linepattern
350
38
  3
Realistic
350
33
  3
Thicken
350
37
  0
LAYOUT
  5
1E
102
{ACAD_REACTORS
330
1A
102
}
330
1A
100
AcDbPlotSettings
  1

  2
none_device
  4

  6

 40
0.0
 41
0.0
 42
0.0
 43
0.0
 44
0.0
 45
0.0
 46
0.0
 47
0.0
 48
0.0
 49
0.0
140
0.0
141
0.0
142
1.0
143
1.0
 70
   688
 72
     0
 73
     0
 74
     5
  7

 75
    16
 76
     0
 77
     2
 78
   300
147
1.0
148
0.0
149
0.0
100
AcDbLayout
  1
Layout1
 70
     1
 71
     1
 10
0.0
 20
0.0
 11
12.0
 21
9.0
 12
0.0
 22
0.0
 32
0.0
 14
1.000000000000000E+20
 24
1.000000000000000E+20
 34
1.000000000000000E+20
 15
-1.000000000000000E+20
 25
-1.000000000000000E+20
 35
-1.000000000000000E+20
146
0.0
 13
0.0
 23
0.0
 33
0.0
 16
1.0
 26
0.0
 36
0.0
 17
0.0
 27
1.0
 37
0.0
 76
     0
330
1B
  0
LAYOUT
  5
26
102
{ACAD_REACTORS
330
1A
102
}
330
1A
100
AcDbPlotSettings
  1

  2
none_device
  4

  6

 40
0.0
 41
0.0
 42
0.0
 43
0.0
 44
0.0
 45
0.0
 46
0.0
 47
0.0
 48
0.0
 49
0.0
140
0.0
141
0.0
142
1.0
143
1.0
 70
   688
 72
     0
 73
     0
 74
     5
  7

 75
    16
 76
     0
 77
     2
 78
   300
147
1.0
148
0.0
149
0.0
100
AcDbLayout
  1
Layout2
 70
     1
 71
     2
 10
0.0
 20
0.0
 11
0.0
 21
0.0
 12
0.0
 22
0.0
 32
0.0
 14
0.0
 24
0.0
 34
0.0
 15
0.0
 25
0.0
 35
0.0
146
0.0
 13
0.0
 23
0.0
 33
0.0
 16
1.0
 26
0.0
 36
0.0
 17
0.0
 27
1.0
 37
0.0
 76
     0
330
23
  0
LAYOUT
  5
22
102
{ACAD_REACTORS
330
1A
102
}
330
1A
100
AcDbPlotSettings
  1

  2
none_device
  4

  6

 40
0.0
 41
0.0
 42
0.0
 43
0.0
 44
0.0
 45
0.0
 46
0.0
 47
0.0
 48
0.0
 49
0.0
140
0.0
141
0.0
142
1.0
143
1.0
 70
  1712
 72
     0
 73
     0
 74
     0
  7

 75
     0
 76
     0
 77
     2
 78
   300
147
1.0
148
0.0
149
0.0
100
AcDbLayout
  1
Model
 70
     1
 71
     0
 10
0.0
 20
0.0
 11
12.0
 21
9.0
 12
0.0
 22
0.0
 32
0.0
 14
1.000000000000000E+20
 24
1.000000000000000E+20
 34
1.000000000000000E+20
 15
-1.000000000000000E+20
 25
-1.000000000000000E+20
 35
-1.000000000000000E+20
146
0.0
 13
0.0
 23
0.0
 33
0.0
 16
1.0
 26
0.0
 36
0.0
 17
0.0
 27
1.0
 37
0.0
 76
     0
330
1F
331
29
  0
MLINESTYLE
  5
18
102
{ACAD_REACTORS
330
17
102
}
330
17
100
AcDbMlineStyle
  2
Standard
 70
     0
  3

 62
   256
 51
90.0
 52
90.0
 71
     2
 49
0.5
 62
   256
  6
BYLAYER
 49
-0.5
 62
   256
  6
BYLAYER
  0
ACDBPLACEHOLDER
  5
F
102
{ACAD_REACTORS
330
E
102
}
330
E
  0
VISUALSTYLE
  5
2F
102
{ACAD_REACTORS
330
2A
102
}
330
2A
100
AcDbVisualStyle
  2
2dWireframe
 70
     4
 71
     0
 72
     2
 73
     0
 90
        0
 40
-0.6
 41
-30.0
 62
     5
 63
     7
421
 16777215
 74
     1
 91
        4
 64
     7
 65
   257
 75
     1
175
     1
 42
1.0
 92
        0
 66
   257
 43
1.0
 76
     1
 77
     6
 78
     2
 67
     7
 79
     5
170
     0
171
     0
290
     0
174
     0
 93
        1
 44
0.0
173
     0
291
     0
 45
0.0
  0
VISUALSTYLE
  5
31
102
{ACAD_REACTORS
330
2A
102
}
330
2A
100
AcDbVisualStyle
  2
3D Hidden
 70
     6
 71
     1
 72
     2
 73
     2
 90
        0
 40
-0.6
 41
-30.0
 62
     5
 63
     7
421
 16777215
 74
     2
 91
        2
 64
     7
 65
   257
 75
     2
175
     1
 42
40.0
 92
        0
 66
   257
 43
1.0
 76
     1
 77
     6
 78
     2
 67
     7
 79
     3
170
     0
171
     0
290
     0
174
     0
 93
        1
 44
0.0
173
     0
291
     0
 45
0.0
  0
VISUALSTYLE
  5
30
102
{ACAD_REACTORS
330
2A
102
}
330
2A
100
AcDbVisualStyle
  2
3dWireframe
 70
     5
 71
     0
 72
     2
 73
     0
 90
        0
 40
-0.6
 41
-30.0
 62
     5
 63
     7
421
 16777215
 74
     1
 91
        4
 64
     7
 65
   257
 75
     1
175
     1
 42
1.0
 92
        0
 66
   257
 43
1.0
 76
     1
 77
     6
 78
     2
 67
     7
 79
     5
170
     0
171
     0
290
     0
174
     0
 93
        1
 44
0.0
173
     0
291
     0
 45
0.0
  0
VISUALSTYLE
  5
32
102
{ACAD_REACTORS
330
2A
102
}
330
2A
100
AcDbVisualStyle
  2
Basic
 70
     7
 71
     1
 72
     0
 73
     1
 90
        0
 40
-0.6
 41
-30.0
 62
     5
 63
     7
421
 16777215
 74
     0
 91
        4
 64
     7
 65
   257
 75
     1
175
     1
 42
1.0
 92
        8
 66
     7
 43
1.0
 76
     1
 77
     6
 78
     2
 67
     7
 79
     5
170
     0
171
     0
290
     0
174
     0
 93
        1
 44
0.0
173
     0
291
     1
 45
0.0
  0
VISUALSTYLE
  5
36
102
{ACAD_REACTORS
330
2A
102
}
330
2A
100
AcDbVisualStyle
  2
Brighten
 70
    12
 71
     2
 72
     2
 73
     0
 90
        0
 40
-0.6
 41
-30.0
 62
     5
 63
     7
421
 16777215
 74
     1
 91
        4
 64
     7
 65
   257
 75
     1
175
     1
 42
1.0
 92
        8
 66
     7
 43
1.0
 76
     1
 77
     6
 78
     2
 67
     7
 79
     5
170
     0
171
     0
290
     0
174
     0
 93
        1
 44
50.0
173
     0
291
     1
 45
0.0
  0
VISUALSTYLE
  5
3A
102
{ACAD_REACTORS
330
2A
102
}
330
2A
100
AcDbVisualStyle
  2
ColorChange
 70
    16
 71
     2
 72
     2
 73
     3
 90
        0
 40
-0.6
 41
-30.0
 62
     5
 63
     8
421
  8421504
 74
     1
 91
        4
 64
     7
 65
   257
 75
     1
175
     1
 42
1.0
 92
        8
 66
     8
424
  8421504
 43
1.0
 76
     1
 77
     6
 78
     2
 67
     7
 79
     5
170
     0
171
     0
290
     0
174
     0
 93
        1
 44
0.0
173
     0
291
     1
 45
0.0
  0
VISUALSTYLE
  5
34
102
{ACAD_REACTORS
330
2A
102
}
330
2A
100
AcDbVisualStyle
  2
Conceptual
 70
     9
 71
     3
 72
     2
 73
     0
 90
        0
 40
-0.6
 41
-30.0
 62
     5
 63
     7
421
 16777215
 74
     2
 91
        2
 64
     7
 65
   257
 75
     1
175
     1
 42
40.0
 92
        8
 66
     7
 43
1.0
 76
     1
 77
     6
 78
     2
 67
     7
 79
     3
170
     0
171
     0
290
     0
174
     0
 93
        1
 44
0.0
173
     0
291
     0
 45
0.0
  0
VISUALSTYLE
  5
35
102
{ACAD_REACTORS
330
2A
102
}
330
2A
100
AcDbVisualStyle
  2
Dim
 70
    11
 71
     2
 72
     2
 73
     0
 90
        0
 40
-0.6
 41
-30.0
 62
     5
 63
     7
421
 16777215
 74
     1
 91
        4
 64
     7
 65
   257
 75
     1
175
     1
 42
1.0
 92
        8
 66
     7
 43
1.0
 76
     1
 77
     6
 78
     2
 67
     7
 79
     5
170
     0
171
     0
290
     0
174
     0
 93
        1
 44
-50.0
173
     0
291
     1
 45
0.0
  0
VISUALSTYLE
  5
39
102
{ACAD_REACTORS
330
2A
102
}
330
2A
100
AcDbVisualStyle
  2
Facepattern
 70
    15
 71
     2
 72
     2
 73
     0
 90
        0
 40
-0.6
 41
-30.0
 62
     5
 63
     7
421
 16777215
 74
     1
 91
        4
 64
     7
 65
   257
 75
     1
175
     1
 42
1.0
 92
        8
 66
     7
 43
1.0
 76
     1
 77
     6
 78
     2
 67
     7
 79
     5
170
     0
171
     0
290
     0
174
     0
 93
        1
 44
0.0
173
     0
291
     1
 45
0.0
  0
VISUALSTYLE
  5
2B
102
{ACAD_REACTORS
330
2A
102
}
330
2A
100
AcDbVisualStyle
  2
Flat
 70
     0
 71
     2
 72
     1
 73
     1
 90
        2
 40
-0.6
 41
30.0
 62
     5
 63
     7
421
 16777215
 74
     0
 91
        4
 64
     7
 65
   257
 75
     1
175
     1
 42
1.0
 92
        8
 66
     7
 43
1.0
 76
     1
 77
     6
 78
     2
 67
     7
 79
     5
170
     0
171
     0
290
     0
174
     0
 93
       13
 44
0.0
173
     0
291
     1
 45
0.0
  0
VISUALSTYLE
  5
2C
102
{ACAD_REACTORS
330
2A
102
}
330
2A
100
AcDbVisualStyle
  2
FlatWithEdges
 70
     1
 71
     2
 72
     1
 73
     1
 90
        2
 40
-0.6
 41
30.0
 62
     5
 63
     7
421
 16777215
 74
     1
 91
        4
 64
     7
 65
   257
 75
     1
175
     1
 42
1.0
 92
        0
 66
   257
 43
1.0
 76
     1
 77
     6
 78
     2
 67
     7
 79
     5
170
     0
171
     0
290
     0
174
     0
 93
       13
 44
0.0
173
     0
291
     1
 45
0.0
  0
VISUALSTYLE
  5
2D
102
{ACAD_REACTORS
330
2A
102
}
330
2A
100
AcDbVisualStyle
  2
Gouraud
 70
     2
 71
     2
 72
     2
 73
     1
 90
        2
 40
-0.6
 41
30.0
 62
     5
 63
     7
421
 16777215
 74
     0
 91
        4
 64
     7
 65
   257
 75
     1
175
     1
 42
1.0
 92
        0
 66
     7
 43
1.0
 76
     1
 77
     6
 78
     2
 67
     7
 79
     5
170
     0
171
     0
290
     0
174
     0
 93
       13
 44
0.0
173
     0
291
     1
 45
0.0
  0
VISUALSTYLE
  5
2E
102
{ACAD_REACTORS
330
2A
102
}
330
2A
100
AcDbVisualStyle
  2
GouraudWithEdges
 70
     3
 71
     2
 72
     2
 73
     1
 90
        2
 40
-0.6
 41
30.0
 62
     5
 63
     7
421
 16777215
 74
     1
 91
        4
 64
     7
 65
   257
 75
     1
175
     1
 42
1.0
 92
        0
 66
   257
 43
1.0
 76
     1
 77
     6
 78
     2
 67
     7
 79
     5
170
     0
171
     0
290
     0
174
     0
 93
       13
 44
0.0
173
     0
291
     1
 45
0.0
  0
VISUALSTYLE
  5
38
102
{ACAD_REACTORS
330
2A
102
}
330
2A
100
AcDbVisualStyle
  2
Linepattern
 70
    14
 71
     2
 72
     2
 73
     0
 90
        0
 40
-0.6
 41
-30.0
 62
     5
 63
     7
421
 16777215
 74
     1
 91
        4
 64
     7
 65
   257
 75
     7
175
     7
 42
1.0
 92
        8
 66
     7
 43
1.0
 76
     1
 77
     6
 78
     2
 67
     7
 79
     5
170
     0
171
     0
290
     0
174
     0
 93
        1
 44
0.0
173
     0
291
     1
 45
0.0
  0
VISUALSTYLE
  5
33
102
{ACAD_REACTORS
330
2A
102
}
330
2A
100
AcDbVisualStyle
  2
Realistic
 70
     8
 71
     2
 72
     2
 73
     0
 90
        0
 40
-0.6
 41
-30.0
 62
     5
 63
     7
421
 16777215
 74
     1
 91
        0
 64
     7
 65
   257
 75
     1
175
     1
 42
1.0
 92
        8
 66
     8
424
  7895160
 43
1.0
 76
     1
 77
     6
 78
     2
 67
     7
 79
     5
170
     0
171
     0
290
     0
174
     0
 93
       13
 44
0.0
173
     0
291
     0
 45
0.0
  0
VISUALSTYLE
  5
37
102
{ACAD_REACTORS
330
2A
102
}
330
2A
100
AcDbVisualStyle
  2
Thicken
 70
    13
 71
     2
 72
     2
 73
     0
 90
        0
 40
-0.6
 41
-30.0
 62
     5
 63
     7
421
 16777215
 74
     1
 91
        4
 64
     7
 65
   257
 75
     1
175
     1
 42
1.0
 92
       12
 66
     7
 43
1.0
 76
     1
 77
     6
 78
     2
 67
     7
 79
     5
170
     0
171
     0
290
     0
174
     0
 93
        1
 44
0.0
173
     0
291
     1
 45
0.0
  0
ENDSEC
  0
EOF
