  0
SECTION
  2
HEADER
  9
$ACADVER
  1
AC1018
  9
$ACADMAINTVER
 70
    76
  9
$DWGCODEPAGE
  3
ANSI_1252
  9
$INSBASE
 10
0.0
 20
0.0
 30
0.0
  9
$EXTMIN
 10
359.1367056345762
 20
134.211885493961
 30
-0.0000000349181948
  9
$EXTMAX
 10
389.8910993389914
 20
155.9480296423987
 30
0.0000000814935746
  9
$LIMMIN
 10
0.0
 20
0.0
  9
$LIMMAX
 10
741.0
 20
770.0
  9
$ORTHOMODE
 70
     0
  9
$REGENMODE
 70
     1
  9
$FILLMODE
 70
     1
  9
$QTEXTMODE
 70
     0
  9
$MIRRTEXT
 70
     0
  9
$LTSCALE
 40
1.0
  9
$ATTMODE
 70
     1
  9
$TEXTSIZE
 40
0.2
  9
$TRACEWID
 40
0.05
  9
$TEXTSTYLE
  7
Standard
  9
$CLAYER
  8
POW
  9
$CELTYPE
  6
CONTINUOUS
  9
$CECOLOR
 62
   256
  9
$CELTSCALE
 40
1.0
  9
$DISPSILH
 70
     0
  9
$DIMSCALE
 40
1.0
  9
$DIMASZ
 40
0.18
  9
$DIMEXO
 40
0.0625
  9
$DIMDLI
 40
0.38
  9
$DIMRND
 40
0.0
  9
$DIMDLE
 40
0.0
  9
$DIMEXE
 40
0.18
  9
$DIMTP
 40
0.0
  9
$DIMTM
 40
0.0
  9
$DIMTXT
 40
1.0
  9
$DIMCEN
 40
0.09
  9
$DIMTSZ
 40
0.0
  9
$DIMTOL
 70
     0
  9
$DIMLIM
 70
     0
  9
$DIMTIH
 70
     1
  9
$DIMTOH
 70
     1
  9
$DIMSE1
 70
     0
  9
$DIMSE2
 70
     0
  9
$DIMTAD
 70
     0
  9
$DIMZIN
 70
     0
  9
$DIMBLK
  1

  9
$DIMASO
 70
     1
  9
$DIMSHO
 70
     1
  9
$DIMPOST
  1

  9
$DIMAPOST
  1

  9
$DIMALT
 70
     0
  9
$DIMALTD
 70
     2
  9
$DIMALTF
 40
25.4
  9
$DIMLFAC
 40
1.0
  9
$DIMTOFL
 70
     0
  9
$DIMTVP
 40
0.0
  9
$DIMTIX
 70
     0
  9
$DIMSOXD
 70
     0
  9
$DIMSAH
 70
     0
  9
$DIMBLK1
  1

  9
$DIMBLK2
  1

  9
$DIMSTYLE
  2
Standard
  9
$DIMCLRD
 70
     0
  9
$DIMCLRE
 70
     0
  9
$DIMCLRT
 70
     0
  9
$DIMTFAC
 40
1.0
  9
$DIMGAP
 40
0.09
  9
$DIMJUST
 70
     0
  9
$DIMSD1
 70
     0
  9
$DIMSD2
 70
     0
  9
$DIMTOLJ
 70
     1
  9
$DIMTZIN
 70
     0
  9
$DIMALTZ
 70
     0
  9
$DIMALTTZ
 70
     0
  9
$DIMUPT
 70
     0
  9
$DIMDEC
 70
     4
  9
$DIMTDEC
 70
     4
  9
$DIMALTU
 70
     2
  9
$DIMALTTD
 70
     2
  9
$DIMTXSTY
  7
Standard
  9
$DIMAUNIT
 70
     0
  9
$DIMADEC
 70
     0
  9
$DIMALTRND
 40
0.0
  9
$DIMAZIN
 70
     0
  9
$DIMDSEP
 70
    46
  9
$DIMATFIT
 70
     3
  9
$DIMFRAC
 70
     0
  9
$DIMLDRBLK
  1

  9
$DIMLUNIT
 70
     2
  9
$DIMLWD
 70
    -2
  9
$DIMLWE
 70
    -2
  9
$DIMTMOVE
 70
     0
  9
$LUNITS
 70
     2
  9
$LUPREC
 70
     3
  9
$SKETCHINC
 40
0.1
  9
$FILLETRAD
 40
0.0
  9
$AUNITS
 70
     0
  9
$AUPREC
 70
     0
  9
$MENU
  1
.
  9
$ELEVATION
 40
0.0
  9
$PELEVATION
 40
0.0
  9
$THICKNESS
 40
0.0
  9
$LIMCHECK
 70
     0
  9
$CHAMFERA
 40
0.0
  9
$CHAMFERB
 40
0.0
  9
$CHAMFERC
 40
0.0
  9
$CHAMFERD
 40
0.0
  9
$SKPOLY
 70
     0
  9
$TDCREATE
 40
2454691.492430544
  9
$TDUCREATE
 40
2454691.659097210
  9
$TDUPDATE
 40
2454691.632615544
  9
$TDUUPDATE
 40
2454691.799282211
  9
$TDINDWG
 40
0.1133655208
  9
$TDUSRTIMER
 40
0.1133655208
  9
$USRTIMER
 70
     1
  9
$ANGBASE
 50
0.0
  9
$ANGDIR
 70
     0
  9
$PDMODE
 70
     0
  9
$PDSIZE
 40
0.0
  9
$PLINEWID
 40
0.0
  9
$SPLFRAME
 70
     0
  9
$SPLINETYPE
 70
     6
  9
$SPLINESEGS
 70
     8
  9
$HANDSEED
  5
1C30
  9
$SURFTAB1
 70
     6
  9
$SURFTAB2
 70
     6
  9
$SURFTYPE
 70
     6
  9
$SURFU
 70
     6
  9
$SURFV
 70
     6
  9
$UCSBASE
  2

  9
$UCSNAME
  2

  9
$UCSORG
 10
0.0
 20
0.0
 30
0.0
  9
$UCSXDIR
 10
1.0
 20
0.0
 30
0.0
  9
$UCSYDIR
 10
0.0
 20
1.0
 30
0.0
  9
$UCSORTHOREF
  2

  9
$UCSORTHOVIEW
 70
     0
  9
$UCSORGTOP
 10
0.0
 20
0.0
 30
0.0
  9
$UCSORGBOTTOM
 10
0.0
 20
0.0
 30
0.0
  9
$UCSORGLEFT
 10
0.0
 20
0.0
 30
0.0
  9
$UCSORGRIGHT
 10
0.0
 20
0.0
 30
0.0
  9
$UCSORGFRONT
 10
0.0
 20
0.0
 30
0.0
  9
$UCSORGBACK
 10
0.0
 20
0.0
 30
0.0
  9
$PUCSBASE
  2

  9
$PUCSNAME
  2

  9
$PUCSORG
 10
0.0
 20
0.0
 30
0.0
  9
$PUCSXDIR
 10
1.0
 20
0.0
 30
0.0
  9
$PUCSYDIR
 10
0.0
 20
1.0
 30
0.0
  9
$PUCSORTHOREF
  2

  9
$PUCSORTHOVIEW
 70
     0
  9
$PUCSORGTOP
 10
0.0
 20
0.0
 30
0.0
  9
$PUCSORGBOTTOM
 10
0.0
 20
0.0
 30
0.0
  9
$PUCSORGLEFT
 10
0.0
 20
0.0
 30
0.0
  9
$PUCSORGRIGHT
 10
0.0
 20
0.0
 30
0.0
  9
$PUCSORGFRONT
 10
0.0
 20
0.0
 30
0.0
  9
$PUCSORGBACK
 10
0.0
 20
0.0
 30
0.0
  9
$USERI1
 70
     0
  9
$USERI2
 70
     0
  9
$USERI3
 70
     0
  9
$USERI4
 70
     0
  9
$USERI5
 70
     0
  9
$USERR1
 40
0.0
  9
$USERR2
 40
0.0
  9
$USERR3
 40
0.0
  9
$USERR4
 40
0.0
  9
$USERR5
 40
0.0
  9
$WORLDVIEW
 70
     1
  9
$SHADEDGE
 70
     3
  9
$SHADEDIF
 70
    70
  9
$TILEMODE
 70
     1
  9
$MAXACTVP
 70
    64
  9
$PINSBASE
 10
0.0
 20
0.0
 30
0.0
  9
$PLIMCHECK
 70
     0
  9
$PEXTMIN
 10
1.000000000000000E+20
 20
1.000000000000000E+20
 30
1.000000000000000E+20
  9
$PEXTMAX
 10
-1.000000000000000E+20
 20
-1.000000000000000E+20
 30
-1.000000000000000E+20
  9
$PLIMMIN
 10
0.0
 20
0.0
  9
$PLIMMAX
 10
12.0
 20
9.0
  9
$UNITMODE
 70
     0
  9
$VISRETAIN
 70
     1
  9
$PLINEGEN
 70
     0
  9
$PSLTSCALE
 70
     1
  9
$TREEDEPTH
 70
  3020
  9
$CMLSTYLE
  2
Standard
  9
$CMLJUST
 70
     0
  9
$CMLSCALE
 40
1.0
  9
$PROXYGRAPHICS
 70
     1
  9
$MEASUREMENT
 70
     0
  9
$CELWEIGHT
370
    -1
  9
$ENDCAPS
280
     0
  9
$JOINSTYLE
280
     0
  9
$LWDISPLAY
290
     0
  9
$INSUNITS
 70
     0
  9
$HYPERLINKBASE
  1

  9
$STYLESHEET
  1

  9
$XEDIT
290
     1
  9
$CEPSNTYPE
380
     0
  9
$PSTYLEMODE
290
     1
  9
$FINGERPRINTGUID
  2
{CF0EFA13-E900-4AD8-8018-EC93D64534CB}
  9
$VERSIONGUID
  2
{77A4C965-B429-41EF-AE20-C08D1769033C}
  9
$EXTNAMES
290
     1
  9
$PSVPSCALE
 40
0.0
  9
$OLESTARTUP
290
     0
  9
$SORTENTS
280
   127
  9
$INDEXCTL
280
     0
  9
$HIDETEXT
280
     0
  9
$XCLIPFRAME
290
     0
  9
$HALOGAP
280
     0
  9
$OBSCOLOR
 70
   257
  9
$OBSLTYPE
280
     0
  9
$INTERSECTIONDISPLAY
280
     0
  9
$INTERSECTIONCOLOR
 70
   257
  9
$DIMASSOC
280
     1
  9
$PROJECTNAME
  1

  0
ENDSEC
  0
SECTION
  2
CLASSES
  0
CLASS
  1
ACDBDICTIONARYWDFLT
  2
AcDbDictionaryWithDefault
  3
ObjectDBX Classes
 90
        0
 91
        1
280
     0
281
     0
  0
CLASS
  1
TABLESTYLE
  2
AcDbTableStyle
  3
ObjectDBX Classes
 90
     2047
 91
        1
280
     0
281
     0
  0
CLASS
  1
DICTIONARYVAR
  2
AcDbDictionaryVar
  3
ObjectDBX Classes
 90
        0
 91
        1
280
     0
281
     0
  0
CLASS
  1
SORTENTSTABLE
  2
AcDbSortentsTable
  3
ObjectDBX Classes
 90
        0
 91
        1
280
     0
281
     0
  0
ENDSEC
  0
SECTION
  2
TABLES
  0
TABLE
  2
VPORT
  5
8
330
0
100
AcDbSymbolTable
 70
     4
  0
VPORT
  5
1C2F
330
8
100
AcDbSymbolTableRecord
100
AcDbViewportTableRecord
  2
*Active
 70
     0
 10
0.0
 20
0.0
 11
1.0
 21
1.0
 12
374.5139024867838
 22
145.0799575681799
 13
0.0
 23
0.0
 14
1.0
 24
1.0
 15
0.0
 25
0.0
 16
0.0
 26
0.0
 36
1.0
 17
0.0
 27
0.0
 37
0.0
 40
23.62962257025251
 41
2.101040118870728
 42
50.0
 43
0.0
 44
0.0
 50
0.0
 51
0.0
 71
     0
 72
   100
 73
     1
 74
     1
 75
     0
 76
     0
 77
     0
 78
     0
281
     0
 65
     0
110
0.0
120
0.0
130
0.0
111
1.0
121
0.0
131
0.0
112
0.0
122
1.0
132
0.0
 79
     0
146
0.0
  0
ENDTAB
  0
TABLE
  2
LTYPE
  5
5
330
0
100
AcDbSymbolTable
 70
     1
  0
LTYPE
  5
13
330
5
100
AcDbSymbolTableRecord
100
AcDbLinetypeTableRecord
  2
ByBlock
 70
     0
  3

 72
    65
 73
     0
 40
0.0
  0
LTYPE
  5
14
330
5
100
AcDbSymbolTableRecord
100
AcDbLinetypeTableRecord
  2
ByLayer
 70
     0
  3

 72
    65
 73
     0
 40
0.0
  0
LTYPE
  5
15
330
5
100
AcDbSymbolTableRecord
100
AcDbLinetypeTableRecord
  2
CONTINUOUS
 70
     0
  3
Solid line
 72
    65
 73
     0
 40
0.0
  0
ENDTAB
  0
TABLE
  2
LAYER
  5
2
102
{ACAD_XDICTIONARY
360
1420
102
}
330
0
100
AcDbSymbolTable
 70
     5
  0
LAYER
  5
10
330
2
100
AcDbSymbolTableRecord
100
AcDbLayerTableRecord
  2
0
 70
     0
 62
     7
  6
CONTINUOUS
370
    -3
390
F
  0
LAYER
  5
398
330
2
100
AcDbSymbolTableRecord
100
AcDbLayerTableRecord
  2
Defpoints
 70
     0
 62
     7
  6
CONTINUOUS
290
     0
370
    -3
390
F
  0
LAYER
  5
141E
330
2
100
AcDbSymbolTableRecord
100
AcDbLayerTableRecord
  2
SHIELD
 70
     0
 62
     2
  6
CONTINUOUS
370
    -3
390
F
1001
AcAecLayerStandard
1000

1000

  0
LAYER
  5
1424
330
2
100
AcDbSymbolTableRecord
100
AcDbLayerTableRecord
  2
Default
 70
     0
 62
     7
  6
CONTINUOUS
370
    -3
390
F
  0
LAYER
  5
1C28
330
2
100
AcDbSymbolTableRecord
100
AcDbLayerTableRecord
  2
POW
 70
     0
 62
     4
  6
CONTINUOUS
370
    -3
390
F
1001
AcAecLayerStandard
1000

1000

  0
ENDTAB
  0
TABLE
  2
STYLE
  5
3
330
0
100
AcDbSymbolTable
 70
     1
  0
STYLE
  5
11
330
3
100
AcDbSymbolTableRecord
100
AcDbTextStyleTableRecord
  2
Standard
 70
     0
 40
0.0
 41
1.0
 50
0.0
 71
     0
 42
0.2
  3
txt
  4

  0
ENDTAB
  0
TABLE
  2
VIEW
  5
6
330
0
100
AcDbSymbolTable
 70
     0
  0
ENDTAB
  0
TABLE
  2
UCS
  5
7
330
0
100
AcDbSymbolTable
 70
     0
  0
ENDTAB
  0
TABLE
  2
APPID
  5
9
330
0
100
AcDbSymbolTable
 70
    10
  0
APPID
  5
12
330
9
100
AcDbSymbolTableRecord
100
AcDbRegAppTableRecord
  2
ACAD
 70
     0
  0
APPID
  5
1272
330
9
100
AcDbSymbolTableRecord
100
AcDbRegAppTableRecord
  2
ACAD_DSTYLE_DIMTEXT_FILL
 70
     0
  0
APPID
  5
1273
330
9
100
AcDbSymbolTableRecord
100
AcDbRegAppTableRecord
  2
ACAD_DSTYLE_DIMEXT_LENGTH
 70
     0
  0
APPID
  5
1274
330
9
100
AcDbSymbolTableRecord
100
AcDbRegAppTableRecord
  2
ACAD_DSTYLE_DIMEXT_ENABLED
 70
     0
  0
APPID
  5
1275
330
9
100
AcDbSymbolTableRecord
100
AcDbRegAppTableRecord
  2
ACAD_DSTYLE_DIM_LINETYPE
 70
     0
  0
APPID
  5
1276
330
9
100
AcDbSymbolTableRecord
100
AcDbRegAppTableRecord
  2
ACAD_DSTYLE_DIM_EXT1_LINETYPE
 70
     0
  0
APPID
  5
1277
330
9
100
AcDbSymbolTableRecord
100
AcDbRegAppTableRecord
  2
ACAD_DSTYLE_DIM_EXT2_LINETYPE
 70
     0
  0
APPID
  5
1333
330
9
100
AcDbSymbolTableRecord
100
AcDbRegAppTableRecord
  2
ACAD_DSTYLE_DIMJOGGED_JOGANGLE_SYMBOL
 70
     0
  0
APPID
  5
1397
330
9
100
AcDbSymbolTableRecord
100
AcDbRegAppTableRecord
  2
ACAD_DSTYLE_DIMARC_LENGTH_SYMBOL
 70
     0
  0
APPID
  5
141F
330
9
100
AcDbSymbolTableRecord
100
AcDbRegAppTableRecord
  2
AcAecLayerStandard
 70
     0
  0
ENDTAB
  0
TABLE
  2
DIMSTYLE
  5
A
330
0
100
AcDbSymbolTable
 70
     1
100
AcDbDimStyleTable
 71
     1
340
395
  0
DIMSTYLE
105
395
330
A
100
AcDbSymbolTableRecord
100
AcDbDimStyleTableRecord
  2
Standard
 70
     0
140
1.0
340
11
1001
ACAD_DSTYLE_DIMEXT_LENGTH
1070
   378
1040
0.18
1001
ACAD_DSTYLE_DIMEXT_ENABLED
1070
   383
1070
     0
1001
ACAD_DSTYLE_DIMARC_LENGTH_SYMBOL
1070
   379
1070
     0
1001
ACAD_DSTYLE_DIMJOGGED_JOGANGLE_SYMBOL
1070
   384
1040
0.7853981633974483
  0
ENDTAB
  0
TABLE
  2
BLOCK_RECORD
  5
1
330
0
100
AcDbSymbolTable
 70
     4
  0
BLOCK_RECORD
  5
22
102
{ACAD_XDICTIONARY
360
4CB
102
}
330
1
100
AcDbSymbolTableRecord
100
AcDbBlockTableRecord
  2
*Model_Space
340
25
  0
BLOCK_RECORD
  5
1E
330
1
100
AcDbSymbolTableRecord
100
AcDbBlockTableRecord
  2
*Paper_Space
340
21
  0
BLOCK_RECORD
  5
1265
330
1
100
AcDbSymbolTableRecord
100
AcDbBlockTableRecord
  2
*D2
340
0
  0
ENDTAB
  0
ENDSEC
  0
SECTION
  2
BLOCKS
  0
BLOCK
  5
23
330
22
100
AcDbEntity
  8
0
100
AcDbBlockBegin
  2
*Model_Space
 70
     0
 10
0.0
 20
0.0
 30
0.0
  3
*Model_Space
  1

  0
ENDBLK
  5
24
330
22
100
AcDbEntity
  8
0
100
AcDbBlockEnd
  0
BLOCK
  5
1F
330
1E
100
AcDbEntity
 67
     1
  8
0
100
AcDbBlockBegin
  2
*Paper_Space
 70
     0
 10
0.0
 20
0.0
 30
0.0
  3
*Paper_Space
  1

  0
ENDBLK
  5
20
330
1E
100
AcDbEntity
 67
     1
  8
0
100
AcDbBlockEnd
  0
BLOCK
  5
1270
330
1265
100
AcDbEntity
  8
0
100
AcDbBlockBegin
  2
*D2
 70
     1
 10
0.0
 20
0.0
 30
0.0
  3
*D2
  1

  0
LINE
  5
139C
330
1265
100
AcDbEntity
  8
0
  6
Continuous
 62
     0
370
    -2
100
AcDbLine
 10
287.0625
 20
725.0
 30
0.0
 11
901.7897745022199
 21
724.9999999999999
 31
0.0
  0
LINE
  5
139D
330
1265
100
AcDbEntity
  8
0
  6
Continuous
 62
     0
370
    -2
100
AcDbLine
 10
236.1625
 20
36.7
 30
0.0
 11
901.7897745022198
 21
36.69999999999981
 31
0.0
  0
LINE
  5
139E
330
1265
100
AcDbEntity
  8
0
  6
Continuous
 62
     0
370
    -2
100
AcDbLine
 10
901.6097745022198
 20
724.8199999999999
 30
0.0
 11
901.6097745022198
 21
381.4399999999998
 31
0.0
  0
LINE
  5
139F
330
1265
100
AcDbEntity
  8
0
  6
Continuous
 62
     0
370
    -2
100
AcDbLine
 10
901.6097745022198
 20
36.87999999999981
 30
0.0
 11
901.6097745022198
 21
380.2599999999999
 31
0.0
  0
SOLID
  5
13A0
330
1265
100
AcDbEntity
  8
0
  6
Continuous
 62
     0
100
AcDbTrace
 10
901.5797745022199
 20
724.8199999999999
 30
0.0
 11
901.6397745022199
 21
724.8199999999999
 31
0.0
 12
901.6097745022198
 22
724.9999999999999
 32
0.0
 13
901.6097745022198
 23
724.9999999999999
 33
0.0
  0
SOLID
  5
13A1
330
1265
100
AcDbEntity
  8
0
  6
Continuous
 62
     0
100
AcDbTrace
 10
901.5797745022197
 20
36.87999999999981
 30
0.0
 11
901.6397745022198
 21
36.87999999999981
 31
0.0
 12
901.6097745022198
 22
36.69999999999981
 32
0.0
 13
901.6097745022198
 23
36.69999999999981
 33
0.0
  0
MTEXT
  5
13A2
330
1265
100
AcDbEntity
  8
0
  6
Continuous
 62
     0
100
AcDbMText
 10
901.6097745022198
 20
380.85
 30
0.0
 40
1.0
 41
0.0
 71
     5
 72
     1
  1
\A1;688.3000
 73
     1
 44
1.0
  0
POINT
  5
13A3
330
1265
100
AcDbEntity
  8
Defpoints
  6
Continuous
 62
     0
100
AcDbPoint
 10
287.0
 20
725.0
 30
0.0
  0
POINT
  5
13A4
330
1265
100
AcDbEntity
  8
Defpoints
  6
Continuous
 62
     0
100
AcDbPoint
 10
236.1
 20
36.7
 30
0.0
  0
POINT
  5
13A5
330
1265
100
AcDbEntity
  8
Defpoints
  6
Continuous
 62
     0
100
AcDbPoint
 10
901.6097745022198
 20
36.69999999999981
 30
0.0
  0
ENDBLK
  5
1271
330
1265
100
AcDbEntity
  8
0
100
AcDbBlockEnd
  0
ENDSEC
  0
SECTION
  2
ENTITIES
  0
LINE
  5
3A9
330
22
100
AcDbEntity
  8
0
  6
Continuous
 62
     7
100
AcDbLine
 10
373.440625
 20
134.56875
 30
0.0
 11
373.471875
 21
134.6
 31
0.0
  0
LINE
  5
3AA
330
22
100
AcDbEntity
  8
0
  6
Continuous
 62
     7
100
AcDbLine
 10
373.471875
 20
134.6
 30
0.0
 11
372.79375
 21
136.665625
 31
0.0
  0
LINE
  5
3AB
330
22
100
AcDbEntity
  8
0
  6
Continuous
 62
     7
100
AcDbLine
 10
372.79375
 20
136.665625
 30
0.0
 11
372.409375
 21
137.85
 31
0.0
  0
LINE
  5
3AC
330
22
100
AcDbEntity
  8
0
  6
Continuous
 62
     7
100
AcDbLine
 10
372.409375
 20
137.85
 30
0.0
 11
372.471875
 21
137.88125
 31
0.0
  0
LINE
  5
3AD
330
22
100
AcDbEntity
  8
0
  6
Continuous
 62
     7
100
AcDbLine
 10
372.471875
 20
137.88125
 30
0.0
 11
372.9358173125
 21
137.62403846875
 31
0.0
  0
LINE
  5
3AE
330
22
100
AcDbEntity
  8
0
  6
Continuous
 62
     7
100
AcDbLine
 10
372.9358173125
 20
137.62403846875
 30
0.0
 11
373.0295673125
 21
137.56153846875
 31
0.0
  0
LINE
  5
3AF
330
22
100
AcDbEntity
  8
0
  6
Continuous
 62
     7
100
AcDbLine
 10
373.0295673125
 20
137.56153846875
 30
0.0
 11
373.475
 21
137.328125
 31
0.0
  0
LINE
  5
3B0
330
22
100
AcDbEntity
  8
0
  6
Continuous
 62
     7
100
AcDbLine
 10
373.475
 20
137.328125
 30
0.0
 11
373.71875
 21
137.246875
 31
0.0
  0
LINE
  5
3B1
330
22
100
AcDbEntity
  8
0
  6
Continuous
 62
     7
100
AcDbLine
 10
373.71875
 20
137.246875
 30
0.0
 11
373.909375
 21
137.1625
 31
0.0
  0
LINE
  5
3B2
330
22
100
AcDbEntity
  8
0
  6
Continuous
 62
     7
100
AcDbLine
 10
373.909375
 20
137.1625
 30
0.0
 11
374.065625
 21
137.1625
 31
0.0
  0
LINE
  5
3B3
330
22
100
AcDbEntity
  8
0
  6
Continuous
 62
     7
100
AcDbLine
 10
374.065625
 20
137.1625
 30
0.0
 11
374.096875
 21
137.19375
 31
0.0
  0
LINE
  5
3B4
330
22
100
AcDbEntity
  8
0
  6
Continuous
 62
     7
100
AcDbLine
 10
374.096875
 20
137.19375
 30
0.0
 11
374.07829390625
 21
137.3521114999999
 31
0.0
  0
LINE
  5
3B5
330
22
100
AcDbEntity
  8
0
  6
Continuous
 62
     7
100
AcDbLine
 10
374.07829390625
 20
137.3521114999999
 30
0.0
 11
374.0463942187501
 21
137.53990384375
 31
0.0
  0
LINE
  5
3B6
330
22
100
AcDbEntity
  8
0
  6
Continuous
 62
     7
100
AcDbLine
 10
374.0463942187501
 20
137.53990384375
 30
0.0
 11
373.83584559375
 21
138.50349265625
 31
0.0
  0
LINE
  5
3B7
330
22
100
AcDbEntity
  8
0
  6
Continuous
 62
     7
100
AcDbLine
 10
373.83584559375
 20
138.50349265625
 30
0.0
 11
373.815625
 21
138.5375
 31
0.0
  0
LINE
  5
3B8
330
22
100
AcDbEntity
  8
0
  6
Continuous
 62
     7
100
AcDbLine
 10
373.815625
 20
138.5375
 30
0.0
 11
373.846875
 21
138.6
 31
0.0
  0
LINE
  5
3B9
330
22
100
AcDbEntity
  8
0
  6
Continuous
 62
     7
100
AcDbLine
 10
373.846875
 20
138.6
 30
0.0
 11
374.22463234375
 21
138.42352940625
 31
0.0
  0
LINE
  5
3BA
330
22
100
AcDbEntity
  8
0
  6
Continuous
 62
     7
100
AcDbLine
 10
374.22463234375
 20
138.42352940625
 30
0.0
 11
374.40625
 21
138.371875
 31
0.0
  0
LINE
  5
3BB
330
22
100
AcDbEntity
  8
0
  6
Continuous
 62
     7
100
AcDbLine
 10
374.40625
 20
138.371875
 30
0.0
 11
375.315625
 21
138.13125
 31
0.0
  0
LINE
  5
3BC
330
22
100
AcDbEntity
  8
0
  6
Continuous
 62
     7
100
AcDbLine
 10
375.315625
 20
138.13125
 30
0.0
 11
375.534375
 21
138.13125
 31
0.0
  0
LINE
  5
3BD
330
22
100
AcDbEntity
  8
0
  6
Continuous
 62
     7
100
AcDbLine
 10
375.534375
 20
138.13125
 30
0.0
 11
375.565625
 21
138.1625
 31
0.0
  0
LINE
  5
3BE
330
22
100
AcDbEntity
  8
0
  6
Continuous
 62
     7
100
AcDbLine
 10
375.565625
 20
138.1625
 30
0.0
 11
375.565625
 21
138.31875
 31
0.0
  0
LINE
  5
3BF
330
22
100
AcDbEntity
  8
0
  6
Continuous
 62
     7
100
AcDbLine
 10
375.565625
 20
138.31875
 30
0.0
 11
375.371875
 21
138.753125
 31
0.0
  0
LINE
  5
3C0
330
22
100
AcDbEntity
  8
0
  6
Continuous
 62
     7
100
AcDbLine
 10
375.371875
 20
138.753125
 30
0.0
 11
375.325
 21
138.8531249999999
 31
0.0
  0
LINE
  5
3C1
330
22
100
AcDbEntity
  8
0
  6
Continuous
 62
     7
100
AcDbLine
 10
375.325
 20
138.8531249999999
 30
0.0
 11
375.096875
 21
139.4125
 31
0.0
  0
LINE
  5
3C2
330
22
100
AcDbEntity
  8
0
  6
Continuous
 62
     7
100
AcDbLine
 10
375.096875
 20
139.4125
 30
0.0
 11
375.1046875
 21
139.4359375
 31
0.0
  0
LINE
  5
3C3
330
22
100
AcDbEntity
  8
0
  6
Continuous
 62
     7
100
AcDbLine
 10
375.1046875
 20
139.4359375
 30
0.0
 11
375.21911765625
 21
139.43272059375
 31
0.0
  0
LINE
  5
3C4
330
22
100
AcDbEntity
  8
0
  6
Continuous
 62
     7
100
AcDbLine
 10
375.21911765625
 20
139.43272059375
 30
0.0
 11
376.721875
 21
139.225
 31
0.0
  0
LINE
  5
3C5
330
22
100
AcDbEntity
  8
0
  6
Continuous
 62
     7
100
AcDbLine
 10
376.721875
 20
139.225
 30
0.0
 11
377.034375
 21
139.225
 31
0.0
  0
LINE
  5
3C6
330
22
100
AcDbEntity
  8
0
  6
Continuous
 62
     7
100
AcDbLine
 10
377.034375
 20
139.225
 30
0.0
 11
377.065625
 21
139.25625
 31
0.0
  0
LINE
  5
3C7
330
22
100
AcDbEntity
  8
0
  6
Continuous
 62
     7
100
AcDbLine
 10
377.065625
 20
139.25625
 30
0.0
 11
377.0406250000001
 21
139.290625
 31
0.0
  0
LINE
  5
3C8
330
22
100
AcDbEntity
  8
0
  6
Continuous
 62
     7
100
AcDbLine
 10
377.0406250000001
 20
139.290625
 30
0.0
 11
376.839375
 21
139.656875
 31
0.0
  0
LINE
  5
3C9
330
22
100
AcDbEntity
  8
0
  6
Continuous
 62
     7
100
AcDbLine
 10
376.839375
 20
139.656875
 30
0.0
 11
376.5892530625
 21
140.0001524375
 31
0.0
  0
LINE
  5
3CA
330
22
100
AcDbEntity
  8
0
  6
Continuous
 62
     7
100
AcDbLine
 10
376.5892530625
 20
140.0001524375
 30
0.0
 11
376.034375
 21
140.6625
 31
0.0
  0
LINE
  5
3CB
330
22
100
AcDbEntity
  8
0
  6
Continuous
 62
     7
100
AcDbLine
 10
376.034375
 20
140.6625
 30
0.0
 11
376.065625
 21
140.69375
 31
0.0
  0
LINE
  5
3CC
330
22
100
AcDbEntity
  8
0
  6
Continuous
 62
     7
100
AcDbLine
 10
376.065625
 20
140.69375
 30
0.0
 11
377.09875
 21
140.774375
 31
0.0
  0
LINE
  5
3CD
330
22
100
AcDbEntity
  8
0
  6
Continuous
 62
     7
100
AcDbLine
 10
377.09875
 20
140.774375
 30
0.0
 11
378.253125
 21
140.975
 31
0.0
  0
LINE
  5
3CE
330
22
100
AcDbEntity
  8
0
  6
Continuous
 62
     7
100
AcDbLine
 10
378.253125
 20
140.975
 30
0.0
 11
378.315625
 21
141.0375
 31
0.0
  0
LINE
  5
3CF
330
22
100
AcDbEntity
  8
0
  6
Continuous
 62
     7
100
AcDbLine
 10
378.315625
 20
141.0375
 30
0.0
 11
378.284375
 21
141.1
 31
0.0
  0
LINE
  5
3D0
330
22
100
AcDbEntity
  8
0
  6
Continuous
 62
     7
100
AcDbLine
 10
378.284375
 20
141.1
 30
0.0
 11
378.159375
 21
141.225
 31
0.0
  0
LINE
  5
3D1
330
22
100
AcDbEntity
  8
0
  6
Continuous
 62
     7
100
AcDbLine
 10
378.159375
 20
141.225
 30
0.0
 11
377.3733173125001
 21
141.74903846875
 31
0.0
  0
LINE
  5
3D2
330
22
100
AcDbEntity
  8
0
  6
Continuous
 62
     7
100
AcDbLine
 10
377.3733173125001
 20
141.74903846875
 30
0.0
 11
377.2891826875
 21
141.79471153125
 31
0.0
  0
LINE
  5
3D3
330
22
100
AcDbEntity
  8
0
  6
Continuous
 62
     7
100
AcDbLine
 10
377.2891826875
 20
141.79471153125
 30
0.0
 11
376.971875
 21
142.00625
 31
0.0
  0
LINE
  5
3D4
330
22
100
AcDbEntity
  8
0
  6
Continuous
 62
     7
100
AcDbLine
 10
376.971875
 20
142.00625
 30
0.0
 11
377.13125
 21
142.09375
 31
0.0
  0
LINE
  5
3D5
330
22
100
AcDbEntity
  8
0
  6
Continuous
 62
     7
100
AcDbLine
 10
377.13125
 20
142.09375
 30
0.0
 11
377.6954326875
 21
142.43653846875
 31
0.0
  0
LINE
  5
3D6
330
22
100
AcDbEntity
  8
0
  6
Continuous
 62
     7
100
AcDbLine
 10
377.6954326875
 20
142.43653846875
 30
0.0
 11
378.346875
 21
143.0375
 31
0.0
  0
LINE
  5
3D7
330
22
100
AcDbEntity
  8
0
  6
Continuous
 62
     7
100
AcDbLine
 10
378.346875
 20
143.0375
 30
0.0
 11
378.7156250000001
 21
143.6656249999999
 31
0.0
  0
LINE
  5
3D8
330
22
100
AcDbEntity
  8
0
  6
Continuous
 62
     7
100
AcDbLine
 10
378.7156250000001
 20
143.6656249999999
 30
0.0
 11
379.090625
 21
144.4468749999999
 31
0.0
  0
LINE
  5
3D9
330
22
100
AcDbEntity
  8
0
  6
Continuous
 62
     7
100
AcDbLine
 10
379.090625
 20
144.4468749999999
 30
0.0
 11
379.128125
 21
144.5375
 31
0.0
  0
LINE
  5
3DA
330
22
100
AcDbEntity
  8
0
  6
Continuous
 62
     7
100
AcDbLine
 10
379.128125
 20
144.5375
 30
0.0
 11
379.096875
 21
144.6
 31
0.0
  0
LINE
  5
3DB
330
22
100
AcDbEntity
  8
0
  6
Continuous
 62
     7
100
AcDbLine
 10
379.096875
 20
144.6
 30
0.0
 11
379.065625
 21
144.63125
 31
0.0
  0
LINE
  5
3DC
330
22
100
AcDbEntity
  8
0
  6
Continuous
 62
     7
100
AcDbLine
 10
379.065625
 20
144.63125
 30
0.0
 11
379.00625
 21
144.621875
 31
0.0
  0
LINE
  5
3DD
330
22
100
AcDbEntity
  8
0
  6
Continuous
 62
     7
100
AcDbLine
 10
379.00625
 20
144.621875
 30
0.0
 11
378.475
 21
144.375
 31
0.0
  0
LINE
  5
3DE
330
22
100
AcDbEntity
  8
0
  6
Continuous
 62
     7
100
AcDbLine
 10
378.475
 20
144.375
 30
0.0
 11
378.315625
 21
144.31875
 31
0.0
  0
LINE
  5
3DF
330
22
100
AcDbEntity
  8
0
  6
Continuous
 62
     7
100
AcDbLine
 10
378.315625
 20
144.31875
 30
0.0
 11
378.284375
 21
144.38125
 31
0.0
  0
LINE
  5
3E0
330
22
100
AcDbEntity
  8
0
  6
Continuous
 62
     7
100
AcDbLine
 10
378.284375
 20
144.38125
 30
0.0
 11
378.35790440625
 21
144.59724265625
 31
0.0
  0
LINE
  5
3E1
330
22
100
AcDbEntity
  8
0
  6
Continuous
 62
     7
100
AcDbLine
 10
378.35790440625
 20
144.59724265625
 30
0.0
 11
378.540625
 21
144.971875
 31
0.0
  0
LINE
  5
3E2
330
22
100
AcDbEntity
  8
0
  6
Continuous
 62
     7
100
AcDbLine
 10
378.540625
 20
144.971875
 30
0.0
 11
378.590625
 21
145.071875
 31
0.0
  0
LINE
  5
3E3
330
22
100
AcDbEntity
  8
0
  6
Continuous
 62
     7
100
AcDbLine
 10
378.590625
 20
145.071875
 30
0.0
 11
378.9187500000001
 21
145.815625
 31
0.0
  0
LINE
  5
3E4
330
22
100
AcDbEntity
  8
0
  6
Continuous
 62
     7
100
AcDbLine
 10
378.9187500000001
 20
145.815625
 30
0.0
 11
378.99110578125
 21
146.10240384375
 31
0.0
  0
LINE
  5
3E5
330
22
100
AcDbEntity
  8
0
  6
Continuous
 62
     7
100
AcDbLine
 10
378.99110578125
 20
146.10240384375
 30
0.0
 11
379.14449096875
 21
147.13192653125
 31
0.0
  0
LINE
  5
3E6
330
22
100
AcDbEntity
  8
0
  6
Continuous
 62
     7
100
AcDbLine
 10
379.14449096875
 20
147.13192653125
 30
0.0
 11
379.190625
 21
147.94375
 31
0.0
  0
LINE
  5
3E7
330
22
100
AcDbEntity
  8
0
  6
Continuous
 62
     7
100
AcDbLine
 10
379.190625
 20
147.94375
 30
0.0
 11
379.159375
 21
147.975
 31
0.0
  0
LINE
  5
3E8
330
22
100
AcDbEntity
  8
0
  6
Continuous
 62
     7
100
AcDbLine
 10
379.159375
 20
147.975
 30
0.0
 11
378.753125
 21
147.5375
 31
0.0
  0
LINE
  5
3E9
330
22
100
AcDbEntity
  8
0
  6
Continuous
 62
     7
100
AcDbLine
 10
378.753125
 20
147.5375
 30
0.0
 11
378.721875
 21
147.5375
 31
0.0
  0
LINE
  5
3EA
330
22
100
AcDbEntity
  8
0
  6
Continuous
 62
     7
100
AcDbLine
 10
378.721875
 20
147.5375
 30
0.0
 11
378.690625
 21
147.56875
 31
0.0
  0
LINE
  5
3EB
330
22
100
AcDbEntity
  8
0
  6
Continuous
 62
     7
100
AcDbLine
 10
378.690625
 20
147.56875
 30
0.0
 11
378.690625
 21
148.475
 31
0.0
  0
LINE
  5
3EC
330
22
100
AcDbEntity
  8
0
  6
Continuous
 62
     7
100
AcDbLine
 10
378.690625
 20
148.475
 30
0.0
 11
378.721875
 21
148.50625
 31
0.0
  0
LINE
  5
3ED
330
22
100
AcDbEntity
  8
0
  6
Continuous
 62
     7
100
AcDbLine
 10
378.721875
 20
148.50625
 30
0.0
 11
378.673463125
 21
149.19503075
 31
0.0
  0
LINE
  5
3EE
330
22
100
AcDbEntity
  8
0
  6
Continuous
 62
     7
100
AcDbLine
 10
378.673463125
 20
149.19503075
 30
0.0
 11
378.6144055
 21
149.785975625
 31
0.0
  0
LINE
  5
3EF
330
22
100
AcDbEntity
  8
0
  6
Continuous
 62
     7
100
AcDbLine
 10
378.6144055
 20
149.785975625
 30
0.0
 11
378.534375
 21
150.1625
 31
0.0
  0
LINE
  5
3F0
330
22
100
AcDbEntity
  8
0
  6
Continuous
 62
     7
100
AcDbLine
 10
378.534375
 20
150.1625
 30
0.0
 11
378.503125
 21
150.1625
 31
0.0
  0
LINE
  5
3F1
330
22
100
AcDbEntity
  8
0
  6
Continuous
 62
     7
100
AcDbLine
 10
378.503125
 20
150.1625
 30
0.0
 11
378.346875
 21
150.00625
 31
0.0
  0
LINE
  5
3F2
330
22
100
AcDbEntity
  8
0
  6
Continuous
 62
     7
100
AcDbLine
 10
378.346875
 20
150.00625
 30
0.0
 11
378.190625
 21
149.725
 31
0.0
  0
LINE
  5
3F3
330
22
100
AcDbEntity
  8
0
  6
Continuous
 62
     7
100
AcDbLine
 10
378.190625
 20
149.725
 30
0.0
 11
378.128125
 21
149.6625
 31
0.0
  0
LINE
  5
3F4
330
22
100
AcDbEntity
  8
0
  6
Continuous
 62
     7
100
AcDbLine
 10
378.128125
 20
149.6625
 30
0.0
 11
378.065625
 21
149.725
 31
0.0
  0
LINE
  5
3F5
330
22
100
AcDbEntity
  8
0
  6
Continuous
 62
     7
100
AcDbLine
 10
378.065625
 20
149.725
 30
0.0
 11
377.98290440625
 21
150.44650734375
 31
0.0
  0
LINE
  5
3F6
330
22
100
AcDbEntity
  8
0
  6
Continuous
 62
     7
100
AcDbLine
 10
377.98290440625
 20
150.44650734375
 30
0.0
 11
377.86610578125
 21
150.94134615625
 31
0.0
  0
LINE
  5
3F7
330
22
100
AcDbEntity
  8
0
  6
Continuous
 62
     7
100
AcDbLine
 10
377.86610578125
 20
150.94134615625
 30
0.0
 11
377.6843750000001
 21
151.596875
 31
0.0
  0
LINE
  5
3F8
330
22
100
AcDbEntity
  8
0
  6
Continuous
 62
     7
100
AcDbLine
 10
377.6843750000001
 20
151.596875
 30
0.0
 11
377.6531250000001
 21
151.659375
 31
0.0
  0
LINE
  5
3F9
330
22
100
AcDbEntity
  8
0
  6
Continuous
 62
     7
100
AcDbLine
 10
377.6531250000001
 20
151.659375
 30
0.0
 11
377.596875
 21
151.75625
 31
0.0
  0
LINE
  5
3FA
330
22
100
AcDbEntity
  8
0
  6
Continuous
 62
     7
100
AcDbLine
 10
377.596875
 20
151.75625
 30
0.0
 11
377.534375
 21
151.725
 31
0.0
  0
LINE
  5
3FB
330
22
100
AcDbEntity
  8
0
  6
Continuous
 62
     7
100
AcDbLine
 10
377.534375
 20
151.725
 30
0.0
 11
377.253125
 21
151.1625
 31
0.0
  0
LINE
  5
3FC
330
22
100
AcDbEntity
  8
0
  6
Continuous
 62
     7
100
AcDbLine
 10
377.253125
 20
151.1625
 30
0.0
 11
376.9937500000001
 21
151.815625
 31
0.0
  0
LINE
  5
3FD
330
22
100
AcDbEntity
  8
0
  6
Continuous
 62
     7
100
AcDbLine
 10
376.9937500000001
 20
151.815625
 30
0.0
 11
376.653125
 21
152.659375
 31
0.0
  0
LINE
  5
3FE
330
22
100
AcDbEntity
  8
0
  6
Continuous
 62
     7
100
AcDbLine
 10
376.653125
 20
152.659375
 30
0.0
 11
376.384375
 21
153.1656249999999
 31
0.0
  0
LINE
  5
3FF
330
22
100
AcDbEntity
  8
0
  6
Continuous
 62
     7
100
AcDbLine
 10
376.384375
 20
153.1656249999999
 30
0.0
 11
375.971875
 21
153.75625
 31
0.0
  0
LINE
  5
400
330
22
100
AcDbEntity
  8
0
  6
Continuous
 62
     7
100
AcDbLine
 10
375.971875
 20
153.75625
 30
0.0
 11
375.878125
 21
153.85
 31
0.0
  0
LINE
  5
401
330
22
100
AcDbEntity
  8
0
  6
Continuous
 62
     7
100
AcDbLine
 10
375.878125
 20
153.85
 30
0.0
 11
375.815625
 21
153.81875
 31
0.0
  0
LINE
  5
402
330
22
100
AcDbEntity
  8
0
  6
Continuous
 62
     7
100
AcDbLine
 10
375.815625
 20
153.81875
 30
0.0
 11
375.7980945
 21
153.535975625
 31
0.0
  0
LINE
  5
403
330
22
100
AcDbEntity
  8
0
  6
Continuous
 62
     7
100
AcDbLine
 10
375.7980945
 20
153.535975625
 30
0.0
 11
375.784375
 21
153.2875
 31
0.0
  0
LINE
  5
404
330
22
100
AcDbEntity
  8
0
  6
Continuous
 62
     7
100
AcDbLine
 10
375.784375
 20
153.2875
 30
0.0
 11
375.721875
 21
153.225
 31
0.0
  0
LINE
  5
405
330
22
100
AcDbEntity
  8
0
  6
Continuous
 62
     7
100
AcDbLine
 10
375.721875
 20
153.225
 30
0.0
 11
375.51070434375
 21
153.38905903125
 31
0.0
  0
LINE
  5
406
330
22
100
AcDbEntity
  8
0
  6
Continuous
 62
     7
100
AcDbLine
 10
375.51070434375
 20
153.38905903125
 30
0.0
 11
374.46429565625
 21
154.40469096875
 31
0.0
  0
LINE
  5
407
330
22
100
AcDbEntity
  8
0
  6
Continuous
 62
     7
100
AcDbLine
 10
374.46429565625
 20
154.40469096875
 30
0.0
 11
374.0279713125
 21
154.7485655625
 31
0.0
  0
LINE
  5
408
330
22
100
AcDbEntity
  8
0
  6
Continuous
 62
     7
100
AcDbLine
 10
374.0279713125
 20
154.7485655625
 30
0.0
 11
373.3420673125
 21
155.15528846875
 31
0.0
  0
LINE
  5
409
330
22
100
AcDbEntity
  8
0
  6
Continuous
 62
     7
100
AcDbLine
 10
373.3420673125
 20
155.15528846875
 30
0.0
 11
373.31875
 21
155.16875
 31
0.0
  0
LINE
  5
40A
330
22
100
AcDbEntity
  8
0
  6
Continuous
 62
     7
100
AcDbLine
 10
373.31875
 20
155.16875
 30
0.0
 11
372.69375
 21
155.421875
 31
0.0
  0
LINE
  5
40B
330
22
100
AcDbEntity
  8
0
  6
Continuous
 62
     7
100
AcDbLine
 10
372.69375
 20
155.421875
 30
0.0
 11
372.190625
 21
155.6
 31
0.0
  0
LINE
  5
40C
330
22
100
AcDbEntity
  8
0
  6
Continuous
 62
     7
100
AcDbLine
 10
372.190625
 20
155.6
 30
0.0
 11
372.096875
 21
155.6
 31
0.0
  0
LINE
  5
40D
330
22
100
AcDbEntity
  8
0
  6
Continuous
 62
     7
100
AcDbLine
 10
372.096875
 20
155.6
 30
0.0
 11
372.065625
 21
155.56875
 31
0.0
  0
LINE
  5
40E
330
22
100
AcDbEntity
  8
0
  6
Continuous
 62
     7
100
AcDbLine
 10
372.065625
 20
155.56875
 30
0.0
 11
372.1830030625
 21
155.4376524375
 31
0.0
  0
LINE
  5
40F
330
22
100
AcDbEntity
  8
0
  6
Continuous
 62
     7
100
AcDbLine
 10
372.1830030625
 20
155.4376524375
 30
0.0
 11
372.933125
 21
154.4381249999999
 31
0.0
  0
LINE
  5
410
330
22
100
AcDbEntity
  8
0
  6
Continuous
 62
     7
100
AcDbLine
 10
372.933125
 20
154.4381249999999
 30
0.0
 11
373.0580030625
 21
154.2814024375
 31
0.0
  0
LINE
  5
411
330
22
100
AcDbEntity
  8
0
  6
Continuous
 62
     7
100
AcDbLine
 10
373.0580030625
 20
154.2814024375
 30
0.0
 11
373.121875
 21
154.159375
 31
0.0
  0
LINE
  5
412
330
22
100
AcDbEntity
  8
0
  6
Continuous
 62
     7
100
AcDbLine
 10
373.121875
 20
154.159375
 30
0.0
 11
373.465625
 21
153.503125
 31
0.0
  0
LINE
  5
413
330
22
100
AcDbEntity
  8
0
  6
Continuous
 62
     7
100
AcDbLine
 10
373.465625
 20
153.503125
 30
0.0
 11
373.89834559375
 21
152.44099265625
 31
0.0
  0
LINE
  5
414
330
22
100
AcDbEntity
  8
0
  6
Continuous
 62
     7
100
AcDbLine
 10
373.89834559375
 20
152.44099265625
 30
0.0
 11
374.01415440625
 21
151.97775734375
 31
0.0
  0
LINE
  5
415
330
22
100
AcDbEntity
  8
0
  6
Continuous
 62
     7
100
AcDbLine
 10
374.01415440625
 20
151.97775734375
 30
0.0
 11
374.082650875
 21
151.72381465625
 31
0.0
  0
LINE
  5
416
330
22
100
AcDbEntity
  8
0
  6
Continuous
 62
     7
100
AcDbLine
 10
374.082650875
 20
151.72381465625
 30
0.0
 11
374.14158653125
 21
151.1329326875
 31
0.0
  0
LINE
  5
417
330
22
100
AcDbEntity
  8
0
  6
Continuous
 62
     7
100
AcDbLine
 10
374.14158653125
 20
151.1329326875
 30
0.0
 11
374.159375
 21
150.81875
 31
0.0
  0
LINE
  5
418
330
22
100
AcDbEntity
  8
0
  6
Continuous
 62
     7
100
AcDbLine
 10
374.159375
 20
150.81875
 30
0.0
 11
374.11324096875
 21
150.13192653125
 31
0.0
  0
LINE
  5
419
330
22
100
AcDbEntity
  8
0
  6
Continuous
 62
     7
100
AcDbLine
 10
374.11324096875
 20
150.13192653125
 30
0.0
 11
374.02235578125
 21
149.50865384375
 31
0.0
  0
LINE
  5
41A
330
22
100
AcDbEntity
  8
0
  6
Continuous
 62
     7
100
AcDbLine
 10
374.02235578125
 20
149.50865384375
 30
0.0
 11
374.009375
 21
149.471875
 31
0.0
  0
LINE
  5
41B
330
22
100
AcDbEntity
  8
0
  6
Continuous
 62
     7
100
AcDbLine
 10
374.009375
 20
149.471875
 30
0.0
 11
373.728125
 21
148.784375
 31
0.0
  0
LINE
  5
41C
330
22
100
AcDbEntity
  8
0
  6
Continuous
 62
     7
100
AcDbLine
 10
373.728125
 20
148.784375
 30
0.0
 11
373.589375
 21
148.511875
 31
0.0
  0
LINE
  5
41D
330
22
100
AcDbEntity
  8
0
  6
Continuous
 62
     7
100
AcDbLine
 10
373.589375
 20
148.511875
 30
0.0
 11
373.35408653125
 21
148.1889423125
 31
0.0
  0
LINE
  5
41E
330
22
100
AcDbEntity
  8
0
  6
Continuous
 62
     7
100
AcDbLine
 10
373.35408653125
 20
148.1889423125
 30
0.0
 11
372.9640919687501
 21
147.7008844375
 31
0.0
  0
LINE
  5
41F
330
22
100
AcDbEntity
  8
0
  6
Continuous
 62
     7
100
AcDbLine
 10
372.9640919687501
 20
147.7008844375
 30
0.0
 11
372.0109021562501
 21
146.655429875
 31
0.0
  0
LINE
  5
420
330
22
100
AcDbEntity
  8
0
  6
Continuous
 62
     7
100
AcDbLine
 10
372.0109021562501
 20
146.655429875
 30
0.0
 11
371.24591346875
 21
145.7923076875
 31
0.0
  0
LINE
  5
421
330
22
100
AcDbEntity
  8
0
  6
Continuous
 62
     7
100
AcDbLine
 10
371.24591346875
 20
145.7923076875
 30
0.0
 11
371.015625
 21
145.4375
 31
0.0
  0
LINE
  5
422
330
22
100
AcDbEntity
  8
0
  6
Continuous
 62
     7
100
AcDbLine
 10
371.015625
 20
145.4375
 30
0.0
 11
370.95165440625
 21
145.22224265625
 31
0.0
  0
LINE
  5
423
330
22
100
AcDbEntity
  8
0
  6
Continuous
 62
     7
100
AcDbLine
 10
370.95165440625
 20
145.22224265625
 30
0.0
 11
370.92959559375
 21
145.13400734375
 31
0.0
  0
LINE
  5
424
330
22
100
AcDbEntity
  8
0
  6
Continuous
 62
     7
100
AcDbLine
 10
370.92959559375
 20
145.13400734375
 30
0.0
 11
370.878125
 21
144.975
 31
0.0
  0
LINE
  5
425
330
22
100
AcDbEntity
  8
0
  6
Continuous
 62
     7
100
AcDbLine
 10
370.878125
 20
144.975
 30
0.0
 11
370.878125
 21
144.6
 31
0.0
  0
LINE
  5
426
330
22
100
AcDbEntity
  8
0
  6
Continuous
 62
     7
100
AcDbLine
 10
370.878125
 20
144.6
 30
0.0
 11
370.9031250000001
 21
144.565625
 31
0.0
  0
LINE
  5
427
330
22
100
AcDbEntity
  8
0
  6
Continuous
 62
     7
100
AcDbLine
 10
370.9031250000001
 20
144.565625
 30
0.0
 11
371.10459559375
 21
144.20036765625
 31
0.0
  0
LINE
  5
428
330
22
100
AcDbEntity
  8
0
  6
Continuous
 62
     7
100
AcDbLine
 10
371.10459559375
 20
144.20036765625
 30
0.0
 11
371.27665440625
 21
143.99963234375
 31
0.0
  0
LINE
  5
429
330
22
100
AcDbEntity
  8
0
  6
Continuous
 62
     7
100
AcDbLine
 10
371.27665440625
 20
143.99963234375
 30
0.0
 11
371.4968750000001
 21
143.690625
 31
0.0
  0
LINE
  5
42A
330
22
100
AcDbEntity
  8
POW
  6
Continuous
100
AcDbLine
 10
371.4968750000001
 20
143.690625
 30
0.0
 11
371.509375
 21
143.6656249999999
 31
0.0
  0
LINE
  5
42B
330
22
100
AcDbEntity
  8
0
  6
Continuous
 62
     7
100
AcDbLine
 10
371.509375
 20
143.6656249999999
 30
0.0
 11
371.565625
 21
143.5375
 31
0.0
  0
LINE
  5
445
330
22
100
AcDbEntity
  8
0
  6
Continuous
 62
     7
100
AcDbLine
 10
367.096875
 20
143.50625
 30
0.0
 11
367.416875
 21
143.9693749999999
 31
0.0
  0
LINE
  5
446
330
22
100
AcDbEntity
  8
0
  6
Continuous
 62
     7
100
AcDbLine
 10
367.416875
 20
143.9693749999999
 30
0.0
 11
367.495625
 21
144.074375
 31
0.0
  0
LINE
  5
447
330
22
100
AcDbEntity
  8
0
  6
Continuous
 62
     7
100
AcDbLine
 10
367.495625
 20
144.074375
 30
0.0
 11
367.728125
 21
144.409375
 31
0.0
  0
LINE
  5
448
330
22
100
AcDbEntity
  8
0
  6
Continuous
 62
     7
100
AcDbLine
 10
367.728125
 20
144.409375
 30
0.0
 11
367.815625
 21
144.56875
 31
0.0
  0
LINE
  5
449
330
22
100
AcDbEntity
  8
0
  6
Continuous
 62
     7
100
AcDbLine
 10
367.815625
 20
144.56875
 30
0.0
 11
367.815625
 21
145.0375
 31
0.0
  0
LINE
  5
44A
330
22
100
AcDbEntity
  8
0
  6
Continuous
 62
     7
100
AcDbLine
 10
367.815625
 20
145.0375
 30
0.0
 11
367.621875
 21
145.534375
 31
0.0
  0
LINE
  5
44B
330
22
100
AcDbEntity
  8
0
  6
Continuous
 62
     7
100
AcDbLine
 10
367.621875
 20
145.534375
 30
0.0
 11
367.44783653125
 21
145.7923076875
 31
0.0
  0
LINE
  5
44C
330
22
100
AcDbEntity
  8
0
  6
Continuous
 62
     7
100
AcDbLine
 10
367.44783653125
 20
145.7923076875
 30
0.0
 11
365.6358094375
 21
147.7939036875
 31
0.0
  0
LINE
  5
44D
330
22
100
AcDbEntity
  8
0
  6
Continuous
 62
     7
100
AcDbLine
 10
365.6358094375
 20
147.7939036875
 30
0.0
 11
365.32334559375
 21
148.16911765625
 31
0.0
  0
LINE
  5
44E
330
22
100
AcDbEntity
  8
0
  6
Continuous
 62
     7
100
AcDbLine
 10
365.32334559375
 20
148.16911765625
 30
0.0
 11
364.9968750000001
 21
148.690625
 31
0.0
  0
LINE
  5
44F
330
22
100
AcDbEntity
  8
0
  6
Continuous
 62
     7
100
AcDbLine
 10
364.9968750000001
 20
148.690625
 30
0.0
 11
364.934375
 21
148.815625
 31
0.0
  0
LINE
  5
450
330
22
100
AcDbEntity
  8
0
  6
Continuous
 62
     7
100
AcDbLine
 10
364.934375
 20
148.815625
 30
0.0
 11
364.7625000000001
 21
149.228125
 31
0.0
  0
LINE
  5
451
330
22
100
AcDbEntity
  8
0
  6
Continuous
 62
     7
100
AcDbLine
 10
364.7625000000001
 20
149.228125
 30
0.0
 11
364.65
 21
149.596875
 31
0.0
  0
LINE
  5
452
330
22
100
AcDbEntity
  8
0
  6
Continuous
 62
     7
100
AcDbLine
 10
364.65
 20
149.596875
 30
0.0
 11
364.534375
 21
150.13125
 31
0.0
  0
LINE
  5
453
330
22
100
AcDbEntity
  8
0
  6
Continuous
 62
     7
100
AcDbLine
 10
364.534375
 20
150.13125
 30
0.0
 11
364.534375
 21
151.1625
 31
0.0
  0
LINE
  5
454
330
22
100
AcDbEntity
  8
0
  6
Continuous
 62
     7
100
AcDbLine
 10
364.534375
 20
151.1625
 30
0.0
 11
364.6144055000001
 21
151.601524375
 31
0.0
  0
LINE
  5
455
330
22
100
AcDbEntity
  8
0
  6
Continuous
 62
     7
100
AcDbLine
 10
364.6144055000001
 20
151.601524375
 30
0.0
 11
364.6418445000001
 21
151.848475625
 31
0.0
  0
LINE
  5
456
330
22
100
AcDbEntity
  8
0
  6
Continuous
 62
     7
100
AcDbLine
 10
364.6418445000001
 20
151.848475625
 30
0.0
 11
364.73125
 21
152.1906249999999
 31
0.0
  0
LINE
  5
457
330
22
100
AcDbEntity
  8
0
  6
Continuous
 62
     7
100
AcDbLine
 10
364.73125
 20
152.1906249999999
 30
0.0
 11
364.9625
 21
152.884375
 31
0.0
  0
LINE
  5
458
330
22
100
AcDbEntity
  8
0
  6
Continuous
 62
     7
100
AcDbLine
 10
364.9625
 20
152.884375
 30
0.0
 11
365.1531250000001
 21
153.321875
 31
0.0
  0
LINE
  5
459
330
22
100
AcDbEntity
  8
0
  6
Continuous
 62
     7
100
AcDbLine
 10
365.1531250000001
 20
153.321875
 30
0.0
 11
365.371875
 21
153.7906249999999
 31
0.0
  0
LINE
  5
45A
330
22
100
AcDbEntity
  8
0
  6
Continuous
 62
     7
100
AcDbLine
 10
365.371875
 20
153.7906249999999
 30
0.0
 11
366.3545594375
 21
155.3123463125
 31
0.0
  0
LINE
  5
45B
330
22
100
AcDbEntity
  8
0
  6
Continuous
 62
     7
100
AcDbLine
 10
366.3545594375
 20
155.3123463125
 30
0.0
 11
366.534375
 21
155.5375
 31
0.0
  0
LINE
  5
45C
330
22
100
AcDbEntity
  8
0
  6
Continuous
 62
     7
100
AcDbLine
 10
366.534375
 20
155.5375
 30
0.0
 11
366.503125
 21
155.56875
 31
0.0
  0
LINE
  5
45D
330
22
100
AcDbEntity
  8
0
  6
Continuous
 62
     7
100
AcDbLine
 10
366.503125
 20
155.56875
 30
0.0
 11
366.2191176562501
 21
155.48602940625
 31
0.0
  0
LINE
  5
45E
330
22
100
AcDbEntity
  8
0
  6
Continuous
 62
     7
100
AcDbLine
 10
366.2191176562501
 20
155.48602940625
 30
0.0
 11
366.0
 21
155.41875
 31
0.0
  0
LINE
  5
45F
330
22
100
AcDbEntity
  8
0
  6
Continuous
 62
     7
100
AcDbLine
 10
366.0
 20
155.41875
 30
0.0
 11
365.5079326875
 21
155.18653846875
 31
0.0
  0
LINE
  5
460
330
22
100
AcDbEntity
  8
0
  6
Continuous
 62
     7
100
AcDbLine
 10
365.5079326875
 20
155.18653846875
 30
0.0
 11
364.9358173125
 21
154.85721153125
 31
0.0
  0
LINE
  5
461
330
22
100
AcDbEntity
  8
0
  6
Continuous
 62
     7
100
AcDbLine
 10
364.9358173125
 20
154.85721153125
 30
0.0
 11
364.2907786875
 21
154.4360655625
 31
0.0
  0
LINE
  5
462
330
22
100
AcDbEntity
  8
0
  6
Continuous
 62
     7
100
AcDbLine
 10
364.2907786875
 20
154.4360655625
 30
0.0
 11
364.1036504375001
 21
154.279756625
 31
0.0
  0
LINE
  5
463
330
22
100
AcDbEntity
  8
0
  6
Continuous
 62
     7
100
AcDbLine
 10
364.1036504375001
 20
154.279756625
 30
0.0
 11
363.659375
 21
153.88125
 31
0.0
  0
LINE
  5
464
330
22
100
AcDbEntity
  8
0
  6
Continuous
 62
     7
100
AcDbLine
 10
363.659375
 20
153.88125
 30
0.0
 11
363.221875
 21
153.38125
 31
0.0
  0
LINE
  5
465
330
22
100
AcDbEntity
  8
0
  6
Continuous
 62
     7
100
AcDbLine
 10
363.221875
 20
153.38125
 30
0.0
 11
362.971875
 21
153.13125
 31
0.0
  0
LINE
  5
466
330
22
100
AcDbEntity
  8
0
  6
Continuous
 62
     7
100
AcDbLine
 10
362.971875
 20
153.13125
 30
0.0
 11
362.9225
 21
153.289375
 31
0.0
  0
LINE
  5
467
330
22
100
AcDbEntity
  8
0
  6
Continuous
 62
     7
100
AcDbLine
 10
362.9225
 20
153.289375
 30
0.0
 11
362.878125
 21
153.7875
 31
0.0
  0
LINE
  5
468
330
22
100
AcDbEntity
  8
0
  6
Continuous
 62
     7
100
AcDbLine
 10
362.878125
 20
153.7875
 30
0.0
 11
362.846875
 21
153.81875
 31
0.0
  0
LINE
  5
469
330
22
100
AcDbEntity
  8
0
  6
Continuous
 62
     7
100
AcDbLine
 10
362.846875
 20
153.81875
 30
0.0
 11
362.784375
 21
153.81875
 31
0.0
  0
LINE
  5
46A
330
22
100
AcDbEntity
  8
0
  6
Continuous
 62
     7
100
AcDbLine
 10
362.784375
 20
153.81875
 30
0.0
 11
362.596875
 21
153.63125
 31
0.0
  0
LINE
  5
46B
330
22
100
AcDbEntity
  8
0
  6
Continuous
 62
     7
100
AcDbLine
 10
362.596875
 20
153.63125
 30
0.0
 11
362.259375
 21
153.0968749999999
 31
0.0
  0
LINE
  5
46C
330
22
100
AcDbEntity
  8
0
  6
Continuous
 62
     7
100
AcDbLine
 10
362.259375
 20
153.0968749999999
 30
0.0
 11
361.946875
 21
152.471875
 31
0.0
  0
LINE
  5
46D
330
22
100
AcDbEntity
  8
0
  6
Continuous
 62
     7
100
AcDbLine
 10
361.946875
 20
152.471875
 30
0.0
 11
361.5750000000001
 21
151.503125
 31
0.0
  0
LINE
  5
46E
330
22
100
AcDbEntity
  8
0
  6
Continuous
 62
     7
100
AcDbLine
 10
361.5750000000001
 20
151.503125
 30
0.0
 11
361.440625
 21
151.1625
 31
0.0
  0
LINE
  5
46F
330
22
100
AcDbEntity
  8
0
  6
Continuous
 62
     7
100
AcDbLine
 10
361.440625
 20
151.1625
 30
0.0
 11
361.309375
 21
151.440625
 31
0.0
  0
LINE
  5
470
330
22
100
AcDbEntity
  8
0
  6
Continuous
 62
     7
100
AcDbLine
 10
361.309375
 20
151.440625
 30
0.0
 11
361.290625
 21
151.4781249999999
 31
0.0
  0
LINE
  5
471
330
22
100
AcDbEntity
  8
0
  6
Continuous
 62
     7
100
AcDbLine
 10
361.290625
 20
151.4781249999999
 30
0.0
 11
361.096875
 21
151.75625
 31
0.0
  0
LINE
  5
472
330
22
100
AcDbEntity
  8
0
  6
Continuous
 62
     7
100
AcDbLine
 10
361.096875
 20
151.75625
 30
0.0
 11
361.034375
 21
151.725
 31
0.0
  0
LINE
  5
473
330
22
100
AcDbEntity
  8
0
  6
Continuous
 62
     7
100
AcDbLine
 10
361.034375
 20
151.725
 30
0.0
 11
360.99209559375
 21
151.57150734375
 31
0.0
  0
LINE
  5
474
330
22
100
AcDbEntity
  8
0
  6
Continuous
 62
     7
100
AcDbLine
 10
360.99209559375
 20
151.57150734375
 30
0.0
 11
360.7651442187501
 21
150.62884615625
 31
0.0
  0
LINE
  5
475
330
22
100
AcDbEntity
  8
0
  6
Continuous
 62
     7
100
AcDbLine
 10
360.7651442187501
 20
150.62884615625
 30
0.0
 11
360.70454828125
 21
150.2861076875
 31
0.0
  0
LINE
  5
476
330
22
100
AcDbEntity
  8
0
  6
Continuous
 62
     7
100
AcDbLine
 10
360.70454828125
 20
150.2861076875
 30
0.0
 11
360.659375
 21
149.6
 31
0.0
  0
LINE
  5
477
330
22
100
AcDbEntity
  8
0
  6
Continuous
 62
     7
100
AcDbLine
 10
360.659375
 20
149.6
 30
0.0
 11
360.628125
 21
149.56875
 31
0.0
  0
LINE
  5
478
330
22
100
AcDbEntity
  8
0
  6
Continuous
 62
     7
100
AcDbLine
 10
360.628125
 20
149.56875
 30
0.0
 11
360.590625
 21
149.628125
 31
0.0
  0
LINE
  5
479
330
22
100
AcDbEntity
  8
0
  6
Continuous
 62
     7
100
AcDbLine
 10
360.590625
 20
149.628125
 30
0.0
 11
360.571875
 21
149.665625
 31
0.0
  0
LINE
  5
47A
330
22
100
AcDbEntity
  8
0
  6
Continuous
 62
     7
100
AcDbLine
 10
360.571875
 20
149.665625
 30
0.0
 11
360.253125
 21
150.06875
 31
0.0
  0
LINE
  5
47B
330
22
100
AcDbEntity
  8
0
  6
Continuous
 62
     7
100
AcDbLine
 10
360.253125
 20
150.06875
 30
0.0
 11
360.159375
 21
150.1
 31
0.0
  0
LINE
  5
47C
330
22
100
AcDbEntity
  8
0
  6
Continuous
 62
     7
100
AcDbLine
 10
360.159375
 20
150.1
 30
0.0
 11
360.128125
 21
150.06875
 31
0.0
  0
LINE
  5
47D
330
22
100
AcDbEntity
  8
0
  6
Continuous
 62
     7
100
AcDbLine
 10
360.128125
 20
150.06875
 30
0.0
 11
360.11610578125
 21
149.94615384375
 31
0.0
  0
LINE
  5
47E
330
22
100
AcDbEntity
  8
0
  6
Continuous
 62
     7
100
AcDbLine
 10
360.11610578125
 20
149.94615384375
 30
0.0
 11
359.971875
 21
148.7875
 31
0.0
  0
LINE
  5
47F
330
22
100
AcDbEntity
  8
0
  6
Continuous
 62
     7
100
AcDbLine
 10
359.971875
 20
148.7875
 30
0.0
 11
359.971875
 21
147.7875
 31
0.0
  0
LINE
  5
480
330
22
100
AcDbEntity
  8
0
  6
Continuous
 62
     7
100
AcDbLine
 10
359.971875
 20
147.7875
 30
0.0
 11
360.003125
 21
147.75625
 31
0.0
  0
LINE
  5
481
330
22
100
AcDbEntity
  8
0
  6
Continuous
 62
     7
100
AcDbLine
 10
360.003125
 20
147.75625
 30
0.0
 11
360.003125
 21
147.50625
 31
0.0
  0
LINE
  5
482
330
22
100
AcDbEntity
  8
0
  6
Continuous
 62
     7
100
AcDbLine
 10
360.003125
 20
147.50625
 30
0.0
 11
359.971875
 21
147.475
 31
0.0
  0
LINE
  5
483
330
22
100
AcDbEntity
  8
0
  6
Continuous
 62
     7
100
AcDbLine
 10
359.971875
 20
147.475
 30
0.0
 11
359.8704405625
 21
147.5935963124999
 31
0.0
  0
LINE
  5
484
330
22
100
AcDbEntity
  8
0
  6
Continuous
 62
     7
100
AcDbLine
 10
359.8704405625
 20
147.5935963124999
 30
0.0
 11
359.659375
 21
147.85
 31
0.0
  0
LINE
  5
485
330
22
100
AcDbEntity
  8
0
  6
Continuous
 62
     7
100
AcDbLine
 10
359.659375
 20
147.85
 30
0.0
 11
359.6329326875
 21
147.85721153125
 31
0.0
  0
LINE
  5
486
330
22
100
AcDbEntity
  8
0
  6
Continuous
 62
     7
100
AcDbLine
 10
359.6329326875
 20
147.85721153125
 30
0.0
 11
359.565625
 21
147.9125
 31
0.0
  0
LINE
  5
487
330
22
100
AcDbEntity
  8
0
  6
Continuous
 62
     7
100
AcDbLine
 10
359.565625
 20
147.9125
 30
0.0
 11
359.503125
 21
147.85
 31
0.0
  0
LINE
  5
488
330
22
100
AcDbEntity
  8
0
  6
Continuous
 62
     7
100
AcDbLine
 10
359.503125
 20
147.85
 30
0.0
 11
359.503125
 21
147.31875
 31
0.0
  0
LINE
  5
489
330
22
100
AcDbEntity
  8
0
  6
Continuous
 62
     7
100
AcDbLine
 10
359.503125
 20
147.31875
 30
0.0
 11
359.64079390625
 21
146.3208615
 31
0.0
  0
LINE
  5
48A
330
22
100
AcDbEntity
  8
0
  6
Continuous
 62
     7
100
AcDbLine
 10
359.64079390625
 20
146.3208615
 30
0.0
 11
359.79540440625
 21
145.75900734375
 31
0.0
  0
LINE
  5
48B
330
22
100
AcDbEntity
  8
0
  6
Continuous
 62
     7
100
AcDbLine
 10
359.79540440625
 20
145.75900734375
 30
0.0
 11
359.903125
 21
145.471875
 31
0.0
  0
LINE
  5
48C
330
22
100
AcDbEntity
  8
0
  6
Continuous
 62
     7
100
AcDbLine
 10
359.903125
 20
145.471875
 30
0.0
 11
360.275
 21
144.659375
 31
0.0
  0
LINE
  5
48D
330
22
100
AcDbEntity
  8
0
  6
Continuous
 62
     7
100
AcDbLine
 10
360.275
 20
144.659375
 30
0.0
 11
360.440625
 21
144.31875
 31
0.0
  0
LINE
  5
48E
330
22
100
AcDbEntity
  8
0
  6
Continuous
 62
     7
100
AcDbLine
 10
360.440625
 20
144.31875
 30
0.0
 11
360.409375
 21
144.2875
 31
0.0
  0
LINE
  5
48F
330
22
100
AcDbEntity
  8
0
  6
Continuous
 62
     7
100
AcDbLine
 10
360.409375
 20
144.2875
 30
0.0
 11
360.31875
 21
144.328125
 31
0.0
  0
LINE
  5
490
330
22
100
AcDbEntity
  8
0
  6
Continuous
 62
     7
100
AcDbLine
 10
360.31875
 20
144.328125
 30
0.0
 11
359.68786765625
 21
144.58897059375
 31
0.0
  0
LINE
  5
491
330
22
100
AcDbEntity
  8
0
  6
Continuous
 62
     7
100
AcDbLine
 10
359.68786765625
 20
144.58897059375
 30
0.0
 11
359.596875
 21
144.6
 31
0.0
  0
LINE
  5
492
330
22
100
AcDbEntity
  8
0
  6
Continuous
 62
     7
100
AcDbLine
 10
359.596875
 20
144.6
 30
0.0
 11
359.565625
 21
144.56875
 31
0.0
  0
LINE
  5
493
330
22
100
AcDbEntity
  8
0
  6
Continuous
 62
     7
100
AcDbLine
 10
359.565625
 20
144.56875
 30
0.0
 11
359.57665440625
 21
144.47775734375
 31
0.0
  0
LINE
  5
494
330
22
100
AcDbEntity
  8
0
  6
Continuous
 62
     7
100
AcDbLine
 10
359.57665440625
 20
144.47775734375
 30
0.0
 11
359.821875
 21
143.946875
 31
0.0
  0
LINE
  5
495
330
22
100
AcDbEntity
  8
0
  6
Continuous
 62
     7
100
AcDbLine
 10
359.821875
 20
143.946875
 30
0.0
 11
359.8718750000001
 21
143.846875
 31
0.0
  0
LINE
  5
496
330
22
100
AcDbEntity
  8
0
  6
Continuous
 62
     7
100
AcDbLine
 10
359.8718750000001
 20
143.846875
 30
0.0
 11
360.1669969375
 21
143.3248475625
 31
0.0
  0
LINE
  5
497
330
22
100
AcDbEntity
  8
0
  6
Continuous
 62
     7
100
AcDbLine
 10
360.1669969375
 20
143.3248475625
 30
0.0
 11
360.4329405625
 21
142.9998463125
 31
0.0
  0
LINE
  5
498
330
22
100
AcDbEntity
  8
0
  6
Continuous
 62
     7
100
AcDbLine
 10
360.4329405625
 20
142.9998463125
 30
0.0
 11
360.878125
 21
142.50625
 31
0.0
  0
LINE
  5
499
330
22
100
AcDbEntity
  8
0
  6
Continuous
 62
     7
100
AcDbLine
 10
360.878125
 20
142.50625
 30
0.0
 11
361.1025
 21
142.3575
 31
0.0
  0
LINE
  5
49A
330
22
100
AcDbEntity
  8
0
  6
Continuous
 62
     7
100
AcDbLine
 10
361.1025
 20
142.3575
 30
0.0
 11
361.5625
 21
142.09375
 31
0.0
  0
LINE
  5
49B
330
22
100
AcDbEntity
  8
0
  6
Continuous
 62
     7
100
AcDbLine
 10
361.5625
 20
142.09375
 30
0.0
 11
361.6
 21
142.078125
 31
0.0
  0
LINE
  5
49C
330
22
100
AcDbEntity
  8
0
  6
Continuous
 62
     7
100
AcDbLine
 10
361.6
 20
142.078125
 30
0.0
 11
361.659375
 21
142.06875
 31
0.0
  0
LINE
  5
49D
330
22
100
AcDbEntity
  8
0
  6
Continuous
 62
     7
100
AcDbLine
 10
361.659375
 20
142.06875
 30
0.0
 11
361.721875
 21
142.00625
 31
0.0
  0
LINE
  5
49E
330
22
100
AcDbEntity
  8
0
  6
Continuous
 62
     7
100
AcDbLine
 10
361.721875
 20
142.00625
 30
0.0
 11
361.721875
 21
141.975
 31
0.0
  0
LINE
  5
49F
330
22
100
AcDbEntity
  8
0
  6
Continuous
 62
     7
100
AcDbLine
 10
361.721875
 20
141.975
 30
0.0
 11
360.565625
 21
141.25625
 31
0.0
  0
LINE
  5
4A0
330
22
100
AcDbEntity
  8
0
  6
Continuous
 62
     7
100
AcDbLine
 10
360.565625
 20
141.25625
 30
0.0
 11
360.378125
 21
141.06875
 31
0.0
  0
LINE
  5
4A1
330
22
100
AcDbEntity
  8
0
  6
Continuous
 62
     7
100
AcDbLine
 10
360.378125
 20
141.06875
 30
0.0
 11
360.3859375
 21
141.0140625
 31
0.0
  0
LINE
  5
4A2
330
22
100
AcDbEntity
  8
0
  6
Continuous
 62
     7
100
AcDbLine
 10
360.3859375
 20
141.0140625
 30
0.0
 11
360.4375
 21
141.0
 31
0.0
  0
LINE
  5
4A3
330
22
100
AcDbEntity
  8
0
  6
Continuous
 62
     7
100
AcDbLine
 10
360.4375
 20
141.0
 30
0.0
 11
360.56286765625
 21
140.96397059375
 31
0.0
  0
LINE
  5
4A4
330
22
100
AcDbEntity
  8
0
  6
Continuous
 62
     7
100
AcDbLine
 10
360.56286765625
 20
140.96397059375
 30
0.0
 11
361.22
 21
140.836875
 31
0.0
  0
LINE
  5
4A5
330
22
100
AcDbEntity
  8
0
  6
Continuous
 62
     7
100
AcDbLine
 10
361.22
 20
140.836875
 30
0.0
 11
361.9076923125
 21
140.74278846875
 31
0.0
  0
LINE
  5
4A6
330
22
100
AcDbEntity
  8
0
  6
Continuous
 62
     7
100
AcDbLine
 10
361.9076923125
 20
140.74278846875
 30
0.0
 11
362.659375
 21
140.69375
 31
0.0
  0
LINE
  5
4A7
330
22
100
AcDbEntity
  8
0
  6
Continuous
 62
     7
100
AcDbLine
 10
362.659375
 20
140.69375
 30
0.0
 11
362.690625
 21
140.6625
 31
0.0
  0
LINE
  5
4A8
330
22
100
AcDbEntity
  8
0
  6
Continuous
 62
     7
100
AcDbLine
 10
362.690625
 20
140.6625
 30
0.0
 11
362.52660565625
 21
140.48199240625
 31
0.0
  0
LINE
  5
4A9
330
22
100
AcDbEntity
  8
0
  6
Continuous
 62
     7
100
AcDbLine
 10
362.52660565625
 20
140.48199240625
 30
0.0
 11
362.26089434375
 21
140.18675759375
 31
0.0
  0
LINE
  5
4AA
330
22
100
AcDbEntity
  8
0
  6
Continuous
 62
     7
100
AcDbLine
 10
362.26089434375
 20
140.18675759375
 30
0.0
 11
361.7156250000001
 21
139.4468749999999
 31
0.0
  0
LINE
  5
4AB
330
22
100
AcDbEntity
  8
0
  6
Continuous
 62
     7
100
AcDbLine
 10
361.7156250000001
 20
139.4468749999999
 30
0.0
 11
361.653125
 21
139.3218749999999
 31
0.0
  0
LINE
  5
4AC
330
22
100
AcDbEntity
  8
0
  6
Continuous
 62
     7
100
AcDbLine
 10
361.653125
 20
139.3218749999999
 30
0.0
 11
361.6359375
 21
139.2328125
 31
0.0
  0
LINE
  5
4AD
330
22
100
AcDbEntity
  8
0
  6
Continuous
 62
     7
100
AcDbLine
 10
361.6359375
 20
139.2328125
 30
0.0
 11
362.0332720625
 21
139.23933825
 31
0.0
  0
LINE
  5
4AE
330
22
100
AcDbEntity
  8
0
  6
Continuous
 62
     7
100
AcDbLine
 10
362.0332720625
 20
139.23933825
 30
0.0
 11
363.534375
 21
139.4125
 31
0.0
  0
LINE
  5
4AF
330
22
100
AcDbEntity
  8
0
  6
Continuous
 62
     7
100
AcDbLine
 10
363.534375
 20
139.4125
 30
0.0
 11
363.5578125
 21
139.4046875
 31
0.0
  0
LINE
  5
4B0
330
22
100
AcDbEntity
  8
0
  6
Continuous
 62
     7
100
AcDbLine
 10
363.5578125
 20
139.4046875
 30
0.0
 11
363.24375
 21
138.6343749999999
 31
0.0
  0
LINE
  5
4B1
330
22
100
AcDbEntity
  8
0
  6
Continuous
 62
     7
100
AcDbLine
 10
363.24375
 20
138.6343749999999
 30
0.0
 11
363.18125
 21
138.4468749999999
 31
0.0
  0
LINE
  5
4B2
330
22
100
AcDbEntity
  8
0
  6
Continuous
 62
     7
100
AcDbLine
 10
363.18125
 20
138.4468749999999
 30
0.0
 11
363.065625
 21
138.1625
 31
0.0
  0
LINE
  5
4B3
330
22
100
AcDbEntity
  8
0
  6
Continuous
 62
     7
100
AcDbLine
 10
363.065625
 20
138.1625
 30
0.0
 11
363.096875
 21
138.13125
 31
0.0
  0
LINE
  5
4B4
330
22
100
AcDbEntity
  8
0
  6
Continuous
 62
     7
100
AcDbLine
 10
363.096875
 20
138.13125
 30
0.0
 11
363.3492788437501
 21
138.15048078125
 31
0.0
  0
LINE
  5
4B5
330
22
100
AcDbEntity
  8
0
  6
Continuous
 62
     7
100
AcDbLine
 10
363.3492788437501
 20
138.15048078125
 30
0.0
 11
363.4694711562501
 21
138.17451921875
 31
0.0
  0
LINE
  5
4B6
330
22
100
AcDbEntity
  8
0
  6
Continuous
 62
     7
100
AcDbLine
 10
363.4694711562501
 20
138.17451921875
 30
0.0
 11
364.44375
 21
138.40625
 31
0.0
  0
LINE
  5
4B7
330
22
100
AcDbEntity
  8
0
  6
Continuous
 62
     7
100
AcDbLine
 10
364.44375
 20
138.40625
 30
0.0
 11
364.815625
 21
138.56875
 31
0.0
  0
LINE
  5
4B8
330
22
100
AcDbEntity
  8
0
  6
Continuous
 62
     7
100
AcDbLine
 10
364.815625
 20
138.56875
 30
0.0
 11
364.846875
 21
138.5375
 31
0.0
  0
LINE
  5
4B9
330
22
100
AcDbEntity
  8
0
  6
Continuous
 62
     7
100
AcDbLine
 10
364.846875
 20
138.5375
 30
0.0
 11
364.82665440625
 21
138.40974265625
 31
0.0
  0
LINE
  5
4BA
330
22
100
AcDbEntity
  8
0
  6
Continuous
 62
     7
100
AcDbLine
 10
364.82665440625
 20
138.40974265625
 30
0.0
 11
364.6483455937501
 21
137.63400734375
 31
0.0
  0
LINE
  5
4BB
330
22
100
AcDbEntity
  8
0
  6
Continuous
 62
     7
100
AcDbLine
 10
364.6483455937501
 20
137.63400734375
 30
0.0
 11
364.596875
 21
137.19375
 31
0.0
  0
LINE
  5
4BC
330
22
100
AcDbEntity
  8
0
  6
Continuous
 62
     7
100
AcDbLine
 10
364.596875
 20
137.19375
 30
0.0
 11
364.6046875
 21
137.1703125
 31
0.0
  0
LINE
  5
4BD
330
22
100
AcDbEntity
  8
0
  6
Continuous
 62
     7
100
AcDbLine
 10
364.6046875
 20
137.1703125
 30
0.0
 11
364.71911765625
 21
137.17352940625
 31
0.0
  0
LINE
  5
4BE
330
22
100
AcDbEntity
  8
0
  6
Continuous
 62
     7
100
AcDbLine
 10
364.71911765625
 20
137.17352940625
 30
0.0
 11
365.40625
 21
137.45
 31
0.0
  0
LINE
  5
4BF
330
22
100
AcDbEntity
  8
0
  6
Continuous
 62
     7
100
AcDbLine
 10
365.40625
 20
137.45
 30
0.0
 11
365.50625
 21
137.5
 31
0.0
  0
LINE
  5
4C0
330
22
100
AcDbEntity
  8
0
  6
Continuous
 62
     7
100
AcDbLine
 10
365.50625
 20
137.5
 30
0.0
 11
365.96625
 21
137.70125
 31
0.0
  0
LINE
  5
4C1
330
22
100
AcDbEntity
  8
0
  6
Continuous
 62
     7
100
AcDbLine
 10
365.96625
 20
137.70125
 30
0.0
 11
366.221875
 21
137.88125
 31
0.0
  0
LINE
  5
4C2
330
22
100
AcDbEntity
  8
0
  6
Continuous
 62
     7
100
AcDbLine
 10
366.221875
 20
137.88125
 30
0.0
 11
366.253125
 21
137.85
 31
0.0
  0
LINE
  5
4C3
330
22
100
AcDbEntity
  8
0
  6
Continuous
 62
     7
100
AcDbLine
 10
366.253125
 20
137.85
 30
0.0
 11
365.2000000000001
 21
134.753125
 31
0.0
  0
LINE
  5
4C4
330
22
100
AcDbEntity
  8
0
  6
Continuous
 62
     7
100
AcDbLine
 10
365.2000000000001
 20
134.753125
 30
0.0
 11
365.159375
 21
134.6625
 31
0.0
  0
LINE
  5
4C5
330
22
100
AcDbEntity
  8
0
  6
Continuous
 62
     7
100
AcDbLine
 10
365.159375
 20
134.6625
 30
0.0
 11
365.159375
 21
134.6
 31
0.0
  0
LINE
  5
4C6
330
22
100
AcDbEntity
  8
0
  6
Continuous
 62
     7
100
AcDbLine
 10
365.159375
 20
134.6
 30
0.0
 11
365.190625
 21
134.56875
 31
0.0
  0
LINE
  5
4C7
330
22
100
AcDbEntity
  8
0
  6
Continuous
 62
     7
100
AcDbLine
 10
365.190625
 20
134.56875
 30
0.0
 11
365.2891826875
 21
134.62403846875
 31
0.0
  0
LINE
  5
4C8
330
22
100
AcDbEntity
  8
0
  6
Continuous
 62
     7
100
AcDbLine
 10
365.2891826875
 20
134.62403846875
 30
0.0
 11
369.378125
 21
137.396875
 31
0.0
  0
LINE
  5
4C9
330
22
100
AcDbEntity
  8
0
  6
Continuous
 62
     7
100
AcDbLine
 10
369.378125
 20
137.396875
 30
0.0
 11
369.4125
 21
137.3875
 31
0.0
  0
LINE
  5
4CA
330
22
100
AcDbEntity
  8
0
  6
Continuous
 62
     7
100
AcDbLine
 10
369.4125
 20
137.3875
 30
0.0
 11
373.440625
 21
134.56875
 31
0.0
  0
LINE
  5
4CD
330
22
100
AcDbEntity
  8
0
  6
Continuous
 62
     7
100
AcDbLine
 10
373.596875
 20
134.225
 30
0.0
 11
373.659375
 21
134.25625
 31
0.0
  0
LINE
  5
4CE
330
22
100
AcDbEntity
  8
0
  6
Continuous
 62
     7
100
AcDbLine
 10
373.659375
 20
134.25625
 30
0.0
 11
373.784375
 21
134.38125
 31
0.0
  0
LINE
  5
4CF
330
22
100
AcDbEntity
  8
0
  6
Continuous
 62
     7
100
AcDbLine
 10
373.784375
 20
134.38125
 30
0.0
 11
373.815625
 21
134.6625
 31
0.0
  0
LINE
  5
4D0
330
22
100
AcDbEntity
  8
0
  6
Continuous
 62
     7
100
AcDbLine
 10
373.815625
 20
134.6625
 30
0.0
 11
373.30625
 21
136.159375
 31
0.0
  0
LINE
  5
4D1
330
22
100
AcDbEntity
  8
0
  6
Continuous
 62
     7
100
AcDbLine
 10
373.30625
 20
136.159375
 30
0.0
 11
373.23125
 21
136.384375
 31
0.0
  0
LINE
  5
4D2
330
22
100
AcDbEntity
  8
0
  6
Continuous
 62
     7
100
AcDbLine
 10
373.23125
 20
136.384375
 30
0.0
 11
372.971875
 21
137.19375
 31
0.0
  0
LINE
  5
4D3
330
22
100
AcDbEntity
  8
0
  6
Continuous
 62
     7
100
AcDbLine
 10
372.971875
 20
137.19375
 30
0.0
 11
373.003125
 21
137.225
 31
0.0
  0
LINE
  5
4D4
330
22
100
AcDbEntity
  8
0
  6
Continuous
 62
     7
100
AcDbLine
 10
373.003125
 20
137.225
 30
0.0
 11
373.59927884375
 21
136.92451921875
 31
0.0
  0
LINE
  5
4D5
330
22
100
AcDbEntity
  8
0
  6
Continuous
 62
     7
100
AcDbLine
 10
373.59927884375
 20
136.92451921875
 30
0.0
 11
373.71947115625
 21
136.90048078125
 31
0.0
  0
LINE
  5
4D6
330
22
100
AcDbEntity
  8
0
  6
Continuous
 62
     7
100
AcDbLine
 10
373.71947115625
 20
136.90048078125
 30
0.0
 11
373.846875
 21
136.85
 31
0.0
  0
LINE
  5
4D7
330
22
100
AcDbEntity
  8
0
  6
Continuous
 62
     7
100
AcDbLine
 10
373.846875
 20
136.85
 30
0.0
 11
374.128125
 21
136.85
 31
0.0
  0
LINE
  5
4D8
330
22
100
AcDbEntity
  8
0
  6
Continuous
 62
     7
100
AcDbLine
 10
374.128125
 20
136.85
 30
0.0
 11
374.1875
 21
136.8875
 31
0.0
  0
LINE
  5
4D9
330
22
100
AcDbEntity
  8
0
  6
Continuous
 62
     7
100
AcDbLine
 10
374.1875
 20
136.8875
 30
0.0
 11
374.315625
 21
136.94375
 31
0.0
  0
LINE
  5
4DA
330
22
100
AcDbEntity
  8
0
  6
Continuous
 62
     7
100
AcDbLine
 10
374.315625
 20
136.94375
 30
0.0
 11
374.409375
 21
137.13125
 31
0.0
  0
LINE
  5
4DB
330
22
100
AcDbEntity
  8
0
  6
Continuous
 62
     7
100
AcDbLine
 10
374.409375
 20
137.13125
 30
0.0
 11
374.3918445000001
 21
137.257774375
 31
0.0
  0
LINE
  5
4DC
330
22
100
AcDbEntity
  8
0
  6
Continuous
 62
     7
100
AcDbLine
 10
374.3918445000001
 20
137.257774375
 30
0.0
 11
374.3644055
 21
137.504725625
 31
0.0
  0
LINE
  5
4DD
330
22
100
AcDbEntity
  8
0
  6
Continuous
 62
     7
100
AcDbLine
 10
374.3644055
 20
137.504725625
 30
0.0
 11
374.253125
 21
138.0375
 31
0.0
  0
LINE
  5
4DE
330
22
100
AcDbEntity
  8
0
  6
Continuous
 62
     7
100
AcDbLine
 10
374.253125
 20
138.0375
 30
0.0
 11
374.284375
 21
138.06875
 31
0.0
  0
LINE
  5
4DF
330
22
100
AcDbEntity
  8
0
  6
Continuous
 62
     7
100
AcDbLine
 10
374.284375
 20
138.06875
 30
0.0
 11
375.0375
 21
137.890625
 31
0.0
  0
LINE
  5
4E0
330
22
100
AcDbEntity
  8
0
  6
Continuous
 62
     7
100
AcDbLine
 10
375.0375
 20
137.890625
 30
0.0
 11
375.09375
 21
137.871875
 31
0.0
  0
LINE
  5
4E1
330
22
100
AcDbEntity
  8
0
  6
Continuous
 62
     7
100
AcDbLine
 10
375.09375
 20
137.871875
 30
0.0
 11
375.378125
 21
137.81875
 31
0.0
  0
LINE
  5
4E2
330
22
100
AcDbEntity
  8
0
  6
Continuous
 62
     7
100
AcDbLine
 10
375.378125
 20
137.81875
 30
0.0
 11
375.596875
 21
137.81875
 31
0.0
  0
LINE
  5
4E3
330
22
100
AcDbEntity
  8
0
  6
Continuous
 62
     7
100
AcDbLine
 10
375.596875
 20
137.81875
 30
0.0
 11
375.815625
 21
137.94375
 31
0.0
  0
LINE
  5
4E4
330
22
100
AcDbEntity
  8
0
  6
Continuous
 62
     7
100
AcDbLine
 10
375.815625
 20
137.94375
 30
0.0
 11
375.878125
 21
138.06875
 31
0.0
  0
LINE
  5
4E5
330
22
100
AcDbEntity
  8
0
  6
Continuous
 62
     7
100
AcDbLine
 10
375.878125
 20
138.06875
 30
0.0
 11
375.878125
 21
138.2875
 31
0.0
  0
LINE
  5
4E6
330
22
100
AcDbEntity
  8
0
  6
Continuous
 62
     7
100
AcDbLine
 10
375.878125
 20
138.2875
 30
0.0
 11
375.8375
 21
138.378125
 31
0.0
  0
LINE
  5
4E7
330
22
100
AcDbEntity
  8
0
  6
Continuous
 62
     7
100
AcDbLine
 10
375.8375
 20
138.378125
 30
0.0
 11
375.6359375
 21
139.0296875
 31
0.0
  0
LINE
  5
4E8
330
22
100
AcDbEntity
  8
0
  6
Continuous
 62
     7
100
AcDbLine
 10
375.6359375
 20
139.0296875
 30
0.0
 11
376.1295173125
 21
138.98892328125
 31
0.0
  0
LINE
  5
4E9
330
22
100
AcDbEntity
  8
0
  6
Continuous
 62
     7
100
AcDbLine
 10
376.1295173125
 20
138.98892328125
 30
0.0
 11
377.003125
 21
138.88125
 31
0.0
  0
LINE
  5
4EA
330
22
100
AcDbEntity
  8
0
  6
Continuous
 62
     7
100
AcDbLine
 10
377.003125
 20
138.88125
 30
0.0
 11
377.159375
 21
138.9125
 31
0.0
  0
LINE
  5
4EB
330
22
100
AcDbEntity
  8
0
  6
Continuous
 62
     7
100
AcDbLine
 10
377.159375
 20
138.9125
 30
0.0
 11
377.353125
 21
139.128125
 31
0.0
  0
LINE
  5
4EC
330
22
100
AcDbEntity
  8
0
  6
Continuous
 62
     7
100
AcDbLine
 10
377.353125
 20
139.128125
 30
0.0
 11
377.378125
 21
139.1625
 31
0.0
  0
LINE
  5
4ED
330
22
100
AcDbEntity
  8
0
  6
Continuous
 62
     7
100
AcDbLine
 10
377.378125
 20
139.1625
 30
0.0
 11
377.378125
 21
139.31875
 31
0.0
  0
LINE
  5
4EE
330
22
100
AcDbEntity
  8
0
  6
Continuous
 62
     7
100
AcDbLine
 10
377.378125
 20
139.31875
 30
0.0
 11
377.3093750000001
 21
139.471875
 31
0.0
  0
LINE
  5
4EF
330
22
100
AcDbEntity
  8
0
  6
Continuous
 62
     7
100
AcDbLine
 10
377.3093750000001
 20
139.471875
 30
0.0
 11
377.196875
 21
139.6656249999999
 31
0.0
  0
LINE
  5
4F0
330
22
100
AcDbEntity
  8
0
  6
Continuous
 62
     7
100
AcDbLine
 10
377.196875
 20
139.6656249999999
 30
0.0
 11
376.854375
 21
140.168125
 31
0.0
  0
LINE
  5
4F1
330
22
100
AcDbEntity
  8
0
  6
Continuous
 62
     7
100
AcDbLine
 10
376.854375
 20
140.168125
 30
0.0
 11
376.8392530625
 21
140.1876524375
 31
0.0
  0
LINE
  5
4F2
330
22
100
AcDbEntity
  8
0
  6
Continuous
 62
     7
100
AcDbLine
 10
376.8392530625
 20
140.1876524375
 30
0.0
 11
376.690625
 21
140.38125
 31
0.0
  0
LINE
  5
4F3
330
22
100
AcDbEntity
  8
0
  6
Continuous
 62
     7
100
AcDbLine
 10
376.690625
 20
140.38125
 30
0.0
 11
376.721875
 21
140.4125
 31
0.0
  0
LINE
  5
4F4
330
22
100
AcDbEntity
  8
0
  6
Continuous
 62
     7
100
AcDbLine
 10
376.721875
 20
140.4125
 30
0.0
 11
377.7552365
 21
140.5560810937499
 31
0.0
  0
LINE
  5
4F5
330
22
100
AcDbEntity
  8
0
  6
Continuous
 62
     7
100
AcDbLine
 10
377.7552365
 20
140.5560810937499
 30
0.0
 11
377.9072635
 21
140.58141890625
 31
0.0
  0
LINE
  5
4F6
330
22
100
AcDbEntity
  8
0
  6
Continuous
 62
     7
100
AcDbLine
 10
377.9072635
 20
140.58141890625
 30
0.0
 11
378.28125
 21
140.671875
 31
0.0
  0
LINE
  5
4F7
330
22
100
AcDbEntity
  8
0
  6
Continuous
 62
     7
100
AcDbLine
 10
378.28125
 20
140.671875
 30
0.0
 11
378.31875
 21
140.684375
 31
0.0
  0
LINE
  5
4F8
330
22
100
AcDbEntity
  8
0
  6
Continuous
 62
     7
100
AcDbLine
 10
378.31875
 20
140.684375
 30
0.0
 11
378.471875
 21
140.725
 31
0.0
  0
LINE
  5
4F9
330
22
100
AcDbEntity
  8
0
  6
Continuous
 62
     7
100
AcDbLine
 10
378.471875
 20
140.725
 30
0.0
 11
378.628125
 21
140.9125
 31
0.0
  0
LINE
  5
4FA
330
22
100
AcDbEntity
  8
0
  6
Continuous
 62
     7
100
AcDbLine
 10
378.628125
 20
140.9125
 30
0.0
 11
378.628125
 21
141.13125
 31
0.0
  0
LINE
  5
4FB
330
22
100
AcDbEntity
  8
0
  6
Continuous
 62
     7
100
AcDbLine
 10
378.628125
 20
141.13125
 30
0.0
 11
378.58966346875
 21
141.1889423125
 31
0.0
  0
LINE
  5
4FC
330
22
100
AcDbEntity
  8
0
  6
Continuous
 62
     7
100
AcDbLine
 10
378.58966346875
 20
141.1889423125
 30
0.0
 11
378.54158653125
 21
141.2610576875
 31
0.0
  0
LINE
  5
4FD
330
22
100
AcDbEntity
  8
0
  6
Continuous
 62
     7
100
AcDbLine
 10
378.54158653125
 20
141.2610576875
 30
0.0
 11
378.346875
 21
141.475
 31
0.0
  0
LINE
  5
4FE
330
22
100
AcDbEntity
  8
0
  6
Continuous
 62
     7
100
AcDbLine
 10
378.346875
 20
141.475
 30
0.0
 11
377.96625
 21
141.74875
 31
0.0
  0
LINE
  5
4FF
330
22
100
AcDbEntity
  8
0
  6
Continuous
 62
     7
100
AcDbLine
 10
377.96625
 20
141.74875
 30
0.0
 11
377.7266826875
 21
141.88846153125
 31
0.0
  0
LINE
  5
500
330
22
100
AcDbEntity
  8
0
  6
Continuous
 62
     7
100
AcDbLine
 10
377.7266826875
 20
141.88846153125
 30
0.0
 11
377.596875
 21
141.975
 31
0.0
  0
LINE
  5
501
330
22
100
AcDbEntity
  8
0
  6
Continuous
 62
     7
100
AcDbLine
 10
377.596875
 20
141.975
 30
0.0
 11
378.0720286875001
 21
142.3423155625
 31
0.0
  0
LINE
  5
502
330
22
100
AcDbEntity
  8
0
  6
Continuous
 62
     7
100
AcDbLine
 10
378.0720286875001
 20
142.3423155625
 30
0.0
 11
378.690625
 21
142.975
 31
0.0
  0
LINE
  5
503
330
22
100
AcDbEntity
  8
0
  6
Continuous
 62
     7
100
AcDbLine
 10
378.690625
 20
142.975
 30
0.0
 11
379.028125
 21
143.5718749999999
 31
0.0
  0
LINE
  5
504
330
22
100
AcDbEntity
  8
0
  6
Continuous
 62
     7
100
AcDbLine
 10
379.028125
 20
143.5718749999999
 30
0.0
 11
379.3875
 21
144.3781249999999
 31
0.0
  0
LINE
  5
505
330
22
100
AcDbEntity
  8
0
  6
Continuous
 62
     7
100
AcDbLine
 10
379.3875
 20
144.3781249999999
 30
0.0
 11
379.440625
 21
144.5375
 31
0.0
  0
LINE
  5
506
330
22
100
AcDbEntity
  8
0
  6
Continuous
 62
     7
100
AcDbLine
 10
379.440625
 20
144.5375
 30
0.0
 11
379.42139421875
 21
144.60240384375
 31
0.0
  0
LINE
  5
507
330
22
100
AcDbEntity
  8
0
  6
Continuous
 62
     7
100
AcDbLine
 10
379.42139421875
 20
144.60240384375
 30
0.0
 11
379.35408653125
 21
144.7923076875
 31
0.0
  0
LINE
  5
508
330
22
100
AcDbEntity
  8
0
  6
Continuous
 62
     7
100
AcDbLine
 10
379.35408653125
 20
144.7923076875
 30
0.0
 11
379.253125
 21
144.9125
 31
0.0
  0
LINE
  5
509
330
22
100
AcDbEntity
  8
0
  6
Continuous
 62
     7
100
AcDbLine
 10
379.253125
 20
144.9125
 30
0.0
 11
379.19375
 21
144.921875
 31
0.0
  0
LINE
  5
50A
330
22
100
AcDbEntity
  8
0
  6
Continuous
 62
     7
100
AcDbLine
 10
379.19375
 20
144.921875
 30
0.0
 11
378.909375
 21
144.975
 31
0.0
  0
LINE
  5
50B
330
22
100
AcDbEntity
  8
0
  6
Continuous
 62
     7
100
AcDbLine
 10
378.909375
 20
144.975
 30
0.0
 11
378.96466346875
 21
145.0735576875
 31
0.0
  0
LINE
  5
50C
330
22
100
AcDbEntity
  8
0
  6
Continuous
 62
     7
100
AcDbLine
 10
378.96466346875
 20
145.0735576875
 30
0.0
 11
379.1483455937501
 21
145.54025734375
 31
0.0
  0
LINE
  5
50D
330
22
100
AcDbEntity
  8
0
  6
Continuous
 62
     7
100
AcDbLine
 10
379.1483455937501
 20
145.54025734375
 30
0.0
 11
379.228125
 21
145.784375
 31
0.0
  0
LINE
  5
50E
330
22
100
AcDbEntity
  8
0
  6
Continuous
 62
     7
100
AcDbLine
 10
379.228125
 20
145.784375
 30
0.0
 11
379.32665440625
 21
146.09724265625
 31
0.0
  0
LINE
  5
50F
330
22
100
AcDbEntity
  8
0
  6
Continuous
 62
     7
100
AcDbLine
 10
379.32665440625
 20
146.09724265625
 30
0.0
 11
379.39014421875
 21
146.50384615625
 31
0.0
  0
LINE
  5
510
330
22
100
AcDbEntity
  8
0
  6
Continuous
 62
     7
100
AcDbLine
 10
379.39014421875
 20
146.50384615625
 30
0.0
 11
379.503125
 21
147.7875
 31
0.0
  0
LINE
  5
511
330
22
100
AcDbEntity
  8
0
  6
Continuous
 62
     7
100
AcDbLine
 10
379.503125
 20
147.7875
 30
0.0
 11
379.503125
 21
148.1
 31
0.0
  0
LINE
  5
512
330
22
100
AcDbEntity
  8
0
  6
Continuous
 62
     7
100
AcDbLine
 10
379.503125
 20
148.1
 30
0.0
 11
379.409375
 21
148.225
 31
0.0
  0
LINE
  5
513
330
22
100
AcDbEntity
  8
0
  6
Continuous
 62
     7
100
AcDbLine
 10
379.409375
 20
148.225
 30
0.0
 11
379.315625
 21
148.31875
 31
0.0
  0
LINE
  5
514
330
22
100
AcDbEntity
  8
0
  6
Continuous
 62
     7
100
AcDbLine
 10
379.315625
 20
148.31875
 30
0.0
 11
379.0109375
 21
148.2953125
 31
0.0
  0
LINE
  5
515
330
22
100
AcDbEntity
  8
0
  6
Continuous
 62
     7
100
AcDbLine
 10
379.0109375
 20
148.2953125
 30
0.0
 11
379.034375
 21
148.69375
 31
0.0
  0
LINE
  5
516
330
22
100
AcDbEntity
  8
0
  6
Continuous
 62
     7
100
AcDbLine
 10
379.034375
 20
148.69375
 30
0.0
 11
378.89735578125
 21
149.97259615625
 31
0.0
  0
LINE
  5
517
330
22
100
AcDbEntity
  8
0
  6
Continuous
 62
     7
100
AcDbLine
 10
378.89735578125
 20
149.97259615625
 30
0.0
 11
378.8093750000001
 21
150.284375
 31
0.0
  0
LINE
  5
518
330
22
100
AcDbEntity
  8
0
  6
Continuous
 62
     7
100
AcDbLine
 10
378.8093750000001
 20
150.284375
 30
0.0
 11
378.784375
 21
150.35
 31
0.0
  0
LINE
  5
519
330
22
100
AcDbEntity
  8
0
  6
Continuous
 62
     7
100
AcDbLine
 10
378.784375
 20
150.35
 30
0.0
 11
378.63125
 21
150.45
 31
0.0
  0
LINE
  5
51A
330
22
100
AcDbEntity
  8
0
  6
Continuous
 62
     7
100
AcDbLine
 10
378.63125
 20
150.45
 30
0.0
 11
378.596875
 21
150.475
 31
0.0
  0
LINE
  5
51B
330
22
100
AcDbEntity
  8
0
  6
Continuous
 62
     7
100
AcDbLine
 10
378.596875
 20
150.475
 30
0.0
 11
378.440625
 21
150.475
 31
0.0
  0
LINE
  5
51C
330
22
100
AcDbEntity
  8
0
  6
Continuous
 62
     7
100
AcDbLine
 10
378.440625
 20
150.475
 30
0.0
 11
378.315625
 21
150.4125
 31
0.0
  0
LINE
  5
51D
330
22
100
AcDbEntity
  8
0
  6
Continuous
 62
     7
100
AcDbLine
 10
378.315625
 20
150.4125
 30
0.0
 11
378.2921875
 21
150.4203125
 31
0.0
  0
LINE
  5
51E
330
22
100
AcDbEntity
  8
0
  6
Continuous
 62
     7
100
AcDbLine
 10
378.2921875
 20
150.4203125
 30
0.0
 11
378.20985578125
 21
150.84759615625
 31
0.0
  0
LINE
  5
51F
330
22
100
AcDbEntity
  8
0
  6
Continuous
 62
     7
100
AcDbLine
 10
378.20985578125
 20
150.84759615625
 30
0.0
 11
377.9343750000001
 21
151.784375
 31
0.0
  0
LINE
  5
520
330
22
100
AcDbEntity
  8
0
  6
Continuous
 62
     7
100
AcDbLine
 10
377.9343750000001
 20
151.784375
 30
0.0
 11
377.815625
 21
152.00625
 31
0.0
  0
LINE
  5
521
330
22
100
AcDbEntity
  8
0
  6
Continuous
 62
     7
100
AcDbLine
 10
377.815625
 20
152.00625
 30
0.0
 11
377.725
 21
152.046875
 31
0.0
  0
LINE
  5
522
330
22
100
AcDbEntity
  8
0
  6
Continuous
 62
     7
100
AcDbLine
 10
377.725
 20
152.046875
 30
0.0
 11
377.690625
 21
152.06875
 31
0.0
  0
LINE
  5
523
330
22
100
AcDbEntity
  8
0
  6
Continuous
 62
     7
100
AcDbLine
 10
377.690625
 20
152.06875
 30
0.0
 11
377.471875
 21
152.06875
 31
0.0
  0
LINE
  5
524
330
22
100
AcDbEntity
  8
0
  6
Continuous
 62
     7
100
AcDbLine
 10
377.471875
 20
152.06875
 30
0.0
 11
377.3829326875
 21
151.99903846875
 31
0.0
  0
LINE
  5
525
330
22
100
AcDbEntity
  8
0
  6
Continuous
 62
     7
100
AcDbLine
 10
377.3829326875
 20
151.99903846875
 30
0.0
 11
377.315625
 21
151.94375
 31
0.0
  0
LINE
  5
526
330
22
100
AcDbEntity
  8
0
  6
Continuous
 62
     7
100
AcDbLine
 10
377.315625
 20
151.94375
 30
0.0
 11
377.028125
 21
152.628125
 31
0.0
  0
LINE
  5
527
330
22
100
AcDbEntity
  8
0
  6
Continuous
 62
     7
100
AcDbLine
 10
377.028125
 20
152.628125
 30
0.0
 11
376.821875
 21
153.0406249999999
 31
0.0
  0
LINE
  5
528
330
22
100
AcDbEntity
  8
0
  6
Continuous
 62
     7
100
AcDbLine
 10
376.821875
 20
153.0406249999999
 30
0.0
 11
376.635625
 21
153.3556249999999
 31
0.0
  0
LINE
  5
529
330
22
100
AcDbEntity
  8
0
  6
Continuous
 62
     7
100
AcDbLine
 10
376.635625
 20
153.3556249999999
 30
0.0
 11
376.41658653125
 21
153.6673076875
 31
0.0
  0
LINE
  5
52A
330
22
100
AcDbEntity
  8
0
  6
Continuous
 62
     7
100
AcDbLine
 10
376.41658653125
 20
153.6673076875
 30
0.0
 11
376.221875
 21
153.94375
 31
0.0
  0
LINE
  5
52B
330
22
100
AcDbEntity
  8
0
  6
Continuous
 62
     7
100
AcDbLine
 10
376.221875
 20
153.94375
 30
0.0
 11
376.00625
 21
154.1375
 31
0.0
  0
LINE
  5
52C
330
22
100
AcDbEntity
  8
0
  6
Continuous
 62
     7
100
AcDbLine
 10
376.00625
 20
154.1375
 30
0.0
 11
375.971875
 21
154.1625
 31
0.0
  0
LINE
  5
52D
330
22
100
AcDbEntity
  8
0
  6
Continuous
 62
     7
100
AcDbLine
 10
375.971875
 20
154.1625
 30
0.0
 11
375.753125
 21
154.1625
 31
0.0
  0
LINE
  5
52E
330
22
100
AcDbEntity
  8
0
  6
Continuous
 62
     7
100
AcDbLine
 10
375.753125
 20
154.1625
 30
0.0
 11
375.659375
 21
154.1
 31
0.0
  0
LINE
  5
52F
330
22
100
AcDbEntity
  8
0
  6
Continuous
 62
     7
100
AcDbLine
 10
375.659375
 20
154.1
 30
0.0
 11
375.503125
 21
153.85
 31
0.0
  0
LINE
  5
530
330
22
100
AcDbEntity
  8
0
  6
Continuous
 62
     7
100
AcDbLine
 10
375.503125
 20
153.85
 30
0.0
 11
375.471875
 21
153.85
 31
0.0
  0
LINE
  5
531
330
22
100
AcDbEntity
  8
0
  6
Continuous
 62
     7
100
AcDbLine
 10
375.471875
 20
153.85
 30
0.0
 11
375.128125
 21
154.19375
 31
0.0
  0
LINE
  5
532
330
22
100
AcDbEntity
  8
0
  6
Continuous
 62
     7
100
AcDbLine
 10
375.128125
 20
154.19375
 30
0.0
 11
375.128125
 21
154.225
 31
0.0
  0
LINE
  5
533
330
22
100
AcDbEntity
  8
0
  6
Continuous
 62
     7
100
AcDbLine
 10
375.128125
 20
154.225
 30
0.0
 11
374.909375
 21
154.44375
 31
0.0
  0
LINE
  5
534
330
22
100
AcDbEntity
  8
0
  6
Continuous
 62
     7
100
AcDbLine
 10
374.909375
 20
154.44375
 30
0.0
 11
374.1858173125
 21
154.99903846875
 31
0.0
  0
LINE
  5
535
330
22
100
AcDbEntity
  8
0
  6
Continuous
 62
     7
100
AcDbLine
 10
374.1858173125
 20
154.99903846875
 30
0.0
 11
373.9670673125
 21
155.15528846875
 31
0.0
  0
LINE
  5
536
330
22
100
AcDbEntity
  8
0
  6
Continuous
 62
     7
100
AcDbLine
 10
373.9670673125
 20
155.15528846875
 30
0.0
 11
373.25625
 21
155.54375
 31
0.0
  0
LINE
  5
537
330
22
100
AcDbEntity
  8
0
  6
Continuous
 62
     7
100
AcDbLine
 10
373.25625
 20
155.54375
 30
0.0
 11
373.0625
 21
155.625
 31
0.0
  0
LINE
  5
538
330
22
100
AcDbEntity
  8
0
  6
Continuous
 62
     7
100
AcDbLine
 10
373.0625
 20
155.625
 30
0.0
 11
372.71875
 21
155.746875
 31
0.0
  0
LINE
  5
539
330
22
100
AcDbEntity
  8
0
  6
Continuous
 62
     7
100
AcDbLine
 10
372.71875
 20
155.746875
 30
0.0
 11
372.475
 21
155.828125
 31
0.0
  0
LINE
  5
53A
330
22
100
AcDbEntity
  8
0
  6
Continuous
 62
     7
100
AcDbLine
 10
372.475
 20
155.828125
 30
0.0
 11
372.190625
 21
155.9125
 31
0.0
  0
LINE
  5
53B
330
22
100
AcDbEntity
  8
0
  6
Continuous
 62
     7
100
AcDbLine
 10
372.190625
 20
155.9125
 30
0.0
 11
371.940625
 21
155.9125
 31
0.0
  0
LINE
  5
53C
330
22
100
AcDbEntity
  8
0
  6
Continuous
 62
     7
100
AcDbLine
 10
371.940625
 20
155.9125
 30
0.0
 11
371.878125
 21
155.88125
 31
0.0
  0
LINE
  5
53D
330
22
100
AcDbEntity
  8
0
  6
Continuous
 62
     7
100
AcDbLine
 10
371.878125
 20
155.88125
 30
0.0
 11
371.753125
 21
155.75625
 31
0.0
  0
LINE
  5
53E
330
22
100
AcDbEntity
  8
0
  6
Continuous
 62
     7
100
AcDbLine
 10
371.753125
 20
155.75625
 30
0.0
 11
371.721875
 21
155.5375
 31
0.0
  0
LINE
  5
53F
330
22
100
AcDbEntity
  8
0
  6
Continuous
 62
     7
100
AcDbLine
 10
371.721875
 20
155.5375
 30
0.0
 11
371.79158653125
 21
155.4173076875
 31
0.0
  0
LINE
  5
540
330
22
100
AcDbEntity
  8
0
  6
Continuous
 62
     7
100
AcDbLine
 10
371.79158653125
 20
155.4173076875
 30
0.0
 11
372.2767530625
 21
154.8126524375
 31
0.0
  0
LINE
  5
541
330
22
100
AcDbEntity
  8
0
  6
Continuous
 62
     7
100
AcDbLine
 10
372.2767530625
 20
154.8126524375
 30
0.0
 11
372.853125
 21
154.009375
 31
0.0
  0
LINE
  5
542
330
22
100
AcDbEntity
  8
0
  6
Continuous
 62
     7
100
AcDbLine
 10
372.853125
 20
154.009375
 30
0.0
 11
373.1343750000001
 21
153.446875
 31
0.0
  0
LINE
  5
543
330
22
100
AcDbEntity
  8
0
  6
Continuous
 62
     7
100
AcDbLine
 10
373.1343750000001
 20
153.446875
 30
0.0
 11
373.4
 21
152.8781249999999
 31
0.0
  0
LINE
  5
544
330
22
100
AcDbEntity
  8
0
  6
Continuous
 62
     7
100
AcDbLine
 10
373.4
 20
152.8781249999999
 30
0.0
 11
373.66875
 21
152.103125
 31
0.0
  0
LINE
  5
545
330
22
100
AcDbEntity
  8
0
  6
Continuous
 62
     7
100
AcDbLine
 10
373.66875
 20
152.103125
 30
0.0
 11
373.77125
 21
151.660625
 31
0.0
  0
LINE
  5
546
330
22
100
AcDbEntity
  8
0
  6
Continuous
 62
     7
100
AcDbLine
 10
373.77125
 20
151.660625
 30
0.0
 11
373.7975
 21
151.476875
 31
0.0
  0
LINE
  5
547
330
22
100
AcDbEntity
  8
0
  6
Continuous
 62
     7
100
AcDbLine
 10
373.7975
 20
151.476875
 30
0.0
 11
373.846875
 21
150.7875
 31
0.0
  0
LINE
  5
548
330
22
100
AcDbEntity
  8
0
  6
Continuous
 62
     7
100
AcDbLine
 10
373.846875
 20
150.7875
 30
0.0
 11
373.74110578125
 21
149.75865384375
 31
0.0
  0
LINE
  5
549
330
22
100
AcDbEntity
  8
0
  6
Continuous
 62
     7
100
AcDbLine
 10
373.74110578125
 20
149.75865384375
 30
0.0
 11
373.67860578125
 21
149.47740384375
 31
0.0
  0
LINE
  5
54A
330
22
100
AcDbEntity
  8
0
  6
Continuous
 62
     7
100
AcDbLine
 10
373.67860578125
 20
149.47740384375
 30
0.0
 11
373.40216346875
 21
148.8235576875
 31
0.0
  0
LINE
  5
54B
330
22
100
AcDbEntity
  8
0
  6
Continuous
 62
     7
100
AcDbLine
 10
373.40216346875
 20
148.8235576875
 30
0.0
 11
372.94783653125
 21
148.1264423125
 31
0.0
  0
LINE
  5
54C
330
22
100
AcDbEntity
  8
0
  6
Continuous
 62
     7
100
AcDbLine
 10
372.94783653125
 20
148.1264423125
 30
0.0
 11
371.79217475
 21
146.8738835625
 31
0.0
  0
LINE
  5
54D
330
22
100
AcDbEntity
  8
0
  6
Continuous
 62
     7
100
AcDbLine
 10
371.79217475
 20
146.8738835625
 30
0.0
 11
371.2767530625
 21
146.3248475625
 31
0.0
  0
LINE
  5
54E
330
22
100
AcDbEntity
  8
0
  6
Continuous
 62
     7
100
AcDbLine
 10
371.2767530625
 20
146.3248475625
 30
0.0
 11
370.7906250000001
 21
145.659375
 31
0.0
  0
LINE
  5
54F
330
22
100
AcDbEntity
  8
POW
  6
Continuous
100
AcDbLine
 10
370.7906250000001
 20
145.659375
 30
0.0
 11
370.74591346875
 21
145.5735576875
 31
0.0
  0
LINE
  5
550
330
22
100
AcDbEntity
  8
0
  6
Continuous
 62
     7
100
AcDbLine
 10
370.74591346875
 20
145.5735576875
 30
0.0
 11
370.565625
 21
145.1
 31
0.0
  0
LINE
  5
551
330
22
100
AcDbEntity
  8
0
  6
Continuous
 62
     7
100
AcDbLine
 10
370.565625
 20
145.1
 30
0.0
 11
370.565625
 21
144.5375
 31
0.0
  0
LINE
  5
552
330
22
100
AcDbEntity
  8
0
  6
Continuous
 62
     7
100
AcDbLine
 10
370.565625
 20
144.5375
 30
0.0
 11
370.6375
 21
144.384375
 31
0.0
  0
LINE
  5
553
330
22
100
AcDbEntity
  8
POW
  6
Continuous
100
AcDbLine
 10
370.6375
 20
144.384375
 30
0.0
 11
370.6531250000001
 21
144.346875
 31
0.0
  0
LINE
  5
554
330
22
100
AcDbEntity
  8
0
  6
Continuous
 62
     7
100
AcDbLine
 10
370.6531250000001
 20
144.346875
 30
0.0
 11
370.8232469375
 21
144.0748475625
 31
0.0
  0
LINE
  5
555
330
22
100
AcDbEntity
  8
0
  6
Continuous
 62
     7
100
AcDbLine
 10
370.8232469375
 20
144.0748475625
 30
0.0
 11
371.034375
 21
143.7875
 31
0.0
  0
LINE
  5
556
330
22
100
AcDbEntity
  8
0
  6
Continuous
 62
     7
100
AcDbLine
 10
371.034375
 20
143.7875
 30
0.0
 11
371.065625
 21
143.7875
 31
0.0
  0
LINE
  5
557
330
22
100
AcDbEntity
  8
0
  6
Continuous
 62
     7
100
AcDbLine
 10
371.065625
 20
143.7875
 30
0.0
 11
371.228125
 21
143.5406249999999
 31
0.0
  0
LINE
  5
571
330
22
100
AcDbEntity
  8
POW
  6
Continuous
100
AcDbLine
 10
367.446875
 20
143.5031249999999
 30
0.0
 11
367.4625
 21
143.5406249999999
 31
0.0
  0
LINE
  5
572
330
22
100
AcDbEntity
  8
0
  6
Continuous
 62
     7
100
AcDbLine
 10
367.4625
 20
143.5406249999999
 30
0.0
 11
367.80784196875
 21
143.9508844375
 31
0.0
  0
LINE
  5
573
330
22
100
AcDbEntity
  8
0
  6
Continuous
 62
     7
100
AcDbLine
 10
367.80784196875
 20
143.9508844375
 30
0.0
 11
368.025
 21
144.290625
 31
0.0
  0
LINE
  5
574
330
22
100
AcDbEntity
  8
POW
  6
Continuous
100
AcDbLine
 10
368.025
 20
144.290625
 30
0.0
 11
368.04375
 21
144.346875
 31
0.0
  0
LINE
  5
575
330
22
100
AcDbEntity
  8
0
  6
Continuous
 62
     7
100
AcDbLine
 10
368.04375
 20
144.346875
 30
0.0
 11
368.128125
 21
144.6
 31
0.0
  0
LINE
  5
576
330
22
100
AcDbEntity
  8
0
  6
Continuous
 62
     7
100
AcDbLine
 10
368.128125
 20
144.6
 30
0.0
 11
368.128125
 21
145.13125
 31
0.0
  0
LINE
  5
577
330
22
100
AcDbEntity
  8
0
  6
Continuous
 62
     7
100
AcDbLine
 10
368.128125
 20
145.13125
 30
0.0
 11
368.08584559375
 21
145.25349265625
 31
0.0
  0
LINE
  5
578
330
22
100
AcDbEntity
  8
0
  6
Continuous
 62
     7
100
AcDbLine
 10
368.08584559375
 20
145.25349265625
 30
0.0
 11
368.0093750000001
 21
145.446875
 31
0.0
  0
LINE
  5
579
330
22
100
AcDbEntity
  8
0
  6
Continuous
 62
     7
100
AcDbLine
 10
368.0093750000001
 20
145.446875
 30
0.0
 11
367.69783653125
 21
145.9798076875
 31
0.0
  0
LINE
  5
57A
330
22
100
AcDbEntity
  8
POW
  6
Continuous
100
AcDbLine
 10
367.69783653125
 20
145.9798076875
 30
0.0
 11
367.47908653125
 21
146.2610576875
 31
0.0
  0
LINE
  5
57B
330
22
100
AcDbEntity
  8
0
  6
Continuous
 62
     7
100
AcDbLine
 10
367.47908653125
 20
146.2610576875
 30
0.0
 11
366.4171819375
 21
147.38876778125
 31
0.0
  0
LINE
  5
57C
330
22
100
AcDbEntity
  8
0
  6
Continuous
 62
     7
100
AcDbLine
 10
366.4171819375
 20
147.38876778125
 30
0.0
 11
365.854618375
 21
148.0130254375
 31
0.0
  0
LINE
  5
57D
330
22
100
AcDbEntity
  8
0
  6
Continuous
 62
     7
100
AcDbLine
 10
365.854618375
 20
148.0130254375
 30
0.0
 11
365.46466346875
 21
148.5326923125
 31
0.0
  0
LINE
  5
57E
330
22
100
AcDbEntity
  8
0
  6
Continuous
 62
     7
100
AcDbLine
 10
365.46466346875
 20
148.5326923125
 30
0.0
 11
365.33966346875
 21
148.7201923125
 31
0.0
  0
LINE
  5
57F
330
22
100
AcDbEntity
  8
0
  6
Continuous
 62
     7
100
AcDbLine
 10
365.33966346875
 20
148.7201923125
 30
0.0
 11
365.0906250000001
 21
149.221875
 31
0.0
  0
LINE
  5
580
330
22
100
AcDbEntity
  8
0
  6
Continuous
 62
     7
100
AcDbLine
 10
365.0906250000001
 20
149.221875
 30
0.0
 11
365.059375
 21
149.284375
 31
0.0
  0
LINE
  5
581
330
22
100
AcDbEntity
  8
0
  6
Continuous
 62
     7
100
AcDbLine
 10
365.059375
 20
149.284375
 30
0.0
 11
364.89158653125
 21
149.9454326875
 31
0.0
  0
LINE
  5
582
330
22
100
AcDbEntity
  8
0
  6
Continuous
 62
     7
100
AcDbLine
 10
364.89158653125
 20
149.9454326875
 30
0.0
 11
364.86466346875
 21
150.1608173125
 31
0.0
  0
LINE
  5
583
330
22
100
AcDbEntity
  8
0
  6
Continuous
 62
     7
100
AcDbLine
 10
364.86466346875
 20
150.1608173125
 30
0.0
 11
364.846875
 21
150.19375
 31
0.0
  0
LINE
  5
584
330
22
100
AcDbEntity
  8
0
  6
Continuous
 62
     7
100
AcDbLine
 10
364.846875
 20
150.19375
 30
0.0
 11
364.846875
 21
151.1
 31
0.0
  0
LINE
  5
585
330
22
100
AcDbEntity
  8
0
  6
Continuous
 62
     7
100
AcDbLine
 10
364.846875
 20
151.1
 30
0.0
 11
364.98290440625
 21
151.97224265625
 31
0.0
  0
LINE
  5
586
330
22
100
AcDbEntity
  8
0
  6
Continuous
 62
     7
100
AcDbLine
 10
364.98290440625
 20
151.97224265625
 30
0.0
 11
365.10625
 21
152.409375
 31
0.0
  0
LINE
  5
587
330
22
100
AcDbEntity
  8
0
  6
Continuous
 62
     7
100
AcDbLine
 10
365.10625
 20
152.409375
 30
0.0
 11
365.415625
 21
153.159375
 31
0.0
  0
LINE
  5
588
330
22
100
AcDbEntity
  8
0
  6
Continuous
 62
     7
100
AcDbLine
 10
365.415625
 20
153.159375
 30
0.0
 11
365.5281250000001
 21
153.3843749999999
 31
0.0
  0
LINE
  5
589
330
22
100
AcDbEntity
  8
0
  6
Continuous
 62
     7
100
AcDbLine
 10
365.5281250000001
 20
153.3843749999999
 30
0.0
 11
366.153125
 21
154.4781249999999
 31
0.0
  0
LINE
  5
58A
330
22
100
AcDbEntity
  8
0
  6
Continuous
 62
     7
100
AcDbLine
 10
366.153125
 20
154.4781249999999
 30
0.0
 11
366.666875
 21
155.2193749999999
 31
0.0
  0
LINE
  5
58B
330
22
100
AcDbEntity
  8
0
  6
Continuous
 62
     7
100
AcDbLine
 10
366.666875
 20
155.2193749999999
 30
0.0
 11
366.846875
 21
155.44375
 31
0.0
  0
LINE
  5
58C
330
22
100
AcDbEntity
  8
0
  6
Continuous
 62
     7
100
AcDbLine
 10
366.846875
 20
155.44375
 30
0.0
 11
366.846875
 21
155.6625
 31
0.0
  0
LINE
  5
58D
330
22
100
AcDbEntity
  8
0
  6
Continuous
 62
     7
100
AcDbLine
 10
366.846875
 20
155.6625
 30
0.0
 11
366.815625
 21
155.75625
 31
0.0
  0
LINE
  5
58E
330
22
100
AcDbEntity
  8
0
  6
Continuous
 62
     7
100
AcDbLine
 10
366.815625
 20
155.75625
 30
0.0
 11
366.69375
 21
155.85625
 31
0.0
  0
LINE
  5
58F
330
22
100
AcDbEntity
  8
0
  6
Continuous
 62
     7
100
AcDbLine
 10
366.69375
 20
155.85625
 30
0.0
 11
366.659375
 21
155.88125
 31
0.0
  0
LINE
  5
590
330
22
100
AcDbEntity
  8
0
  6
Continuous
 62
     7
100
AcDbLine
 10
366.659375
 20
155.88125
 30
0.0
 11
366.378125
 21
155.88125
 31
0.0
  0
LINE
  5
591
330
22
100
AcDbEntity
  8
0
  6
Continuous
 62
     7
100
AcDbLine
 10
366.378125
 20
155.88125
 30
0.0
 11
366.2558823437501
 21
155.83897059375
 31
0.0
  0
LINE
  5
592
330
22
100
AcDbEntity
  8
0
  6
Continuous
 62
     7
100
AcDbLine
 10
366.2558823437501
 20
155.83897059375
 30
0.0
 11
365.9375
 21
155.73125
 31
0.0
  0
LINE
  5
593
330
22
100
AcDbEntity
  8
0
  6
Continuous
 62
     7
100
AcDbLine
 10
365.9375
 20
155.73125
 30
0.0
 11
365.1641826875
 21
155.34278846875
 31
0.0
  0
LINE
  5
594
330
22
100
AcDbEntity
  8
0
  6
Continuous
 62
     7
100
AcDbLine
 10
365.1641826875
 20
155.34278846875
 30
0.0
 11
364.53125
 21
154.9812499999999
 31
0.0
  0
LINE
  5
595
330
22
100
AcDbEntity
  8
0
  6
Continuous
 62
     7
100
AcDbLine
 10
364.53125
 20
154.9812499999999
 30
0.0
 11
364.0295673125
 21
154.63846153125
 31
0.0
  0
LINE
  5
596
330
22
100
AcDbEntity
  8
0
  6
Continuous
 62
     7
100
AcDbLine
 10
364.0295673125
 20
154.63846153125
 30
0.0
 11
363.7462284375
 21
154.389008625
 31
0.0
  0
LINE
  5
597
330
22
100
AcDbEntity
  8
0
  6
Continuous
 62
     7
100
AcDbLine
 10
363.7462284375
 20
154.389008625
 30
0.0
 11
363.190625
 21
153.81875
 31
0.0
  0
LINE
  5
598
330
22
100
AcDbEntity
  8
0
  6
Continuous
 62
     7
100
AcDbLine
 10
363.190625
 20
153.81875
 30
0.0
 11
363.159375
 21
153.85
 31
0.0
  0
LINE
  5
599
330
22
100
AcDbEntity
  8
0
  6
Continuous
 62
     7
100
AcDbLine
 10
363.159375
 20
153.85
 30
0.0
 11
363.159375
 21
153.94375
 31
0.0
  0
LINE
  5
59A
330
22
100
AcDbEntity
  8
0
  6
Continuous
 62
     7
100
AcDbLine
 10
363.159375
 20
153.94375
 30
0.0
 11
362.971875
 21
154.13125
 31
0.0
  0
LINE
  5
59B
330
22
100
AcDbEntity
  8
0
  6
Continuous
 62
     7
100
AcDbLine
 10
362.971875
 20
154.13125
 30
0.0
 11
362.721875
 21
154.13125
 31
0.0
  0
LINE
  5
59C
330
22
100
AcDbEntity
  8
0
  6
Continuous
 62
     7
100
AcDbLine
 10
362.721875
 20
154.13125
 30
0.0
 11
362.471875
 21
153.94375
 31
0.0
  0
LINE
  5
59D
330
22
100
AcDbEntity
  8
0
  6
Continuous
 62
     7
100
AcDbLine
 10
362.471875
 20
153.94375
 30
0.0
 11
362.229633625
 21
153.6556034375
 31
0.0
  0
LINE
  5
59E
330
22
100
AcDbEntity
  8
0
  6
Continuous
 62
     7
100
AcDbLine
 10
362.229633625
 20
153.6556034375
 30
0.0
 11
361.978125
 21
153.221875
 31
0.0
  0
LINE
  5
59F
330
22
100
AcDbEntity
  8
0
  6
Continuous
 62
     7
100
AcDbLine
 10
361.978125
 20
153.221875
 30
0.0
 11
361.840625
 21
152.978125
 31
0.0
  0
LINE
  5
5A0
330
22
100
AcDbEntity
  8
0
  6
Continuous
 62
     7
100
AcDbLine
 10
361.840625
 20
152.978125
 30
0.0
 11
361.378125
 21
151.94375
 31
0.0
  0
LINE
  5
5A1
330
22
100
AcDbEntity
  8
0
  6
Continuous
 62
     7
100
AcDbLine
 10
361.378125
 20
151.94375
 30
0.0
 11
361.225
 21
152.04375
 31
0.0
  0
LINE
  5
5A2
330
22
100
AcDbEntity
  8
0
  6
Continuous
 62
     7
100
AcDbLine
 10
361.225
 20
152.04375
 30
0.0
 11
361.190625
 21
152.06875
 31
0.0
  0
LINE
  5
5A3
330
22
100
AcDbEntity
  8
0
  6
Continuous
 62
     7
100
AcDbLine
 10
361.190625
 20
152.06875
 30
0.0
 11
360.971875
 21
152.06875
 31
0.0
  0
LINE
  5
5A4
330
22
100
AcDbEntity
  8
0
  6
Continuous
 62
     7
100
AcDbLine
 10
360.971875
 20
152.06875
 30
0.0
 11
360.909375
 21
152.0375
 31
0.0
  0
LINE
  5
5A5
330
22
100
AcDbEntity
  8
0
  6
Continuous
 62
     7
100
AcDbLine
 10
360.909375
 20
152.0375
 30
0.0
 11
360.753125
 21
151.88125
 31
0.0
  0
LINE
  5
5A6
330
22
100
AcDbEntity
  8
0
  6
Continuous
 62
     7
100
AcDbLine
 10
360.753125
 20
151.88125
 30
0.0
 11
360.6375
 21
151.440625
 31
0.0
  0
LINE
  5
5A7
330
22
100
AcDbEntity
  8
0
  6
Continuous
 62
     7
100
AcDbLine
 10
360.6375
 20
151.440625
 30
0.0
 11
360.57665440625
 21
151.25349265625
 31
0.0
  0
LINE
  5
5A8
330
22
100
AcDbEntity
  8
0
  6
Continuous
 62
     7
100
AcDbLine
 10
360.57665440625
 20
151.25349265625
 30
0.0
 11
360.378125
 21
150.38125
 31
0.0
  0
LINE
  5
5A9
330
22
100
AcDbEntity
  8
0
  6
Continuous
 62
     7
100
AcDbLine
 10
360.378125
 20
150.38125
 30
0.0
 11
360.35
 21
150.3875
 31
0.0
  0
LINE
  5
5AA
330
22
100
AcDbEntity
  8
0
  6
Continuous
 62
     7
100
AcDbLine
 10
360.35
 20
150.3875
 30
0.0
 11
360.315625
 21
150.4125
 31
0.0
  0
LINE
  5
5AB
330
22
100
AcDbEntity
  8
0
  6
Continuous
 62
     7
100
AcDbLine
 10
360.315625
 20
150.4125
 30
0.0
 11
360.034375
 21
150.4125
 31
0.0
  0
LINE
  5
5AC
330
22
100
AcDbEntity
  8
0
  6
Continuous
 62
     7
100
AcDbLine
 10
360.034375
 20
150.4125
 30
0.0
 11
359.846875
 21
150.225
 31
0.0
  0
LINE
  5
5AD
330
22
100
AcDbEntity
  8
0
  6
Continuous
 62
     7
100
AcDbLine
 10
359.846875
 20
150.225
 30
0.0
 11
359.76658653125
 21
149.7858173125
 31
0.0
  0
LINE
  5
5AE
330
22
100
AcDbEntity
  8
0
  6
Continuous
 62
     7
100
AcDbLine
 10
359.76658653125
 20
149.7858173125
 30
0.0
 11
359.73966346875
 21
149.5704326875
 31
0.0
  0
LINE
  5
5AF
330
22
100
AcDbEntity
  8
0
  6
Continuous
 62
     7
100
AcDbLine
 10
359.73966346875
 20
149.5704326875
 30
0.0
 11
359.67413675
 21
148.8179730625
 31
0.0
  0
LINE
  5
5B0
330
22
100
AcDbEntity
  8
0
  6
Continuous
 62
     7
100
AcDbLine
 10
359.67413675
 20
148.8179730625
 30
0.0
 11
359.659375
 21
148.25625
 31
0.0
  0
LINE
  5
5B1
330
22
100
AcDbEntity
  8
0
  6
Continuous
 62
     7
100
AcDbLine
 10
359.659375
 20
148.25625
 30
0.0
 11
359.40625
 21
148.16875
 31
0.0
  0
LINE
  5
5B2
330
22
100
AcDbEntity
  8
0
  6
Continuous
 62
     7
100
AcDbLine
 10
359.40625
 20
148.16875
 30
0.0
 11
359.253125
 21
148.0375
 31
0.0
  0
LINE
  5
5B3
330
22
100
AcDbEntity
  8
0
  6
Continuous
 62
     7
100
AcDbLine
 10
359.253125
 20
148.0375
 30
0.0
 11
359.190625
 21
147.85
 31
0.0
  0
LINE
  5
5B4
330
22
100
AcDbEntity
  8
0
  6
Continuous
 62
     7
100
AcDbLine
 10
359.190625
 20
147.85
 30
0.0
 11
359.190625
 21
147.31875
 31
0.0
  0
LINE
  5
5B5
330
22
100
AcDbEntity
  8
0
  6
Continuous
 62
     7
100
AcDbLine
 10
359.190625
 20
147.31875
 30
0.0
 11
359.29540440625
 21
146.50900734375
 31
0.0
  0
LINE
  5
5B6
330
22
100
AcDbEntity
  8
0
  6
Continuous
 62
     7
100
AcDbLine
 10
359.29540440625
 20
146.50900734375
 30
0.0
 11
359.33584559375
 21
146.31599265625
 31
0.0
  0
LINE
  5
5B7
330
22
100
AcDbEntity
  8
0
  6
Continuous
 62
     7
100
AcDbLine
 10
359.33584559375
 20
146.31599265625
 30
0.0
 11
359.509375
 21
145.634375
 31
0.0
  0
LINE
  5
5B8
330
22
100
AcDbEntity
  8
0
  6
Continuous
 62
     7
100
AcDbLine
 10
359.509375
 20
145.634375
 30
0.0
 11
359.55459559375
 21
145.50349265625
 31
0.0
  0
LINE
  5
5B9
330
22
100
AcDbEntity
  8
0
  6
Continuous
 62
     7
100
AcDbLine
 10
359.55459559375
 20
145.50349265625
 30
0.0
 11
359.784375
 21
144.94375
 31
0.0
  0
LINE
  5
5BA
330
22
100
AcDbEntity
  8
0
  6
Continuous
 62
     7
100
AcDbLine
 10
359.784375
 20
144.94375
 30
0.0
 11
359.4045673125001
 21
144.85721153125
 31
0.0
  0
LINE
  5
5BB
330
22
100
AcDbEntity
  8
0
  6
Continuous
 62
     7
100
AcDbLine
 10
359.4045673125001
 20
144.85721153125
 30
0.0
 11
359.284375
 21
144.75625
 31
0.0
  0
LINE
  5
5BC
330
22
100
AcDbEntity
  8
0
  6
Continuous
 62
     7
100
AcDbLine
 10
359.284375
 20
144.75625
 30
0.0
 11
359.2781250000001
 21
144.728125
 31
0.0
  0
LINE
  5
5BD
330
22
100
AcDbEntity
  8
0
  6
Continuous
 62
     7
100
AcDbLine
 10
359.2781250000001
 20
144.728125
 30
0.0
 11
359.253125
 21
144.69375
 31
0.0
  0
LINE
  5
5BE
330
22
100
AcDbEntity
  8
0
  6
Continuous
 62
     7
100
AcDbLine
 10
359.253125
 20
144.69375
 30
0.0
 11
359.253125
 21
144.50625
 31
0.0
  0
LINE
  5
5BF
330
22
100
AcDbEntity
  8
0
  6
Continuous
 62
     7
100
AcDbLine
 10
359.253125
 20
144.50625
 30
0.0
 11
359.29540440625
 21
144.38400734375
 31
0.0
  0
LINE
  5
5C0
330
22
100
AcDbEntity
  8
0
  6
Continuous
 62
     7
100
AcDbLine
 10
359.29540440625
 20
144.38400734375
 30
0.0
 11
359.403125
 21
144.0656249999999
 31
0.0
  0
LINE
  5
5C1
330
22
100
AcDbEntity
  8
0
  6
Continuous
 62
     7
100
AcDbLine
 10
359.403125
 20
144.0656249999999
 30
0.0
 11
359.88533653125
 21
143.1673076875
 31
0.0
  0
LINE
  5
5C2
330
22
100
AcDbEntity
  8
0
  6
Continuous
 62
     7
100
AcDbLine
 10
359.88533653125
 20
143.1673076875
 30
0.0
 11
360.01033653125
 21
142.9798076875
 31
0.0
  0
LINE
  5
5C3
330
22
100
AcDbEntity
  8
0
  6
Continuous
 62
     7
100
AcDbLine
 10
360.01033653125
 20
142.9798076875
 30
0.0
 11
360.503125
 21
142.4125
 31
0.0
  0
LINE
  5
5C4
330
22
100
AcDbEntity
  8
0
  6
Continuous
 62
     7
100
AcDbLine
 10
360.503125
 20
142.4125
 30
0.0
 11
360.5295673125
 21
142.40528846875
 31
0.0
  0
LINE
  5
5C5
330
22
100
AcDbEntity
  8
0
  6
Continuous
 62
     7
100
AcDbLine
 10
360.5295673125
 20
142.40528846875
 30
0.0
 11
360.690625
 21
142.2875
 31
0.0
  0
LINE
  5
5C6
330
22
100
AcDbEntity
  8
0
  6
Continuous
 62
     7
100
AcDbLine
 10
360.690625
 20
142.2875
 30
0.0
 11
360.690625
 21
142.25625
 31
0.0
  0
LINE
  5
5C7
330
22
100
AcDbEntity
  8
0
  6
Continuous
 62
     7
100
AcDbLine
 10
360.690625
 20
142.25625
 30
0.0
 11
360.875
 21
142.125
 31
0.0
  0
LINE
  5
5C8
330
22
100
AcDbEntity
  8
0
  6
Continuous
 62
     7
100
AcDbLine
 10
360.875
 20
142.125
 30
0.0
 11
360.9125
 21
142.10625
 31
0.0
  0
LINE
  5
5C9
330
22
100
AcDbEntity
  8
0
  6
Continuous
 62
     7
100
AcDbLine
 10
360.9125
 20
142.10625
 30
0.0
 11
361.003125
 21
142.06875
 31
0.0
  0
LINE
  5
5CA
330
22
100
AcDbEntity
  8
0
  6
Continuous
 62
     7
100
AcDbLine
 10
361.003125
 20
142.06875
 30
0.0
 11
361.096875
 21
141.975
 31
0.0
  0
LINE
  5
5CB
330
22
100
AcDbEntity
  8
0
  6
Continuous
 62
     7
100
AcDbLine
 10
361.096875
 20
141.975
 30
0.0
 11
360.5704326875
 21
141.62403846875
 31
0.0
  0
LINE
  5
5CC
330
22
100
AcDbEntity
  8
0
  6
Continuous
 62
     7
100
AcDbLine
 10
360.5704326875
 20
141.62403846875
 30
0.0
 11
360.4983173125
 21
141.57596153125
 31
0.0
  0
LINE
  5
5CD
330
22
100
AcDbEntity
  8
0
  6
Continuous
 62
     7
100
AcDbLine
 10
360.4983173125
 20
141.57596153125
 30
0.0
 11
360.378125
 21
141.50625
 31
0.0
  0
LINE
  5
5CE
330
22
100
AcDbEntity
  8
0
  6
Continuous
 62
     7
100
AcDbLine
 10
360.378125
 20
141.50625
 30
0.0
 11
360.128125
 21
141.25625
 31
0.0
  0
LINE
  5
5CF
330
22
100
AcDbEntity
  8
0
  6
Continuous
 62
     7
100
AcDbLine
 10
360.128125
 20
141.25625
 30
0.0
 11
360.103125
 21
141.190625
 31
0.0
  0
LINE
  5
5D0
330
22
100
AcDbEntity
  8
0
  6
Continuous
 62
     7
100
AcDbLine
 10
360.103125
 20
141.190625
 30
0.0
 11
360.090625
 21
141.165625
 31
0.0
  0
LINE
  5
5D1
330
22
100
AcDbEntity
  8
0
  6
Continuous
 62
     7
100
AcDbLine
 10
360.090625
 20
141.165625
 30
0.0
 11
360.065625
 21
141.13125
 31
0.0
  0
LINE
  5
5D2
330
22
100
AcDbEntity
  8
0
  6
Continuous
 62
     7
100
AcDbLine
 10
360.065625
 20
141.13125
 30
0.0
 11
360.065625
 21
140.88125
 31
0.0
  0
LINE
  5
5D3
330
22
100
AcDbEntity
  8
0
  6
Continuous
 62
     7
100
AcDbLine
 10
360.065625
 20
140.88125
 30
0.0
 11
360.25
 21
140.71875
 31
0.0
  0
LINE
  5
5D4
330
22
100
AcDbEntity
  8
0
  6
Continuous
 62
     7
100
AcDbLine
 10
360.25
 20
140.71875
 30
0.0
 11
360.3125
 21
140.6875
 31
0.0
  0
LINE
  5
5D5
330
22
100
AcDbEntity
  8
0
  6
Continuous
 62
     7
100
AcDbLine
 10
360.3125
 20
140.6875
 30
0.0
 11
360.9385135
 21
140.5560810937499
 31
0.0
  0
LINE
  5
5D6
330
22
100
AcDbEntity
  8
0
  6
Continuous
 62
     7
100
AcDbLine
 10
360.9385135
 20
140.5560810937499
 30
0.0
 11
361.6610576875
 21
140.45721153125
 31
0.0
  0
LINE
  5
5D7
330
22
100
AcDbEntity
  8
0
  6
Continuous
 62
     7
100
AcDbLine
 10
361.6610576875
 20
140.45721153125
 30
0.0
 11
361.971875
 21
140.4125
 31
0.0
  0
LINE
  5
5D8
330
22
100
AcDbEntity
  8
0
  6
Continuous
 62
     7
100
AcDbLine
 10
361.971875
 20
140.4125
 30
0.0
 11
362.003125
 21
140.38125
 31
0.0
  0
LINE
  5
5D9
330
22
100
AcDbEntity
  8
0
  6
Continuous
 62
     7
100
AcDbLine
 10
362.003125
 20
140.38125
 30
0.0
 11
361.870625
 21
140.1993749999999
 31
0.0
  0
LINE
  5
5DA
330
22
100
AcDbEntity
  8
0
  6
Continuous
 62
     7
100
AcDbLine
 10
361.870625
 20
140.1993749999999
 30
0.0
 11
361.791875
 21
140.094375
 31
0.0
  0
LINE
  5
5DB
330
22
100
AcDbEntity
  8
0
  6
Continuous
 62
     7
100
AcDbLine
 10
361.791875
 20
140.094375
 30
0.0
 11
361.38533653125
 21
139.5014423125
 31
0.0
  0
LINE
  5
5DC
330
22
100
AcDbEntity
  8
0
  6
Continuous
 62
     7
100
AcDbLine
 10
361.38533653125
 20
139.5014423125
 30
0.0
 11
361.371875
 21
139.478125
 31
0.0
  0
LINE
  5
5DD
330
22
100
AcDbEntity
  8
0
  6
Continuous
 62
     7
100
AcDbLine
 10
361.371875
 20
139.478125
 30
0.0
 11
361.315625
 21
139.38125
 31
0.0
  0
LINE
  5
5DE
330
22
100
AcDbEntity
  8
0
  6
Continuous
 62
     7
100
AcDbLine
 10
361.315625
 20
139.38125
 30
0.0
 11
361.315625
 21
139.13125
 31
0.0
  0
LINE
  5
5DF
330
22
100
AcDbEntity
  8
0
  6
Continuous
 62
     7
100
AcDbLine
 10
361.315625
 20
139.13125
 30
0.0
 11
361.440625
 21
138.975
 31
0.0
  0
LINE
  5
5E0
330
22
100
AcDbEntity
  8
0
  6
Continuous
 62
     7
100
AcDbLine
 10
361.440625
 20
138.975
 30
0.0
 11
361.46875
 21
138.96875
 31
0.0
  0
LINE
  5
5E1
330
22
100
AcDbEntity
  8
0
  6
Continuous
 62
     7
100
AcDbLine
 10
361.46875
 20
138.96875
 30
0.0
 11
361.565625
 21
138.9125
 31
0.0
  0
LINE
  5
5E2
330
22
100
AcDbEntity
  8
0
  6
Continuous
 62
     7
100
AcDbLine
 10
361.565625
 20
138.9125
 30
0.0
 11
361.971875
 21
138.9125
 31
0.0
  0
LINE
  5
5E3
330
22
100
AcDbEntity
  8
0
  6
Continuous
 62
     7
100
AcDbLine
 10
361.971875
 20
138.9125
 30
0.0
 11
362.31665609375
 21
138.96056471875
 31
0.0
  0
LINE
  5
5E4
330
22
100
AcDbEntity
  8
0
  6
Continuous
 62
     7
100
AcDbLine
 10
362.31665609375
 20
138.96056471875
 30
0.0
 11
363.0578125
 21
139.0296875
 31
0.0
  0
LINE
  5
5E5
330
22
100
AcDbEntity
  8
0
  6
Continuous
 62
     7
100
AcDbLine
 10
363.0578125
 20
139.0296875
 30
0.0
 11
362.86875
 21
138.478125
 31
0.0
  0
LINE
  5
5E6
330
22
100
AcDbEntity
  8
0
  6
Continuous
 62
     7
100
AcDbLine
 10
362.86875
 20
138.478125
 30
0.0
 11
362.778125
 21
138.228125
 31
0.0
  0
LINE
  5
5E7
330
22
100
AcDbEntity
  8
0
  6
Continuous
 62
     7
100
AcDbLine
 10
362.778125
 20
138.228125
 30
0.0
 11
362.753125
 21
138.19375
 31
0.0
  0
LINE
  5
5E8
330
22
100
AcDbEntity
  8
0
  6
Continuous
 62
     7
100
AcDbLine
 10
362.753125
 20
138.19375
 30
0.0
 11
362.784375
 21
137.975
 31
0.0
  0
LINE
  5
5E9
330
22
100
AcDbEntity
  8
0
  6
Continuous
 62
     7
100
AcDbLine
 10
362.784375
 20
137.975
 30
0.0
 11
362.8725
 21
137.905
 31
0.0
  0
LINE
  5
5EA
330
22
100
AcDbEntity
  8
0
  6
Continuous
 62
     7
100
AcDbLine
 10
362.8725
 20
137.905
 30
0.0
 11
362.971875
 21
137.81875
 31
0.0
  0
LINE
  5
5EB
330
22
100
AcDbEntity
  8
0
  6
Continuous
 62
     7
100
AcDbLine
 10
362.971875
 20
137.81875
 30
0.0
 11
363.346875
 21
137.81875
 31
0.0
  0
LINE
  5
5EC
330
22
100
AcDbEntity
  8
0
  6
Continuous
 62
     7
100
AcDbLine
 10
363.346875
 20
137.81875
 30
0.0
 11
364.378125
 21
138.06875
 31
0.0
  0
LINE
  5
5ED
330
22
100
AcDbEntity
  8
0
  6
Continuous
 62
     7
100
AcDbLine
 10
364.378125
 20
138.06875
 30
0.0
 11
364.409375
 21
138.0375
 31
0.0
  0
LINE
  5
5EE
330
22
100
AcDbEntity
  8
0
  6
Continuous
 62
     7
100
AcDbLine
 10
364.409375
 20
138.0375
 30
0.0
 11
364.35790440625
 21
137.78474265625
 31
0.0
  0
LINE
  5
5EF
330
22
100
AcDbEntity
  8
0
  6
Continuous
 62
     7
100
AcDbLine
 10
364.35790440625
 20
137.78474265625
 30
0.0
 11
364.33584559375
 21
137.69650734375
 31
0.0
  0
LINE
  5
5F0
330
22
100
AcDbEntity
  8
0
  6
Continuous
 62
     7
100
AcDbLine
 10
364.33584559375
 20
137.69650734375
 30
0.0
 11
364.284375
 21
137.50625
 31
0.0
  0
LINE
  5
5F1
330
22
100
AcDbEntity
  8
0
  6
Continuous
 62
     7
100
AcDbLine
 10
364.284375
 20
137.50625
 30
0.0
 11
364.284375
 21
137.06875
 31
0.0
  0
LINE
  5
5F2
330
22
100
AcDbEntity
  8
0
  6
Continuous
 62
     7
100
AcDbLine
 10
364.284375
 20
137.06875
 30
0.0
 11
364.346875
 21
136.975
 31
0.0
  0
LINE
  5
5F3
330
22
100
AcDbEntity
  8
0
  6
Continuous
 62
     7
100
AcDbLine
 10
364.346875
 20
136.975
 30
0.0
 11
364.440625
 21
136.88125
 31
0.0
  0
LINE
  5
5F4
330
22
100
AcDbEntity
  8
0
  6
Continuous
 62
     7
100
AcDbLine
 10
364.440625
 20
136.88125
 30
0.0
 11
364.721875
 21
136.85
 31
0.0
  0
LINE
  5
5F5
330
22
100
AcDbEntity
  8
0
  6
Continuous
 62
     7
100
AcDbLine
 10
364.721875
 20
136.85
 30
0.0
 11
365.21875
 21
137.0125
 31
0.0
  0
LINE
  5
5F6
330
22
100
AcDbEntity
  8
0
  6
Continuous
 62
     7
100
AcDbLine
 10
365.21875
 20
137.0125
 30
0.0
 11
365.25625
 21
137.03125
 31
0.0
  0
LINE
  5
5F7
330
22
100
AcDbEntity
  8
0
  6
Continuous
 62
     7
100
AcDbLine
 10
365.25625
 20
137.03125
 30
0.0
 11
365.690625
 21
137.225
 31
0.0
  0
LINE
  5
5F8
330
22
100
AcDbEntity
  8
0
  6
Continuous
 62
     7
100
AcDbLine
 10
365.690625
 20
137.225
 30
0.0
 11
365.721875
 21
137.19375
 31
0.0
  0
LINE
  5
5F9
330
22
100
AcDbEntity
  8
0
  6
Continuous
 62
     7
100
AcDbLine
 10
365.721875
 20
137.19375
 30
0.0
 11
365.16875
 21
135.596875
 31
0.0
  0
LINE
  5
5FA
330
22
100
AcDbEntity
  8
0
  6
Continuous
 62
     7
100
AcDbLine
 10
365.16875
 20
135.596875
 30
0.0
 11
364.99375
 21
135.0718749999999
 31
0.0
  0
LINE
  5
5FB
330
22
100
AcDbEntity
  8
0
  6
Continuous
 62
     7
100
AcDbLine
 10
364.99375
 20
135.0718749999999
 30
0.0
 11
364.815625
 21
134.56875
 31
0.0
  0
LINE
  5
5FC
330
22
100
AcDbEntity
  8
0
  6
Continuous
 62
     7
100
AcDbLine
 10
364.815625
 20
134.56875
 30
0.0
 11
364.878125
 21
134.35
 31
0.0
  0
LINE
  5
5FD
330
22
100
AcDbEntity
  8
0
  6
Continuous
 62
     7
100
AcDbLine
 10
364.878125
 20
134.35
 30
0.0
 11
364.9358173125
 21
134.31153846875
 31
0.0
  0
LINE
  5
5FE
330
22
100
AcDbEntity
  8
0
  6
Continuous
 62
     7
100
AcDbLine
 10
364.9358173125
 20
134.31153846875
 30
0.0
 11
365.0625
 21
134.246875
 31
0.0
  0
LINE
  5
5FF
330
22
100
AcDbEntity
  8
0
  6
Continuous
 62
     7
100
AcDbLine
 10
365.0625
 20
134.246875
 30
0.0
 11
365.190625
 21
134.225
 31
0.0
  0
LINE
  5
600
330
22
100
AcDbEntity
  8
0
  6
Continuous
 62
     7
100
AcDbLine
 10
365.190625
 20
134.225
 30
0.0
 11
365.225
 21
134.246875
 31
0.0
  0
LINE
  5
601
330
22
100
AcDbEntity
  8
0
  6
Continuous
 62
     7
100
AcDbLine
 10
365.225
 20
134.246875
 30
0.0
 11
365.7475
 21
134.57625
 31
0.0
  0
LINE
  5
602
330
22
100
AcDbEntity
  8
0
  6
Continuous
 62
     7
100
AcDbLine
 10
365.7475
 20
134.57625
 30
0.0
 11
367.4045673125001
 21
135.70096153125
 31
0.0
  0
LINE
  5
603
330
22
100
AcDbEntity
  8
0
  6
Continuous
 62
     7
100
AcDbLine
 10
367.4045673125001
 20
135.70096153125
 30
0.0
 11
369.378125
 21
137.021875
 31
0.0
  0
LINE
  5
604
330
22
100
AcDbEntity
  8
0
  6
Continuous
 62
     7
100
AcDbLine
 10
369.378125
 20
137.021875
 30
0.0
 11
369.4125
 21
137.0125
 31
0.0
  0
LINE
  5
605
330
22
100
AcDbEntity
  8
0
  6
Continuous
 62
     7
100
AcDbLine
 10
369.4125
 20
137.0125
 30
0.0
 11
373.3420673125
 21
134.28028846875
 31
0.0
  0
LINE
  5
606
330
22
100
AcDbEntity
  8
0
  6
Continuous
 62
     7
100
AcDbLine
 10
373.3420673125
 20
134.28028846875
 30
0.0
 11
373.41488971875
 21
134.2470588125
 31
0.0
  0
LINE
  5
607
330
22
100
AcDbEntity
  8
0
  6
Continuous
 62
     7
100
AcDbLine
 10
373.41488971875
 20
134.2470588125
 30
0.0
 11
373.596875
 21
134.225
 31
0.0
  0
ARC
  5
609
330
22
100
AcDbEntity
  8
0
  6
Continuous
 62
     7
100
AcDbCircle
 10
369.3291210624218
 20
143.8263130736755
 30
0.0
 40
2.255074911023694
100
AcDbArc
 50
188.1595499372833
 51
352.6417765743
  0
ARC
  5
60A
330
22
100
AcDbEntity
  8
0
  6
Continuous
 62
     7
100
AcDbCircle
 10
369.3317718940843
 20
144.0994590131715
 30
0.0
 40
1.976980160900385
100
AcDbArc
 50
197.5560625978839
 51
343.5803453598428
  0
LWPOLYLINE
  5
1262
330
22
100
AcDbEntity
  8
SHIELD
  6
Continuous
100
AcDbPolyline
 90
       62
 70
     0
 43
0.0
 10
369.3910580628761
 20
140.8513437922623
 10
370.4519955628761
 20
141.2779062922623
 10
371.1707455628761
 20
141.6200937922623
 10
371.3769955628761
 20
141.7232187922623
 10
372.0816068441261
 20
142.2069078235123
 10
372.4259625628761
 20
142.5193206672623
 10
372.6761797503761
 20
142.7698310735124
 10
372.9497470941261
 20
143.0887675735123
 10
373.0598080628761
 20
143.2904062922624
 10
373.1223080628761
 20
143.3997812922623
 10
373.2457455628761
 20
143.6810312922624
 10
373.2863705628761
 20
143.7872812922623
 10
373.3910580628761
 20
144.1013437922623
 10
373.3910580628761
 20
150.2263437922623
 10
373.3754330628761
 20
150.2419687922623
 10
372.8144955628761
 20
150.0497812922623
 10
372.7676205628761
 20
150.0341562922623
 10
372.3143117347512
 20
149.9083290891373
 10
371.6723080628761
 20
149.8200937922623
 10
371.4379330628761
 20
149.8200937922623
 10
371.0480042191262
 20
149.8583054328873
 10
370.9231494066261
 20
149.8736995578873
 10
370.6424367347511
 20
149.9349834953873
 10
370.6238705628761
 20
149.9404062922623
 10
370.3457455628761
 20
150.0419687922623
 10
370.2644955628761
 20
150.0825937922623
 10
369.9715869066261
 20
150.2455745578873
 10
369.8413705628762
 20
150.3319687922623
 10
369.6879330628761
 20
150.4450937922623
 10
369.4066830628762
 20
150.7575937922623
 10
369.3801205628761
 20
150.7638437922623
 10
369.3257455628761
 20
150.7300937922623
 10
369.2035580628762
 20
150.6169687922623
 10
369.1996863753761
 20
150.6047315110123
 10
369.0004330628761
 20
150.3825937922623
 10
368.7051205628761
 20
150.1763437922623
 10
368.3584293910011
 20
150.0131084953873
 10
368.2021793910011
 20
149.9662334953874
 10
367.7360099847512
 20
149.8609591828873
 10
367.4696140941261
 20
149.8440161985123
 10
367.0316830628761
 20
149.8357187922623
 10
366.7351965316261
 20
149.8587246672623
 10
366.2358638128761
 20
149.9358032453873
 10
366.0330617347511
 20
149.9818584953873
 10
365.5613705628761
 20
150.0966562922623
 10
365.5146793910011
 20
150.1114540891373
 10
365.4379330628761
 20
150.1325937922623
 10
365.3754330628761
 20
150.0700937922623
 10
365.3754330628761
 20
144.0857187922623
 10
365.5035580628761
 20
143.7122812922623
 10
365.5207455628761
 20
143.6654062922623
 10
365.7223080628761
 20
143.2747812922623
 10
365.7316830628762
 20
143.2560312922623
 10
365.9654330628761
 20
142.9266562922623
 10
366.1098080628761
 20
142.7575937922623
 10
366.3598080628761
 20
142.5075937922623
 10
366.6751205628762
 20
142.2457187922623
 10
366.8157455628762
 20
142.1363437922623
 10
367.2332455628761
 20
141.8482187922623
 10
367.4988705628761
 20
141.6919687922623
 10
368.4707455628761
 20
141.1997812922623
 10
369.3910580628761
 20
140.8513437922623
  0
LWPOLYLINE
  5
1263
330
22
100
AcDbEntity
  8
SHIELD
  6
Continuous
100
AcDbPolyline
 90
       69
 70
     0
 43
0.0
 10
369.3754330628761
 20
140.4450937922623
 10
370.3582455628761
 20
140.8091562922623
 10
371.5144955628761
 20
141.3700937922623
 10
371.8153369066261
 20
141.5664880266373
 10
372.2317592816261
 20
141.8395297610123
 10
372.3003568441261
 20
141.8944078235123
 10
372.6759777816261
 20
142.2380697141373
 10
372.9261190316261
 20
142.4889200110123
 10
373.1215908441261
 20
142.7295456360123
 10
373.2848080628761
 20
142.9591562922623
 10
373.3473080628761
 20
143.0685312922623
 10
373.4957455628761
 20
143.3372812922623
 10
373.5519955628761
 20
143.4904062922623
 10
373.7191830628761
 20
143.9607187922623
 10
373.7191830628761
 20
150.5857187922623
 10
373.7035580628762
 20
150.6013437922623
 10
373.1113705628761
 20
150.4091562922623
 10
373.0801205628761
 20
150.3950937922623
 10
372.8143117347511
 20
150.3145790891373
 10
372.4525023128761
 20
150.2326782453873
 10
372.3764888128761
 20
150.2200093391373
 10
371.9379330628762
 20
150.1638437922623
 10
371.3441830628761
 20
150.1638437922623
 10
371.1729484378761
 20
150.1865128547623
 10
370.9053043910011
 20
150.2364540891373
 10
370.7986867347511
 20
150.2631084953874
 10
370.4863705628761
 20
150.3716562922623
 10
370.2988705628761
 20
150.4497812922623
 10
370.0965869066261
 20
150.5580745578873
 10
369.8726205628761
 20
150.7069687922623
 10
369.7035580628762
 20
150.8357187922623
 10
369.5785580628761
 20
150.9607187922623
 10
369.4415388285011
 20
151.1349976360123
 10
369.4379330628761
 20
151.1482187922623
 10
369.3926205628761
 20
151.1825937922623
 10
369.3257455628761
 20
151.1519687922623
 10
369.1879330628761
 20
151.0232187922623
 10
369.1840537503761
 20
151.0110420735123
 10
368.9691830628762
 20
150.7732187922623
 10
368.7784812191261
 20
150.6208110110123
 10
368.6551205628761
 20
150.5419687922623
 10
368.6113705628761
 20
150.5200937922623
 10
368.2957455628761
 20
150.3716562922623
 10
368.0457455628761
 20
150.2935312922623
 10
367.6712523128761
 20
150.2170532453873
 10
367.4386292191262
 20
150.1881321516373
 10
366.9535580628761
 20
150.1638437922623
 10
366.7040140472511
 20
150.1867645110124
 10
366.0794955628761
 20
150.2641562922623
 10
365.9678043910011
 20
150.2833290891373
 10
365.1254330628761
 20
150.4919687922623
 10
365.0629330628762
 20
150.4138437922623
 10
365.0629330628762
 20
143.9450937922623
 10
365.1457455628762
 20
143.6654062922623
 10
365.2082455628761
 20
143.4779062922623
 10
365.3629330628761
 20
143.1810312922623
 10
365.4499522972511
 20
143.0364399485123
 10
365.5979940316261
 20
142.8231425735123
 10
365.6528720941261
 20
142.7545450110123
 10
365.9223080628761
 20
142.4294687922623
 10
366.1098080628761
 20
142.2419687922623
 10
366.6126205628761
 20
141.8238437922623
 10
366.8257455628761
 20
141.6757187922623
 10
367.0801205628761
 20
141.5107187922624
 10
367.6082455628761
 20
141.2075937922623
 10
368.0488705628761
 20
140.9810312922623
 10
368.2988705628761
 20
140.8700937922623
 10
369.0957455628761
 20
140.5435312922623
 10
369.3754330628761
 20
140.4450937922623
  0
LINE
  5
1828
330
22
100
AcDbEntity
  8
POW
  6
Continuous
100
AcDbLine
 10
369.030797246781
 20
141.7214484549712
 30
0.0
 11
369.181721621781
 21
141.7326178299712
 31
0.0
  0
ARC
  5
1829
330
22
100
AcDbEntity
  8
POW
  6
Continuous
100
AcDbCircle
 10
369.1009372467811
 20
141.8424215799712
 30
0.0
 40
0.13631625
100
AcDbArc
 50
306.3460169999988
 51
8.153324000000552
  0
ARC
  5
182A
330
22
100
AcDbEntity
  8
POW
  6
Continuous
100
AcDbCircle
 10
368.775962246781
 20
142.0083215799712
 30
0.0
 40
0.4826981250000001
100
AcDbArc
 50
342.3238370000004
 51
17.48644800000009
  0
ARC
  5
182B
330
22
100
AcDbEntity
  8
POW
  6
Continuous
100
AcDbCircle
 10
369.130875371781
 20
142.0231003299712
 30
0.0
 40
0.16760625
100
AcDbArc
 50
50.99843700000132
 51
113.1814969999993
  0
ARC
  5
182C
330
22
100
AcDbEntity
  8
POW
  6
Continuous
100
AcDbCircle
 10
369.1016197467811
 20
142.0666490799712
 30
0.0
 40
0.11647125
100
AcDbArc
 50
108.3803609999985
 51
177.9654829999996
  0
LINE
  5
182D
330
22
100
AcDbEntity
  8
POW
  6
Continuous
100
AcDbLine
 10
368.985214121781
 20
142.0707834549712
 30
0.0
 11
368.973821621781
 21
141.8816259549712
 31
0.0
  0
ARC
  5
182E
330
22
100
AcDbEntity
  8
POW
  6
Continuous
100
AcDbCircle
 10
369.119180996781
 20
141.8431040799712
 30
0.0
 40
0.150373125
100
AcDbArc
 50
165.1584780000002
 51
233.9992020000006
  0
LINE
  5
182F
330
22
100
AcDbEntity
  8
POW
  6
Continuous
100
AcDbLine
 10
369.361192871781
 20
141.7214484549712
 30
0.0
 11
369.4472534967811
 21
141.7214484549712
 31
0.0
  0
ARC
  5
1830
330
22
100
AcDbEntity
  8
POW
  6
Continuous
100
AcDbCircle
 10
369.455075996781
 20
141.7324603299712
 30
0.0
 40
0.013505625
100
AcDbArc
 50
234.5874010000015
 51
50.13974800000012
  0
LINE
  5
1831
330
22
100
AcDbEntity
  8
POW
  6
Continuous
100
AcDbLine
 10
369.4637384967811
 20
141.7428290799712
 30
0.0
 11
369.4637384967811
 21
141.7810097049712
 31
0.0
  0
LINE
  5
1832
330
22
100
AcDbEntity
  8
POW
  6
Continuous
100
AcDbLine
 10
369.4637384967811
 20
141.7810097049712
 30
0.0
 11
369.4637384967811
 21
141.9642872049712
 31
0.0
  0
LINE
  5
1833
330
22
100
AcDbEntity
  8
POW
  6
Continuous
100
AcDbLine
 10
369.4637384967811
 20
141.9642872049712
 30
0.0
 11
369.4637384967811
 21
142.0468565799712
 31
0.0
  0
LINE
  5
1834
330
22
100
AcDbEntity
  8
POW
  6
Continuous
100
AcDbLine
 10
369.4637384967811
 20
142.0468565799712
 30
0.0
 11
369.463160996781
 21
142.0964559549712
 31
0.0
  0
LINE
  5
1835
330
22
100
AcDbEntity
  8
POW
  6
Continuous
100
AcDbLine
 10
369.463160996781
 20
142.0964559549712
 30
0.0
 11
369.4859853717811
 21
142.0989497049712
 31
0.0
  0
ARC
  5
1836
330
22
100
AcDbEntity
  8
POW
  6
Continuous
100
AcDbCircle
 10
369.503074121781
 20
142.1242809549712
 30
0.0
 40
0.030555
100
AcDbArc
 50
236.0061810000011
 51
353.3359600000006
  0
ARC
  5
1837
330
22
100
AcDbEntity
  8
POW
  6
Continuous
100
AcDbCircle
 10
369.520674746781
 20
142.1425378299712
 30
0.0
 40
0.0252525
100
AcDbArc
 50
300.2907329999999
 51
112.9615349999985
  0
LINE
  5
1838
330
22
100
AcDbEntity
  8
POW
  6
Continuous
100
AcDbLine
 10
369.5108309967811
 20
142.1657953299712
 30
0.0
 11
369.3529372467811
 21
142.1657953299712
 31
0.0
  0
LINE
  5
1839
330
22
100
AcDbEntity
  8
POW
  6
Continuous
100
AcDbLine
 10
369.3529372467811
 20
142.1657953299712
 30
0.0
 11
369.3057528717811
 21
142.1657953299712
 31
0.0
  0
ARC
  5
183A
330
22
100
AcDbEntity
  8
POW
  6
Continuous
100
AcDbCircle
 10
369.293546621781
 20
142.1596922049712
 30
0.0
 40
0.013636875
100
AcDbArc
 50
26.54696300000026
 51
272.117660999999
  0
LINE
  5
183B
330
22
100
AcDbEntity
  8
POW
  6
Continuous
100
AcDbLine
 10
369.2940584967811
 20
142.1460553299712
 30
0.0
 11
369.2826266217811
 21
142.1081765799712
 31
0.0
  0
LINE
  5
183C
330
22
100
AcDbEntity
  8
POW
  6
Continuous
100
AcDbLine
 10
369.2826266217811
 20
142.1081765799712
 30
0.0
 11
369.336754121781
 21
142.1088197049712
 31
0.0
  0
ARC
  5
183D
330
22
100
AcDbEntity
  8
POW
  6
Continuous
100
AcDbCircle
 10
369.2931003717811
 20
142.0480509549712
 30
0.0
 40
0.0748125
100
AcDbArc
 50
335.5293929999993
 51
54.31158499999953
  0
LINE
  5
183E
330
22
100
AcDbEntity
  8
POW
  6
Continuous
100
AcDbLine
 10
369.361192871781
 20
142.0170628299712
 30
0.0
 11
369.3498003717811
 21
141.9171290799712
 31
0.0
  0
LINE
  5
183F
330
22
100
AcDbEntity
  8
POW
  6
Continuous
100
AcDbLine
 10
369.3498003717811
 20
141.9171290799712
 30
0.0
 11
369.361192871781
 21
141.7214484549712
 31
0.0
  0
LINE
  5
1840
330
22
100
AcDbEntity
  8
POW
  6
Continuous
100
AcDbLine
 10
369.737171621781
 20
141.7328409549712
 30
0.0
 11
369.8284297467811
 21
141.7379990799712
 31
0.0
  0
LINE
  5
1841
330
22
100
AcDbEntity
  8
POW
  6
Continuous
100
AcDbLine
 10
369.8284297467811
 20
141.7379990799712
 30
0.0
 11
369.8397172467811
 21
141.8119059549712
 31
0.0
  0
LINE
  5
1842
330
22
100
AcDbEntity
  8
POW
  6
Continuous
100
AcDbLine
 10
369.8397172467811
 20
141.8119059549712
 30
0.0
 11
369.8283247467811
 21
141.9001059549712
 31
0.0
  0
LINE
  5
1843
330
22
100
AcDbEntity
  8
POW
  6
Continuous
100
AcDbLine
 10
369.8283247467811
 20
141.9001059549712
 30
0.0
 11
369.8160922467811
 21
141.9458203299712
 31
0.0
  0
LINE
  5
1844
330
22
100
AcDbEntity
  8
POW
  6
Continuous
100
AcDbLine
 10
369.8160922467811
 20
141.9458203299712
 30
0.0
 11
369.850663496781
 21
141.9607172049712
 31
0.0
  0
LINE
  5
1845
330
22
100
AcDbEntity
  8
POW
  6
Continuous
100
AcDbLine
 10
369.850663496781
 20
141.9607172049712
 30
0.0
 11
369.903465371781
 21
141.9607172049712
 31
0.0
  0
ARC
  5
1846
330
22
100
AcDbEntity
  8
POW
  6
Continuous
100
AcDbCircle
 10
369.916222871781
 20
141.9743015799712
 30
0.0
 40
0.0186375
100
AcDbArc
 50
226.7967609999992
 51
38.25990400000031
  0
LINE
  5
1847
330
22
100
AcDbEntity
  8
POW
  6
Continuous
100
AcDbLine
 10
369.930857246781
 20
141.9858384549712
 30
0.0
 11
369.9301353717811
 21
142.0295578299712
 31
0.0
  0
LINE
  5
1848
330
22
100
AcDbEntity
  8
POW
  6
Continuous
100
AcDbLine
 10
369.9301353717811
 20
142.0295578299712
 30
0.0
 11
369.877280996781
 21
142.0290722049712
 31
0.0
  0
ARC
  5
1849
330
22
100
AcDbEntity
  8
POW
  6
Continuous
100
AcDbCircle
 10
369.863224121781
 20
142.0853390799712
 30
0.0
 40
0.057999375
100
AcDbArc
 50
142.449778999999
 51
284.0243020000007
  0
LINE
  5
184A
330
22
100
AcDbEntity
  8
POW
  6
Continuous
100
AcDbLine
 10
369.8172472467811
 20
142.1206847049712
 30
0.0
 11
369.9203178717811
 21
142.1346628299712
 31
0.0
  0
ARC
  5
184B
330
22
100
AcDbEntity
  8
POW
  6
Continuous
100
AcDbCircle
 10
369.8844341217811
 20
142.1556890799712
 30
0.0
 40
0.04158
100
AcDbArc
 50
329.6250680000002
 51
127.728605999999
  0
LINE
  5
184C
330
22
100
AcDbEntity
  8
POW
  6
Continuous
100
AcDbLine
 10
369.8589847467811
 20
142.1885803299712
 30
0.0
 11
369.744062246781
 21
142.1771878299712
 31
0.0
  0
LINE
  5
184D
330
22
100
AcDbEntity
  8
POW
  6
Continuous
100
AcDbLine
 10
369.744062246781
 20
142.1771878299712
 30
0.0
 11
369.690761621781
 21
142.1632228299712
 31
0.0
  0
LINE
  5
184E
330
22
100
AcDbEntity
  8
POW
  6
Continuous
100
AcDbLine
 10
369.690761621781
 20
142.1632228299712
 30
0.0
 11
369.703768496781
 21
142.1411597049712
 31
0.0
  0
LINE
  5
184F
330
22
100
AcDbEntity
  8
POW
  6
Continuous
100
AcDbLine
 10
369.703768496781
 20
142.1411597049712
 30
0.0
 11
369.702994121781
 21
142.1083997049712
 31
0.0
  0
LINE
  5
1850
330
22
100
AcDbEntity
  8
POW
  6
Continuous
100
AcDbLine
 10
369.702994121781
 20
142.1083997049712
 30
0.0
 11
369.737171621781
 21
141.7328409549712
 31
0.0
  0
LINE
  5
1851
330
22
100
AcDbEntity
  8
POW
  6
Continuous
100
AcDbLine
 10
368.848504121781
 20
141.7442465799712
 30
0.0
 11
368.917699121781
 21
141.7589334549712
 31
0.0
  0
LINE
  5
1852
330
22
100
AcDbEntity
  8
POW
  6
Continuous
100
AcDbLine
 10
368.917699121781
 20
141.7589334549712
 30
0.0
 11
368.9222928717811
 21
141.8354390799712
 31
0.0
  0
LINE
  5
1853
330
22
100
AcDbEntity
  8
POW
  6
Continuous
100
AcDbLine
 10
368.9222928717811
 20
141.8354390799712
 30
0.0
 11
368.942308496781
 21
141.9612159549712
 31
0.0
  0
LINE
  5
1854
330
22
100
AcDbEntity
  8
POW
  6
Continuous
100
AcDbLine
 10
368.942308496781
 20
141.9612159549712
 30
0.0
 11
368.973821621781
 21
142.1167472049712
 31
0.0
  0
ARC
  5
1855
330
22
100
AcDbEntity
  8
POW
  6
Continuous
100
AcDbCircle
 10
368.9371766217811
 20
142.1575134549712
 30
0.0
 40
0.054823125
100
AcDbArc
 50
311.9463839999998
 51
100.8338309999991
  0
ARC
  5
1856
330
22
100
AcDbEntity
  8
POW
  6
Continuous
100
AcDbCircle
 10
368.9206653717811
 20
142.1767809549712
 30
0.0
 40
0.035135625
100
AcDbArc
 50
79.81309500000084
 51
220.872152999999
  0
LINE
  5
1857
330
22
100
AcDbEntity
  8
POW
  6
Continuous
100
AcDbLine
 10
368.894087246781
 20
142.1537728299712
 30
0.0
 11
368.882681621781
 21
142.0752984549712
 31
0.0
  0
LINE
  5
1858
330
22
100
AcDbEntity
  8
POW
  6
Continuous
100
AcDbLine
 10
368.882681621781
 20
142.0752984549712
 30
0.0
 11
368.8484647467811
 21
141.9547978299712
 31
0.0
  0
LINE
  5
1859
330
22
100
AcDbEntity
  8
POW
  6
Continuous
100
AcDbLine
 10
368.8484647467811
 20
141.9547978299712
 30
0.0
 11
368.837111621781
 21
142.0891978299712
 31
0.0
  0
ARC
  5
185A
330
22
100
AcDbEntity
  8
POW
  6
Continuous
100
AcDbCircle
 10
368.620693496781
 20
142.1250947049712
 30
0.0
 40
0.21937125
100
AcDbArc
 50
350.5820980000001
 51
26.49943099999954
  0
LINE
  5
185B
330
22
100
AcDbEntity
  8
POW
  6
Continuous
100
AcDbLine
 10
368.8170172467811
 20
142.2229678299712
 30
0.0
 11
368.7383197467811
 21
142.2345047049712
 31
0.0
  0
LINE
  5
185C
330
22
100
AcDbEntity
  8
POW
  6
Continuous
100
AcDbLine
 10
368.7383197467811
 20
142.2345047049712
 30
0.0
 11
368.683706621781
 21
142.2347278299712
 31
0.0
  0
LINE
  5
185D
330
22
100
AcDbEntity
  8
POW
  6
Continuous
100
AcDbLine
 10
368.683706621781
 20
142.2347278299712
 30
0.0
 11
368.6662109967811
 21
142.1958384549712
 31
0.0
  0
LINE
  5
185E
330
22
100
AcDbEntity
  8
POW
  6
Continuous
100
AcDbLine
 10
368.6662109967811
 20
142.1958384549712
 30
0.0
 11
368.6434259967811
 21
141.9852872049712
 31
0.0
  0
LINE
  5
185F
330
22
100
AcDbEntity
  8
POW
  6
Continuous
100
AcDbLine
 10
368.6434259967811
 20
141.9852872049712
 30
0.0
 11
368.608408496781
 21
141.7922972049712
 31
0.0
  0
LINE
  5
1860
330
22
100
AcDbEntity
  8
POW
  6
Continuous
100
AcDbLine
 10
368.608408496781
 20
141.7922972049712
 30
0.0
 11
368.662155371781
 21
141.7906172049712
 31
0.0
  0
ARC
  5
1861
330
22
100
AcDbEntity
  8
POW
  6
Continuous
100
AcDbCircle
 10
368.6788109967811
 20
141.7952897049712
 30
0.0
 40
0.017311875
100
AcDbArc
 50
195.6907669999993
 51
341.1904159999999
  0
LINE
  5
1862
330
22
100
AcDbEntity
  8
POW
  6
Continuous
100
AcDbLine
 10
368.695190996781
 20
141.7897115799712
 30
0.0
 11
368.7120697467811
 21
141.8777278299712
 31
0.0
  0
LINE
  5
1863
330
22
100
AcDbEntity
  8
POW
  6
Continuous
100
AcDbLine
 10
368.7120697467811
 20
141.8777278299712
 30
0.0
 11
368.7345659967811
 21
142.0571334549712
 31
0.0
  0
LINE
  5
1864
330
22
100
AcDbEntity
  8
POW
  6
Continuous
100
AcDbLine
 10
368.7345659967811
 20
142.0571334549712
 30
0.0
 11
368.7397634967811
 21
142.0981228299712
 31
0.0
  0
ARC
  5
1865
330
22
100
AcDbEntity
  8
POW
  6
Continuous
100
AcDbCircle
 10
368.746115996781
 20
142.0845515799712
 30
0.0
 40
0.01498875
100
AcDbArc
 50
318.5398479999995
 51
115.1119760000004
  0
LINE
  5
1866
330
22
100
AcDbEntity
  8
POW
  6
Continuous
100
AcDbLine
 10
368.7573509967811
 20
142.0746159549712
 30
0.0
 11
368.7573509967811
 21
141.9816384549712
 31
0.0
  0
LINE
  5
1867
330
22
100
AcDbEntity
  8
POW
  6
Continuous
100
AcDbLine
 10
368.7573509967811
 20
141.9816384549712
 30
0.0
 11
368.7687434967811
 21
141.8217234549712
 31
0.0
  0
ARC
  5
1868
330
22
100
AcDbEntity
  8
POW
  6
Continuous
100
AcDbCircle
 10
368.808866621781
 20
141.8019178299712
 30
0.0
 40
0.044743125
100
AcDbArc
 50
153.7204400000002
 51
247.0360729999985
  0
LINE
  5
1869
330
22
100
AcDbEntity
  8
POW
  6
Continuous
100
AcDbLine
 10
368.7914103717811
 20
141.7607184549712
 30
0.0
 11
368.848504121781
 21
141.7442465799712
 31
0.0
  0
LINE
  5
186A
330
22
100
AcDbEntity
  8
POW
  6
Continuous
100
AcDbLine
 10
370.067580371781
 20
141.7556390799712
 30
0.0
 11
370.202807246781
 21
141.7898165799712
 31
0.0
  0
ARC
  5
186B
330
22
100
AcDbEntity
  8
POW
  6
Continuous
100
AcDbCircle
 10
370.085771621781
 20
141.8986228299712
 30
0.0
 40
0.159796875
100
AcDbArc
 50
317.0889659999999
 51
17.13156699999996
  0
ARC
  5
186C
330
22
100
AcDbEntity
  8
POW
  6
Continuous
100
AcDbCircle
 10
369.6373559967811
 20
141.9337715799712
 30
0.0
 40
0.601243125
100
AcDbArc
 50
1.136142000000548
 51
28.79362999999884
  0
ARC
  5
186D
330
22
100
AcDbEntity
  8
POW
  6
Continuous
100
AcDbCircle
 10
370.092255371781
 20
141.9998690799712
 30
0.0
 40
0.23480625
100
AcDbArc
 50
72.13989799999838
 51
115.2971190000011
  0
LINE
  5
186E
330
22
100
AcDbEntity
  8
POW
  6
Continuous
100
AcDbLine
 10
369.9919147467811
 20
142.2121659549712
 30
0.0
 11
369.9415803717811
 21
142.1604665799712
 31
0.0
  0
LINE
  5
186F
330
22
100
AcDbEntity
  8
POW
  6
Continuous
100
AcDbLine
 10
369.9415803717811
 20
142.1604665799712
 30
0.0
 11
369.942262871781
 21
142.0673578299712
 31
0.0
  0
LINE
  5
1870
330
22
100
AcDbEntity
  8
POW
  6
Continuous
100
AcDbLine
 10
369.942262871781
 20
142.0673578299712
 30
0.0
 11
369.9764403717811
 21
141.8678709549712
 31
0.0
  0
ARC
  5
1871
330
22
100
AcDbEntity
  8
POW
  6
Continuous
100
AcDbCircle
 10
370.1408178717811
 20
141.9082303299712
 30
0.0
 40
0.169273125
100
AcDbArc
 50
193.7941610000004
 51
244.3620660000013
  0
ARC
  5
1872
330
22
100
AcDbEntity
  8
POW
  6
Continuous
100
AcDbCircle
 10
369.123262871781
 20
141.8351240799712
 30
0.0
 40
0.051331875
100
AcDbArc
 50
156.0094369999992
 51
241.9875089999988
  0
LINE
  5
1873
330
22
100
AcDbEntity
  8
POW
  6
Continuous
100
AcDbLine
 10
369.0763672467811
 20
141.8559928299712
 30
0.0
 11
369.0877597467811
 21
141.9452034549712
 31
0.0
  0
ARC
  5
1874
330
22
100
AcDbEntity
  8
POW
  6
Continuous
100
AcDbCircle
 10
369.345639746781
 20
141.9939365799712
 30
0.0
 40
0.2624475
100
AcDbArc
 50
154.159500000001
 51
190.7020410000005
  0
ARC
  5
1875
330
22
100
AcDbEntity
  8
POW
  6
Continuous
100
AcDbCircle
 10
369.129733496781
 20
142.0918753299712
 30
0.0
 40
0.02611875
100
AcDbArc
 50
305.0335820000015
 51
140.9705640000001
  0
LINE
  5
1876
330
22
100
AcDbEntity
  8
POW
  6
Continuous
100
AcDbLine
 10
369.1447222467811
 20
142.0704815799712
 30
0.0
 11
369.1451422467811
 21
141.9679490799712
 31
0.0
  0
LINE
  5
1877
330
22
100
AcDbEntity
  8
POW
  6
Continuous
100
AcDbLine
 10
369.1451422467811
 20
141.9679490799712
 30
0.0
 11
369.1333297467811
 21
141.8696690799712
 31
0.0
  0
ARC
  5
1878
330
22
100
AcDbEntity
  8
POW
  6
Continuous
100
AcDbCircle
 10
369.042150371781
 20
141.8614528299712
 30
0.0
 40
0.09156
100
AcDbArc
 50
308.5094760000008
 51
5.148485999999383
  0
LINE
  5
1879
330
22
100
AcDbEntity
  8
POW
  6
Continuous
100
AcDbLine
 10
370.3182284967811
 20
141.8126015799712
 30
0.0
 11
370.421587871781
 21
141.8392978299712
 31
0.0
  0
LINE
  5
187A
330
22
100
AcDbEntity
  8
POW
  6
Continuous
100
AcDbLine
 10
370.421587871781
 20
141.8392978299712
 30
0.0
 11
370.397989121781
 21
141.9322490799712
 31
0.0
  0
LINE
  5
187B
330
22
100
AcDbEntity
  8
POW
  6
Continuous
100
AcDbLine
 10
370.397989121781
 20
141.9322490799712
 30
0.0
 11
370.3780522467811
 21
142.0409503299712
 31
0.0
  0
ARC
  5
187C
330
22
100
AcDbEntity
  8
POW
  6
Continuous
100
AcDbCircle
 10
370.3856516217811
 20
141.9851297049712
 30
0.0
 40
0.0563325
100
AcDbArc
 50
358.8857119999996
 51
97.75108099999945
  0
LINE
  5
187D
330
22
100
AcDbEntity
  8
POW
  6
Continuous
100
AcDbLine
 10
370.441970996781
 20
141.9840403299712
 30
0.0
 11
370.465805996781
 21
141.8830828299712
 31
0.0
  0
ARC
  5
187E
330
22
100
AcDbEntity
  8
POW
  6
Continuous
100
AcDbCircle
 10
370.4673809967811
 20
141.8684090799712
 30
0.0
 40
0.014765625
100
AcDbArc
 50
315.3942300000008
 51
96.12444700000056
  0
LINE
  5
187F
330
22
100
AcDbEntity
  8
POW
  6
Continuous
100
AcDbLine
 10
370.477894121781
 20
141.8580403299712
 30
0.0
 11
370.512439121781
 21
141.8607047049712
 31
0.0
  0
LINE
  5
1880
330
22
100
AcDbEntity
  8
POW
  6
Continuous
100
AcDbLine
 10
370.512439121781
 20
141.8607047049712
 30
0.0
 11
370.560292871781
 21
141.8809565799712
 31
0.0
  0
ARC
  5
1881
330
22
100
AcDbEntity
  8
POW
  6
Continuous
100
AcDbCircle
 10
370.206482246781
 20
141.9052378299712
 30
0.0
 40
0.354650625
100
AcDbArc
 50
356.0738549999999
 51
24.43210599999952
  0
LINE
  5
1882
330
22
100
AcDbEntity
  8
POW
  6
Continuous
100
AcDbLine
 10
370.529370371781
 20
142.0519228299712
 30
0.0
 11
370.5006266217811
 21
142.0973090799712
 31
0.0
  0
LINE
  5
1883
330
22
100
AcDbEntity
  8
POW
  6
Continuous
100
AcDbLine
 10
370.5006266217811
 20
142.0973090799712
 30
0.0
 11
370.466488496781
 21
142.0972959549712
 31
0.0
  0
LINE
  5
1884
330
22
100
AcDbEntity
  8
POW
  6
Continuous
100
AcDbLine
 10
370.466488496781
 20
142.0972959549712
 30
0.0
 11
370.477395371781
 21
142.1277197049712
 31
0.0
  0
ARC
  5
1885
330
22
100
AcDbEntity
  8
POW
  6
Continuous
100
AcDbCircle
 10
370.439831621781
 20
142.1770303299712
 30
0.0
 40
0.061989375
100
AcDbArc
 50
307.3043260000005
 51
38.48849900000019
  0
ARC
  5
1886
330
22
100
AcDbEntity
  8
POW
  6
Continuous
100
AcDbCircle
 10
370.3449641217811
 20
142.1728303299712
 30
0.0
 40
0.149625
100
AcDbArc
 50
16.60885700000021
 51
61.05832700000089
  0
LINE
  5
1887
330
22
100
AcDbEntity
  8
POW
  6
Continuous
100
AcDbLine
 10
370.417374746781
 20
142.3037784549712
 30
0.0
 11
370.2959684967811
 21
142.2696403299712
 31
0.0
  0
LINE
  5
1888
330
22
100
AcDbEntity
  8
POW
  6
Continuous
100
AcDbLine
 10
370.2959684967811
 20
142.2696403299712
 30
0.0
 11
370.227797246781
 21
142.2574078299712
 31
0.0
  0
LINE
  5
1889
330
22
100
AcDbEntity
  8
POW
  6
Continuous
100
AcDbLine
 10
370.227797246781
 20
142.2574078299712
 30
0.0
 11
370.2034766217811
 21
142.2440728299712
 31
0.0
  0
LINE
  5
188A
330
22
100
AcDbEntity
  8
POW
  6
Continuous
100
AcDbLine
 10
370.2034766217811
 20
142.2440728299712
 30
0.0
 11
370.215656621781
 21
142.2102628299712
 31
0.0
  0
LINE
  5
188B
330
22
100
AcDbEntity
  8
POW
  6
Continuous
100
AcDbLine
 10
370.215656621781
 20
142.2102628299712
 30
0.0
 11
370.2506609967811
 21
142.0931353299712
 31
0.0
  0
LINE
  5
188C
330
22
100
AcDbEntity
  8
POW
  6
Continuous
100
AcDbLine
 10
370.2506609967811
 20
142.0931353299712
 30
0.0
 11
370.3182284967811
 21
141.8126015799712
 31
0.0
  0
ARC
  5
188D
330
22
100
AcDbEntity
  8
POW
  6
Continuous
100
AcDbCircle
 10
370.1291234967811
 20
141.8825709549712
 30
0.0
 40
0.054534375
100
AcDbArc
 50
156.8513969999989
 51
239.8879280000014
  0
LINE
  5
188E
330
22
100
AcDbEntity
  8
POW
  6
Continuous
100
AcDbLine
 10
370.078972871781
 20
141.9040040799712
 30
0.0
 11
370.0668978717811
 21
141.9952884549712
 31
0.0
  0
LINE
  5
188F
330
22
100
AcDbEntity
  8
POW
  6
Continuous
100
AcDbLine
 10
370.0668978717811
 20
141.9952884549712
 30
0.0
 11
370.053982871781
 21
142.1538515799712
 31
0.0
  0
ARC
  5
1890
330
22
100
AcDbEntity
  8
POW
  6
Continuous
100
AcDbCircle
 10
370.071662246781
 20
142.1476697049712
 30
0.0
 40
0.018729375
100
AcDbArc
 50
2.998648999999875
 51
160.7054530000004
  0
LINE
  5
1891
330
22
100
AcDbEntity
  8
POW
  6
Continuous
100
AcDbLine
 10
370.090365371781
 20
142.1486540799712
 30
0.0
 11
370.1017578717811
 21
142.1025197049712
 31
0.0
  0
LINE
  5
1892
330
22
100
AcDbEntity
  8
POW
  6
Continuous
100
AcDbLine
 10
370.1017578717811
 20
142.1025197049712
 30
0.0
 11
370.1131503717811
 21
142.0089909549712
 31
0.0
  0
LINE
  5
1893
330
22
100
AcDbEntity
  8
POW
  6
Continuous
100
AcDbLine
 10
370.1131503717811
 20
142.0089909549712
 30
0.0
 11
370.135948496781
 21
141.9056972049712
 31
0.0
  0
LINE
  5
1894
330
22
100
AcDbEntity
  8
POW
  6
Continuous
100
AcDbLine
 10
370.135948496781
 20
141.9056972049712
 30
0.0
 11
370.136775371781
 21
141.8491940799712
 31
0.0
  0
LINE
  5
1895
330
22
100
AcDbEntity
  8
POW
  6
Continuous
100
AcDbLine
 10
370.136775371781
 20
141.8491940799712
 30
0.0
 11
370.1017578717811
 21
141.8353865799712
 31
0.0
  0
ARC
  5
1896
330
22
100
AcDbEntity
  8
POW
  6
Continuous
100
AcDbCircle
 10
368.397673496781
 20
141.8502572049712
 30
0.0
 40
0.022063125
100
AcDbArc
 50
222.3926710000009
 51
38.62644400000058
  0
ARC
  5
1897
330
22
100
AcDbEntity
  8
POW
  6
Continuous
100
AcDbCircle
 10
368.406257246781
 20
141.8829253299712
 30
0.0
 40
0.020776875
100
AcDbArc
 50
294.6240800000004
 51
61.78149100000137
  0
LINE
  5
1898
330
22
100
AcDbEntity
  8
POW
  6
Continuous
100
AcDbLine
 10
368.416074746781
 20
141.9012215799712
 30
0.0
 11
368.3350409967811
 21
141.9282590799712
 31
0.0
  0
LINE
  5
1899
330
22
100
AcDbEntity
  8
POW
  6
Continuous
100
AcDbLine
 10
368.3350409967811
 20
141.9282590799712
 30
0.0
 11
368.358587246781
 21
142.0448615799712
 31
0.0
  0
ARC
  5
189A
330
22
100
AcDbEntity
  8
POW
  6
Continuous
100
AcDbCircle
 10
368.407556621781
 20
142.0274840799712
 30
0.0
 40
0.051961875
100
AcDbArc
 50
114.8235609999987
 51
160.4675340000001
  0
ARC
  5
189B
330
22
100
AcDbEntity
  8
POW
  6
Continuous
100
AcDbCircle
 10
368.394799121781
 20
142.0654809549712
 30
0.0
 40
0.01288875
100
AcDbArc
 50
346.2302319999988
 51
134.6403590000001
  0
LINE
  5
189C
330
22
100
AcDbEntity
  8
POW
  6
Continuous
100
AcDbLine
 10
368.4073072467811
 20
142.0624097049712
 30
0.0
 11
368.438689121781
 21
142.0627115799712
 31
0.0
  0
LINE
  5
189D
330
22
100
AcDbEntity
  8
POW
  6
Continuous
100
AcDbLine
 10
368.438689121781
 20
142.0627115799712
 30
0.0
 11
368.4733653717811
 21
142.0545740799712
 31
0.0
  0
LINE
  5
189E
330
22
100
AcDbEntity
  8
POW
  6
Continuous
100
AcDbLine
 10
368.4733653717811
 20
142.0545740799712
 30
0.0
 11
368.483917871781
 21
142.0949597049712
 31
0.0
  0
ARC
  5
189F
330
22
100
AcDbEntity
  8
POW
  6
Continuous
100
AcDbCircle
 10
368.4548722467811
 20
142.0924134549712
 30
0.0
 40
0.029150625
100
AcDbArc
 50
5.015367000000648
 51
110.910659000001
  0
LINE
  5
18A0
330
22
100
AcDbEntity
  8
POW
  6
Continuous
100
AcDbLine
 10
368.444464121781
 20
142.1196478299712
 30
0.0
 11
368.4037109967811
 21
142.1316047049712
 31
0.0
  0
LINE
  5
18A1
330
22
100
AcDbEntity
  8
POW
  6
Continuous
100
AcDbLine
 10
368.4037109967811
 20
142.1316047049712
 30
0.0
 11
368.3927647467811
 21
142.1739590799712
 31
0.0
  0
LINE
  5
18A2
330
22
100
AcDbEntity
  8
POW
  6
Continuous
100
AcDbLine
 10
368.3927647467811
 20
142.1739590799712
 30
0.0
 11
368.4035928717811
 21
142.2280603299712
 31
0.0
  0
LINE
  5
18A3
330
22
100
AcDbEntity
  8
POW
  6
Continuous
100
AcDbLine
 10
368.4035928717811
 20
142.2280603299712
 30
0.0
 11
368.5184234967811
 21
142.2118640799712
 31
0.0
  0
LINE
  5
18A4
330
22
100
AcDbEntity
  8
POW
  6
Continuous
100
AcDbLine
 10
368.5184234967811
 20
142.2118640799712
 30
0.0
 11
368.5422453717811
 21
142.2640097049712
 31
0.0
  0
LINE
  5
18A5
330
22
100
AcDbEntity
  8
POW
  6
Continuous
100
AcDbLine
 10
368.5422453717811
 20
142.2640097049712
 30
0.0
 11
368.4986178717811
 21
142.2911128299712
 31
0.0
  0
LINE
  5
18A6
330
22
100
AcDbEntity
  8
POW
  6
Continuous
100
AcDbLine
 10
368.4986178717811
 20
142.2911128299712
 30
0.0
 11
368.3682472467811
 21
142.3252903299712
 31
0.0
  0
LINE
  5
18A7
330
22
100
AcDbEntity
  8
POW
  6
Continuous
100
AcDbLine
 10
368.3682472467811
 20
142.3252903299712
 30
0.0
 11
368.337442871781
 21
142.3367747049712
 31
0.0
  0
ARC
  5
18A8
330
22
100
AcDbEntity
  8
POW
  6
Continuous
100
AcDbCircle
 10
368.3342928717811
 20
142.3226784549712
 30
0.0
 40
0.0144375
100
AcDbArc
 50
77.43207600000143
 51
227.4162070000004
  0
LINE
  5
18A9
330
22
100
AcDbEntity
  8
POW
  6
Continuous
100
AcDbLine
 10
368.3245278717811
 20
142.3120472049712
 30
0.0
 11
368.308699121781
 21
142.2566728299712
 31
0.0
  0
LINE
  5
18AA
330
22
100
AcDbEntity
  8
POW
  6
Continuous
100
AcDbLine
 10
368.308699121781
 20
142.2566728299712
 30
0.0
 11
368.2781572467811
 21
142.1426034549712
 31
0.0
  0
LINE
  5
18AB
330
22
100
AcDbEntity
  8
POW
  6
Continuous
100
AcDbLine
 10
368.2781572467811
 20
142.1426034549712
 30
0.0
 11
368.1990003717811
 21
141.9053297049712
 31
0.0
  0
LINE
  5
18AC
330
22
100
AcDbEntity
  8
POW
  6
Continuous
100
AcDbLine
 10
368.1990003717811
 20
141.9053297049712
 30
0.0
 11
368.3813722467811
 21
141.8353865799712
 31
0.0
  0
LINE
  5
18AD
330
22
100
AcDbEntity
  8
POW
  6
Continuous
100
AcDbLine
 10
368.142116621781
 20
141.9037415799712
 30
0.0
 11
368.2104716217811
 21
142.0876622049712
 31
0.0
  0
LINE
  5
18AE
330
22
100
AcDbEntity
  8
POW
  6
Continuous
100
AcDbLine
 10
368.2104716217811
 20
142.0876622049712
 30
0.0
 11
368.199774746781
 21
142.1491922049712
 31
0.0
  0
ARC
  5
18AF
330
22
100
AcDbEntity
  8
POW
  6
Continuous
100
AcDbCircle
 10
368.1955091217811
 20
142.1571853299712
 30
0.0
 40
0.00905625
100
AcDbArc
 50
72.13247600000117
 51
298.0895309999992
  0
LINE
  5
18B0
330
22
100
AcDbEntity
  8
POW
  6
Continuous
100
AcDbLine
 10
368.198278496781
 20
142.1658084549712
 30
0.0
 11
368.2214047467811
 21
142.1762165799712
 31
0.0
  0
ARC
  5
18B1
330
22
100
AcDbEntity
  8
POW
  6
Continuous
100
AcDbCircle
 10
368.1656628717811
 20
142.2762159549712
 30
0.0
 40
0.11447625
100
AcDbArc
 50
299.1387769999982
 51
351.3462210000003
  0
ARC
  5
18B2
330
22
100
AcDbEntity
  8
POW
  6
Continuous
100
AcDbCircle
 10
368.169075371781
 20
142.2696140799712
 30
0.0
 40
0.11027625
100
AcDbArc
 50
354.4729440000003
 51
54.57797199999964
  0
LINE
  5
18B3
330
22
100
AcDbEntity
  8
POW
  6
Continuous
100
AcDbLine
 10
368.2329941217811
 20
142.3594678299712
 30
0.0
 11
368.1442034967811
 21
142.4051822049712
 31
0.0
  0
LINE
  5
18B4
330
22
100
AcDbEntity
  8
POW
  6
Continuous
100
AcDbLine
 10
368.1442034967811
 20
142.4051822049712
 30
0.0
 11
368.056384121781
 21
142.4284922049712
 31
0.0
  0
LINE
  5
18B5
330
22
100
AcDbEntity
  8
POW
  6
Continuous
100
AcDbLine
 10
368.056384121781
 20
142.4284922049712
 30
0.0
 11
368.0275353717811
 21
142.3924509549712
 31
0.0
  0
LINE
  5
18B6
330
22
100
AcDbEntity
  8
POW
  6
Continuous
100
AcDbLine
 10
368.0275353717811
 20
142.3924509549712
 30
0.0
 11
368.0283491217811
 21
142.3596647049712
 31
0.0
  0
LINE
  5
18B7
330
22
100
AcDbEntity
  8
POW
  6
Continuous
100
AcDbLine
 10
368.0283491217811
 20
142.3596647049712
 30
0.0
 11
368.016930371781
 21
142.3345434549712
 31
0.0
  0
LINE
  5
18B8
330
22
100
AcDbEntity
  8
POW
  6
Continuous
100
AcDbLine
 10
368.016930371781
 20
142.3345434549712
 30
0.0
 11
367.9826084967811
 21
142.2471965799712
 31
0.0
  0
LINE
  5
18B9
330
22
100
AcDbEntity
  8
POW
  6
Continuous
100
AcDbLine
 10
367.9826084967811
 20
142.2471965799712
 30
0.0
 11
367.9490216217811
 21
142.1326153299712
 31
0.0
  0
ARC
  5
18BA
330
22
100
AcDbEntity
  8
POW
  6
Continuous
100
AcDbCircle
 10
368.0680391217811
 20
142.0094897049712
 30
0.0
 40
0.171241875
100
AcDbArc
 50
134.0305159999993
 51
177.2500719999998
  0
LINE
  5
18BB
330
22
100
AcDbEntity
  8
POW
  6
Continuous
100
AcDbLine
 10
367.896994121781
 20
142.0177059549712
 30
0.0
 11
367.9024672467811
 21
141.9955772049712
 31
0.0
  0
LINE
  5
18BC
330
22
100
AcDbEntity
  8
POW
  6
Continuous
100
AcDbLine
 10
367.9024672467811
 20
141.9955772049712
 30
0.0
 11
367.934374121781
 21
141.9832922049712
 31
0.0
  0
LINE
  5
18BD
330
22
100
AcDbEntity
  8
POW
  6
Continuous
100
AcDbLine
 10
367.934374121781
 20
141.9832922049712
 30
0.0
 11
368.0033722467811
 21
141.9713090799712
 31
0.0
  0
LINE
  5
18BE
330
22
100
AcDbEntity
  8
POW
  6
Continuous
100
AcDbLine
 10
368.0033722467811
 20
141.9713090799712
 30
0.0
 11
368.0396234967811
 21
142.0974797049712
 31
0.0
  0
LINE
  5
18BF
330
22
100
AcDbEntity
  8
POW
  6
Continuous
100
AcDbLine
 10
368.0396234967811
 20
142.0974797049712
 30
0.0
 11
368.074286621781
 21
142.1453072049712
 31
0.0
  0
ARC
  5
18C0
330
22
100
AcDbEntity
  8
POW
  6
Continuous
100
AcDbCircle
 10
368.089655996781
 20
142.1323790799712
 30
0.0
 40
0.02008125
100
AcDbArc
 50
335.5210699999996
 51
139.9318499999987
  0
LINE
  5
18C1
330
22
100
AcDbEntity
  8
POW
  6
Continuous
100
AcDbLine
 10
368.1079391217811
 20
142.1240578299712
 30
0.0
 11
368.055465371781
 21
141.9723459549712
 31
0.0
  0
ARC
  5
18C2
330
22
100
AcDbEntity
  8
POW
  6
Continuous
100
AcDbCircle
 10
368.089682246781
 20
141.9617015799712
 30
0.0
 40
0.03583125
100
AcDbArc
 50
162.7383190000001
 51
280.9551699999984
  0
LINE
  5
18C3
330
22
100
AcDbEntity
  8
POW
  6
Continuous
100
AcDbLine
 10
368.0964941217811
 20
141.9265265799712
 30
0.0
 11
368.142116621781
 21
141.9037415799712
 31
0.0
  0
LINE
  5
18C4
330
22
100
AcDbEntity
  8
POW
  6
Continuous
100
AcDbLine
 10
370.6600297467811
 20
141.9151340799712
 30
0.0
 11
370.8691241217811
 21
141.9843028299712
 31
0.0
  0
LINE
  5
18C5
330
22
100
AcDbEntity
  8
POW
  6
Continuous
100
AcDbLine
 10
370.8691241217811
 20
141.9843028299712
 30
0.0
 11
370.846417871781
 21
142.0971253299712
 31
0.0
  0
ARC
  5
18C6
330
22
100
AcDbEntity
  8
POW
  6
Continuous
100
AcDbCircle
 10
370.760199746781
 20
142.1129409549712
 30
0.0
 40
0.087661875
100
AcDbArc
 50
349.6024469999995
 51
73.64675200000134
  0
ARC
  5
18C7
330
22
100
AcDbEntity
  8
POW
  6
Continuous
100
AcDbCircle
 10
370.730891621781
 20
142.2351609549712
 30
0.0
 40
0.06607125
100
AcDbArc
 50
258.0288770000009
 51
324.7920009999995
  0
ARC
  5
18C8
330
22
100
AcDbEntity
  8
POW
  6
Continuous
100
AcDbCircle
 10
370.7073453717811
 20
142.1404378299712
 30
0.0
 40
0.0316575
100
AcDbArc
 50
71.88699099999832
 51
220.3675969999994
  0
ARC
  5
18C9
330
22
100
AcDbEntity
  8
POW
  6
Continuous
100
AcDbCircle
 10
370.7229247467811
 20
142.1329172049712
 30
0.0
 40
0.04176375
100
AcDbArc
 50
198.1160639999995
 51
295.0637719999983
  0
LINE
  5
18CA
330
22
100
AcDbEntity
  8
POW
  6
Continuous
100
AcDbLine
 10
370.740617246781
 20
142.0950909549712
 30
0.0
 11
370.7511828717811
 21
142.0300697049712
 31
0.0
  0
ARC
  5
18CB
330
22
100
AcDbEntity
  8
POW
  6
Continuous
100
AcDbCircle
 10
370.7223209967811
 20
142.0233890799712
 30
0.0
 40
0.029623125
100
AcDbArc
 50
161.6082550000006
 51
13.04677400000078
  0
LINE
  5
18CC
330
22
100
AcDbEntity
  8
POW
  6
Continuous
100
AcDbLine
 10
370.6942072467811
 20
142.0327340799712
 30
0.0
 11
370.6585072467811
 21
142.1549409549712
 31
0.0
  0
LINE
  5
18CD
330
22
100
AcDbEntity
  8
POW
  6
Continuous
100
AcDbLine
 10
370.6585072467811
 20
142.1549409549712
 30
0.0
 11
370.6140134967811
 21
142.2954965799712
 31
0.0
  0
LINE
  5
18CE
330
22
100
AcDbEntity
  8
POW
  6
Continuous
100
AcDbLine
 10
370.6140134967811
 20
142.2954965799712
 30
0.0
 11
370.648689746781
 21
142.3198565799712
 31
0.0
  0
LINE
  5
18CF
330
22
100
AcDbEntity
  8
POW
  6
Continuous
100
AcDbLine
 10
370.648689746781
 20
142.3198565799712
 30
0.0
 11
370.678969121781
 21
142.2686822049712
 31
0.0
  0
ARC
  5
18D0
330
22
100
AcDbEntity
  8
POW
  6
Continuous
100
AcDbCircle
 10
370.7043003717811
 20
142.2584184549712
 30
0.0
 40
0.02732625
100
AcDbArc
 50
157.9532989999993
 51
330.0302020000001
  0
LINE
  5
18D1
330
22
100
AcDbEntity
  8
POW
  6
Continuous
100
AcDbLine
 10
370.727977871781
 20
142.2447684549712
 30
0.0
 11
370.7632316217811
 21
142.2569353299712
 31
0.0
  0
ARC
  5
18D2
330
22
100
AcDbEntity
  8
POW
  6
Continuous
100
AcDbCircle
 10
370.774256621781
 20
142.2686953299712
 30
0.0
 40
0.0161175
100
AcDbArc
 50
226.8784139999999
 51
46.35794499999826
  0
ARC
  5
18D3
330
22
100
AcDbEntity
  8
POW
  6
Continuous
100
AcDbCircle
 10
370.650264746781
 20
142.2547434549712
 30
0.0
 40
0.137510625
100
AcDbArc
 50
10.73938099999973
 51
57.27786400000058
  0
ARC
  5
18D4
330
22
100
AcDbEntity
  8
POW
  6
Continuous
100
AcDbCircle
 10
370.649293496781
 20
142.2532340799712
 30
0.0
 40
0.13930875
100
AcDbArc
 50
57.27786400000058
 51
207.8786879999996
  0
LINE
  5
18D5
330
22
100
AcDbEntity
  8
POW
  6
Continuous
100
AcDbLine
 10
370.5803872467811
 20
142.0517390799712
 30
0.0
 11
370.5261547467811
 21
142.1880815799712
 31
0.0
  0
ARC
  5
18D6
330
22
100
AcDbEntity
  8
POW
  6
Continuous
100
AcDbCircle
 10
370.740144746781
 20
142.0533665799712
 30
0.0
 40
0.159770625
100
AcDbArc
 50
180.5843560000002
 51
239.9033470000013
  0
ARC
  5
18D7
330
22
100
AcDbEntity
  8
POW
  6
Continuous
100
AcDbCircle
 10
367.8250034967811
 20
142.0725815799712
 30
0.0
 40
0.04549125
100
AcDbArc
 50
253.015066999999
 51
16.269908
  0
LINE
  5
18D8
330
22
100
AcDbEntity
  8
POW
  6
Continuous
100
AcDbLine
 10
367.868683496781
 20
142.0853259549712
 30
0.0
 11
367.8914684967811
 21
142.1626059549712
 31
0.0
  0
LINE
  5
18D9
330
22
100
AcDbEntity
  8
POW
  6
Continuous
100
AcDbLine
 10
367.8914684967811
 20
142.1626059549712
 30
0.0
 11
367.947919121781
 21
142.3473009549712
 31
0.0
  0
LINE
  5
18DA
330
22
100
AcDbEntity
  8
POW
  6
Continuous
100
AcDbLine
 10
367.947919121781
 20
142.3473009549712
 30
0.0
 11
367.9829759967811
 21
142.4394909549712
 31
0.0
  0
ARC
  5
18DB
330
22
100
AcDbEntity
  8
POW
  6
Continuous
100
AcDbCircle
 10
367.9759541217811
 20
142.4494790799712
 30
0.0
 40
0.01220625
100
AcDbArc
 50
305.0934869999992
 51
94.88577800000001
  0
LINE
  5
18DC
330
22
100
AcDbEntity
  8
POW
  6
Continuous
100
AcDbLine
 10
367.974917246781
 20
142.4616459549712
 30
0.0
 11
367.938049121781
 21
142.4843259549712
 31
0.0
  0
LINE
  5
18DD
330
22
100
AcDbEntity
  8
POW
  6
Continuous
100
AcDbLine
 10
367.938049121781
 20
142.4843259549712
 30
0.0
 11
367.870560371781
 21
142.5190940799712
 31
0.0
  0
ARC
  5
18DE
330
22
100
AcDbEntity
  8
POW
  6
Continuous
100
AcDbCircle
 10
367.8689853717811
 20
142.4627878299712
 30
0.0
 40
0.0563325
100
AcDbArc
 50
88.3912270000013
 51
168.5643819999993
  0
LINE
  5
18DF
330
22
100
AcDbEntity
  8
POW
  6
Continuous
100
AcDbLine
 10
367.813768496781
 20
142.4739572049712
 30
0.0
 11
367.606616621781
 21
142.1777128299712
 31
0.0
  0
ARC
  5
18E0
330
22
100
AcDbEntity
  8
POW
  6
Continuous
100
AcDbCircle
 10
367.625083496781
 20
142.1542715799712
 30
0.0
 40
0.029833125
100
AcDbArc
 50
128.2109610000011
 51
233.0428529999983
  0
LINE
  5
18E1
330
22
100
AcDbEntity
  8
POW
  6
Continuous
100
AcDbLine
 10
367.6071416217811
 20
142.1304234549712
 30
0.0
 11
367.642749746781
 21
142.1080322049712
 31
0.0
  0
ARC
  5
18E2
330
22
100
AcDbEntity
  8
POW
  6
Continuous
100
AcDbCircle
 10
367.6582241217811
 20
142.1315653299712
 30
0.0
 40
0.028153125
100
AcDbArc
 50
236.6797560000016
 51
1.318791000000468
  0
LINE
  5
18E3
330
22
100
AcDbEntity
  8
POW
  6
Continuous
100
AcDbLine
 10
367.686364121781
 20
142.1322084549712
 30
0.0
 11
367.7210666217811
 21
142.1783034549712
 31
0.0
  0
ARC
  5
18E4
330
22
100
AcDbEntity
  8
POW
  6
Continuous
100
AcDbCircle
 10
367.748143496781
 20
142.1485228299712
 30
0.0
 40
0.04024125
100
AcDbArc
 50
41.38933100000161
 51
132.2893179999986
  0
LINE
  5
18E5
330
22
100
AcDbEntity
  8
POW
  6
Continuous
100
AcDbLine
 10
367.7783309967811
 20
142.1751403299712
 30
0.0
 11
367.766255996781
 21
142.1068903299712
 31
0.0
  0
ARC
  5
18E6
330
22
100
AcDbEntity
  8
POW
  6
Continuous
100
AcDbCircle
 10
367.8112878717811
 20
142.0810078299712
 30
0.0
 40
0.051935625
100
AcDbArc
 50
150.1080119999999
 51
270.4671119999996
  0
LINE
  5
18E7
330
22
100
AcDbEntity
  8
POW
  6
Continuous
100
AcDbLine
 10
370.967653496781
 20
142.0290722049712
 30
0.0
 11
371.047794746781
 21
142.0440347049712
 31
0.0
  0
ARC
  5
18E8
330
22
100
AcDbEntity
  8
POW
  6
Continuous
100
AcDbCircle
 10
371.053740371781
 20
142.0949203299712
 30
0.0
 40
0.051226875
100
AcDbArc
 50
263.3322209999984
 51
337.0693329999999
  0
ARC
  5
18E9
330
22
100
AcDbEntity
  8
POW
  6
Continuous
100
AcDbCircle
 10
371.0667472467811
 20
142.1600597049712
 30
0.0
 40
0.0917175
100
AcDbArc
 50
291.8819250000015
 51
38.46768699999985
  0
LINE
  5
18EA
330
22
100
AcDbEntity
  8
POW
  6
Continuous
100
AcDbLine
 10
371.138554121781
 20
142.2171140799712
 30
0.0
 11
371.0233691217811
 21
142.4740753299712
 31
0.0
  0
ARC
  5
18EB
330
22
100
AcDbEntity
  8
POW
  6
Continuous
100
AcDbCircle
 10
370.9411672467811
 20
142.3381265799712
 30
0.0
 40
0.158865
100
AcDbArc
 50
58.84021299999989
 51
133.6732040000005
  0
ARC
  5
18EC
330
22
100
AcDbEntity
  8
POW
  6
Continuous
100
AcDbCircle
 10
370.8973822467811
 20
142.3615678299712
 30
0.0
 40
0.11274375
100
AcDbArc
 50
125.7845390000006
 51
219.032747000001
  0
ARC
  5
18ED
330
22
100
AcDbEntity
  8
POW
  6
Continuous
100
AcDbCircle
 10
370.6124516217811
 20
142.1141484549712
 30
0.0
 40
0.264718125
100
AcDbArc
 50
4.047154000000057
 51
41.79361200000022
  0
LINE
  5
18EE
330
22
100
AcDbEntity
  8
POW
  6
Continuous
100
AcDbLine
 10
370.876500371781
 20
142.1328384549712
 30
0.0
 11
370.967653496781
 21
142.0290722049712
 31
0.0
  0
ARC
  5
18EF
330
22
100
AcDbEntity
  8
POW
  6
Continuous
100
AcDbCircle
 10
371.8378803717811
 20
142.6619597049712
 30
0.0
 40
0.983548125
100
AcDbArc
 50
194.9452120000001
 51
214.220985000002
  0
ARC
  5
18F0
330
22
100
AcDbEntity
  8
POW
  6
Continuous
100
AcDbCircle
 10
370.9134603717811
 20
142.3738922049712
 30
0.0
 40
0.04302375
100
AcDbArc
 50
11.74303800000057
 51
126.9088449999996
  0
LINE
  5
18F1
330
22
100
AcDbEntity
  8
POW
  6
Continuous
100
AcDbLine
 10
370.9555784967811
 20
142.3826597049712
 30
0.0
 11
370.9904384967811
 21
142.3002609549712
 31
0.0
  0
LINE
  5
18F2
330
22
100
AcDbEntity
  8
POW
  6
Continuous
100
AcDbLine
 10
370.9904384967811
 20
142.3002609549712
 30
0.0
 11
371.0266634967811
 21
142.1994215799712
 31
0.0
  0
LINE
  5
18F3
330
22
100
AcDbEntity
  8
POW
  6
Continuous
100
AcDbLine
 10
371.0266634967811
 20
142.1994215799712
 30
0.0
 11
371.0474141217811
 21
142.1427084549712
 31
0.0
  0
LINE
  5
18F4
330
22
100
AcDbEntity
  8
POW
  6
Continuous
100
AcDbLine
 10
371.0474141217811
 20
142.1427084549712
 30
0.0
 11
371.0246159967811
 21
142.1088197049712
 31
0.0
  0
ARC
  5
18F5
330
22
100
AcDbEntity
  8
POW
  6
Continuous
100
AcDbCircle
 10
370.3887622467811
 20
142.1748778299712
 30
0.0
 40
0.060099375
100
AcDbArc
 50
127.5669580000006
 51
245.4596789999992
  0
ARC
  5
18F6
330
22
100
AcDbEntity
  8
POW
  6
Continuous
100
AcDbCircle
 10
370.3624728717811
 20
142.1986997049712
 30
0.0
 40
0.02596125
100
AcDbArc
 50
338.2985629999994
 51
113.4705659999995
  0
ARC
  5
18F7
330
22
100
AcDbEntity
  8
POW
  6
Continuous
100
AcDbCircle
 10
370.3503059967811
 20
142.1628947049712
 30
0.0
 40
0.044769375
100
AcDbArc
 50
287.5627969999984
 51
35.82807400000018
  0
LINE
  5
18F8
330
22
100
AcDbEntity
  8
POW
  6
Continuous
100
AcDbLine
 10
371.286669746781
 20
142.1885803299712
 30
0.0
 11
371.350837871781
 21
142.2110765799712
 31
0.0
  0
LINE
  5
18F9
330
22
100
AcDbEntity
  8
POW
  6
Continuous
100
AcDbLine
 10
371.350837871781
 20
142.2110765799712
 30
0.0
 11
371.3772847467811
 21
142.2317747049712
 31
0.0
  0
ARC
  5
18FA
330
22
100
AcDbEntity
  8
POW
  6
Continuous
100
AcDbCircle
 10
371.381458496781
 20
142.2399778299712
 30
0.0
 40
0.009200625
100
AcDbArc
 50
242.9716160000003
 51
116.8851269999981
  0
LINE
  5
18FB
330
22
100
AcDbEntity
  8
POW
  6
Continuous
100
AcDbLine
 10
371.377297871781
 20
142.2481809549712
 30
0.0
 11
371.3208603717811
 21
142.3599534549712
 31
0.0
  0
LINE
  5
18FC
330
22
100
AcDbEntity
  8
POW
  6
Continuous
100
AcDbLine
 10
371.3208603717811
 20
142.3599534549712
 30
0.0
 11
371.2063447467811
 21
142.5479034549712
 31
0.0
  0
ARC
  5
18FD
330
22
100
AcDbEntity
  8
POW
  6
Continuous
100
AcDbCircle
 10
371.2566791217811
 20
142.5444384549712
 30
0.0
 40
0.0504525
100
AcDbArc
 50
95.13236199999921
 51
176.0698749999996
  0
LINE
  5
18FE
330
22
100
AcDbEntity
  8
POW
  6
Continuous
100
AcDbLine
 10
371.2521641217811
 20
142.5946940799712
 30
0.0
 11
371.270237246781
 21
142.6220597049712
 31
0.0
  0
LINE
  5
18FF
330
22
100
AcDbEntity
  8
POW
  6
Continuous
100
AcDbLine
 10
371.270237246781
 20
142.6220597049712
 30
0.0
 11
371.3132609967811
 21
142.6325465799712
 31
0.0
  0
LINE
  5
1900
330
22
100
AcDbEntity
  8
POW
  6
Continuous
100
AcDbLine
 10
371.3132609967811
 20
142.6325465799712
 30
0.0
 11
371.350798496781
 21
142.6450940799712
 31
0.0
  0
LINE
  5
1901
330
22
100
AcDbEntity
  8
POW
  6
Continuous
100
AcDbLine
 10
371.350798496781
 20
142.6450940799712
 30
0.0
 11
371.366719121781
 21
142.6211409549712
 31
0.0
  0
LINE
  5
1902
330
22
100
AcDbEntity
  8
POW
  6
Continuous
100
AcDbLine
 10
371.366719121781
 20
142.6211409549712
 30
0.0
 11
371.400266621781
 21
142.5536653299712
 31
0.0
  0
LINE
  5
1903
330
22
100
AcDbEntity
  8
POW
  6
Continuous
100
AcDbLine
 10
371.400266621781
 20
142.5536653299712
 30
0.0
 11
371.549300996781
 21
142.3535484549712
 31
0.0
  0
ARC
  5
1904
330
22
100
AcDbEntity
  8
POW
  6
Continuous
100
AcDbCircle
 10
371.5599322467811
 20
142.3460540799712
 30
0.0
 40
0.013006875
100
AcDbArc
 50
144.7702789999993
 51
335.9659350000002
  0
LINE
  5
1905
330
22
100
AcDbEntity
  8
POW
  6
Continuous
100
AcDbLine
 10
371.5718103717811
 20
142.3407515799712
 30
0.0
 11
371.5944641217811
 21
142.3597040799712
 31
0.0
  0
LINE
  5
1906
330
22
100
AcDbEntity
  8
POW
  6
Continuous
100
AcDbLine
 10
371.5944641217811
 20
142.3597040799712
 30
0.0
 11
371.640782246781
 21
142.3954172049712
 31
0.0
  0
LINE
  5
1907
330
22
100
AcDbEntity
  8
POW
  6
Continuous
100
AcDbLine
 10
371.640782246781
 20
142.3954172049712
 30
0.0
 11
371.5782941217811
 21
142.4964140799712
 31
0.0
  0
LINE
  5
1908
330
22
100
AcDbEntity
  8
POW
  6
Continuous
100
AcDbLine
 10
371.5782941217811
 20
142.4964140799712
 30
0.0
 11
371.4465584967811
 21
142.6892203299712
 31
0.0
  0
LINE
  5
1909
330
22
100
AcDbEntity
  8
POW
  6
Continuous
100
AcDbLine
 10
371.4465584967811
 20
142.6892203299712
 30
0.0
 11
371.4366622467811
 21
142.7248415799712
 31
0.0
  0
LINE
  5
190A
330
22
100
AcDbEntity
  8
POW
  6
Continuous
100
AcDbLine
 10
371.4366622467811
 20
142.7248415799712
 30
0.0
 11
371.4688841217811
 21
142.7414840799712
 31
0.0
  0
ARC
  5
190B
330
22
100
AcDbEntity
  8
POW
  6
Continuous
100
AcDbCircle
 10
371.438919746781
 20
142.7620509549712
 30
0.0
 40
0.036343125
100
AcDbArc
 50
325.557201
 51
60.49776000000125
  0
ARC
  5
190C
330
22
100
AcDbEntity
  8
POW
  6
Continuous
100
AcDbCircle
 10
371.4168566217811
 20
142.6637447049712
 30
0.0
 40
0.135935625
100
AcDbArc
 50
27.97362800000087
 51
72.90388599999983
  0
LINE
  5
190D
330
22
100
AcDbEntity
  8
POW
  6
Continuous
100
AcDbLine
 10
371.536910996781
 20
142.7275059549712
 30
0.0
 11
371.686299746781
 21
142.5413147049712
 31
0.0
  0
LINE
  5
190E
330
22
100
AcDbEntity
  8
POW
  6
Continuous
100
AcDbLine
 10
371.686299746781
 20
142.5413147049712
 30
0.0
 11
371.7305441217811
 21
142.4878697049712
 31
0.0
  0
ARC
  5
190F
330
22
100
AcDbEntity
  8
POW
  6
Continuous
100
AcDbCircle
 10
371.750467871781
 20
142.5108909549711
 30
0.0
 40
0.03045
100
AcDbArc
 50
229.1319499999981
 51
332.0499639999997
  0
LINE
  5
1910
330
22
100
AcDbEntity
  8
POW
  6
Continuous
100
AcDbLine
 10
371.7773609967811
 20
142.4966240799712
 30
0.0
 11
371.8900653717811
 21
142.5864647049712
 31
0.0
  0
ARC
  5
1911
330
22
100
AcDbEntity
  8
POW
  6
Continuous
100
AcDbCircle
 10
371.881639121781
 20
142.6160090799712
 30
0.0
 40
0.030725625
100
AcDbArc
 50
285.8928969999989
 51
95.72371600000005
  0
ARC
  5
1912
330
22
100
AcDbEntity
  8
POW
  6
Continuous
100
AcDbCircle
 10
371.8679366217811
 20
142.5986184549712
 30
0.0
 40
0.04914
100
AcDbArc
 50
77.48249299999999
 51
151.544328000001
  0
ARC
  5
1913
330
22
100
AcDbEntity
  8
POW
  6
Continuous
100
AcDbCircle
 10
371.788320371781
 20
142.6671178299712
 30
0.0
 40
0.057946875
100
AcDbArc
 50
189.3206769999996
 51
308.9276010000006
  0
ARC
  5
1914
330
22
100
AcDbEntity
  8
POW
  6
Continuous
100
AcDbCircle
 10
371.7443647467811
 20
142.6928822049712
 30
0.0
 40
0.03756375
100
AcDbArc
 50
124.7356009999986
 51
249.3703220000011
  0
ARC
  5
1915
330
22
100
AcDbEntity
  8
POW
  6
Continuous
100
AcDbCircle
 10
371.6967734967811
 20
142.7864765799712
 30
0.0
 40
0.06796125
100
AcDbArc
 50
292.6662399999997
 51
357.7359360000003
  0
LINE
  5
1916
330
22
100
AcDbEntity
  8
POW
  6
Continuous
100
AcDbLine
 10
371.764682246781
 20
142.7837859549712
 30
0.0
 11
371.749115996781
 21
142.8154040799712
 31
0.0
  0
LINE
  5
1917
330
22
100
AcDbEntity
  8
POW
  6
Continuous
100
AcDbLine
 10
371.749115996781
 20
142.8154040799712
 30
0.0
 11
371.7305703717811
 21
142.8257859549712
 31
0.0
  0
LINE
  5
1918
330
22
100
AcDbEntity
  8
POW
  6
Continuous
100
AcDbLine
 10
371.7305703717811
 20
142.8257859549712
 30
0.0
 11
371.7148334967811
 21
142.8157059549712
 31
0.0
  0
LINE
  5
1919
330
22
100
AcDbEntity
  8
POW
  6
Continuous
100
AcDbLine
 10
371.7148334967811
 20
142.8157059549712
 30
0.0
 11
371.6639216217811
 21
142.7701490799712
 31
0.0
  0
ARC
  5
191A
330
22
100
AcDbEntity
  8
POW
  6
Continuous
100
AcDbCircle
 10
371.6463078717811
 20
142.7751628299712
 30
0.0
 40
0.018309375
100
AcDbArc
 50
170.9671059999993
 51
344.1060990000004
  0
LINE
  5
191B
330
22
100
AcDbEntity
  8
POW
  6
Continuous
100
AcDbLine
 10
371.6282084967811
 20
142.7780372049712
 30
0.0
 11
371.604334121781
 21
142.8157322049712
 31
0.0
  0
ARC
  5
191C
330
22
100
AcDbEntity
  8
POW
  6
Continuous
100
AcDbCircle
 10
371.5989266217811
 20
142.8284503299712
 30
0.0
 40
0.013820625
100
AcDbArc
 50
107.9318279999983
 51
293.0186110000012
  0
LINE
  5
191D
330
22
100
AcDbEntity
  8
POW
  6
Continuous
100
AcDbLine
 10
371.594674121781
 20
142.8415884549712
 30
0.0
 11
371.6174066217811
 21
142.8724453299712
 31
0.0
  0
ARC
  5
191E
330
22
100
AcDbEntity
  8
POW
  6
Continuous
100
AcDbCircle
 10
371.6135216217811
 20
142.9076203299712
 30
0.0
 40
0.035398125
100
AcDbArc
 50
276.2997640000003
 51
141.5840069999999
  0
ARC
  5
191F
330
22
100
AcDbEntity
  8
POW
  6
Continuous
100
AcDbCircle
 10
370.0383772467811
 20
144.6092897049712
 30
0.0
 40
2.2838025
100
AcDbArc
 50
297.0673080000004
 51
312.6531630000012
  0
LINE
  5
1920
330
22
100
AcDbEntity
  8
POW
  6
Continuous
100
AcDbLine
 10
371.0776016217811
 20
142.5756234549712
 30
0.0
 11
371.0119766217811
 21
142.5384665799712
 31
0.0
  0
LINE
  5
1921
330
22
100
AcDbEntity
  8
POW
  6
Continuous
100
AcDbLine
 10
371.0119766217811
 20
142.5384665799712
 30
0.0
 11
371.0527822467811
 21
142.4847984549712
 31
0.0
  0
ARC
  5
1922
330
22
100
AcDbEntity
  8
POW
  6
Continuous
100
AcDbCircle
 10
371.0936141217811
 20
142.4390840799712
 30
0.0
 40
0.06129375
100
AcDbArc
 50
349.0919190000004
 51
131.7691930000006
  0
LINE
  5
1923
330
22
100
AcDbEntity
  8
POW
  6
Continuous
100
AcDbLine
 10
371.1538053717811
 20
142.4274815799712
 30
0.0
 11
371.286669746781
 21
142.1885803299712
 31
0.0
  0
ARC
  5
1924
330
22
100
AcDbEntity
  8
POW
  6
Continuous
100
AcDbCircle
 10
368.310077246781
 20
142.2122709549712
 30
0.0
 40
0.20241375
100
AcDbArc
 50
141.6906500000006
 51
177.0302010000001
  0
LINE
  5
1925
330
22
100
AcDbEntity
  8
POW
  6
Continuous
100
AcDbLine
 10
368.1512516217811
 20
142.3377459549712
 30
0.0
 11
368.177711621781
 21
142.3075059549712
 31
0.0
  0
LINE
  5
1926
330
22
100
AcDbEntity
  8
POW
  6
Continuous
100
AcDbLine
 10
368.177711621781
 20
142.3075059549712
 30
0.0
 11
368.164901621781
 21
142.2707559549712
 31
0.0
  0
ARC
  5
1927
330
22
100
AcDbEntity
  8
POW
  6
Continuous
100
AcDbCircle
 10
368.1102622467811
 20
142.2778040799712
 30
0.0
 40
0.05509875
100
AcDbArc
 50
267.5854730000003
 51
352.6500779999998
  0
LINE
  5
1928
330
22
100
AcDbEntity
  8
POW
  6
Continuous
100
AcDbLine
 10
367.800315371781
 20
142.2455428299712
 30
0.0
 11
367.776296621781
 21
142.2600853299712
 31
0.0
  0
LINE
  5
1929
330
22
100
AcDbEntity
  8
POW
  6
Continuous
100
AcDbLine
 10
367.776296621781
 20
142.2600853299712
 30
0.0
 11
367.789369121781
 21
142.2914147049712
 31
0.0
  0
LINE
  5
192A
330
22
100
AcDbEntity
  8
POW
  6
Continuous
100
AcDbLine
 10
367.789369121781
 20
142.2914147049712
 30
0.0
 11
367.822877246781
 21
142.3363940799712
 31
0.0
  0
LINE
  5
192B
330
22
100
AcDbEntity
  8
POW
  6
Continuous
100
AcDbLine
 10
367.822877246781
 20
142.3363940799712
 30
0.0
 11
367.8378134967811
 21
142.3493353299712
 31
0.0
  0
LINE
  5
192C
330
22
100
AcDbEntity
  8
POW
  6
Continuous
100
AcDbLine
 10
367.8378134967811
 20
142.3493353299712
 30
0.0
 11
367.8458853717811
 21
142.3319578299712
 31
0.0
  0
LINE
  5
192D
330
22
100
AcDbEntity
  8
POW
  6
Continuous
100
AcDbLine
 10
367.8458853717811
 20
142.3319578299712
 30
0.0
 11
367.834715996781
 21
142.2997622049712
 31
0.0
  0
LINE
  5
192E
330
22
100
AcDbEntity
  8
POW
  6
Continuous
100
AcDbLine
 10
367.834715996781
 20
142.2997622049712
 30
0.0
 11
367.800315371781
 21
142.2455428299712
 31
0.0
  0
LINE
  5
192F
330
22
100
AcDbEntity
  8
POW
  6
Continuous
100
AcDbLine
 10
367.333196621781
 20
142.2797203299712
 30
0.0
 11
367.4017747467811
 21
142.2956934549712
 31
0.0
  0
LINE
  5
1930
330
22
100
AcDbEntity
  8
POW
  6
Continuous
100
AcDbLine
 10
367.4017747467811
 20
142.2956934549712
 30
0.0
 11
367.4427641217811
 21
142.3364334549712
 31
0.0
  0
LINE
  5
1931
330
22
100
AcDbEntity
  8
POW
  6
Continuous
100
AcDbLine
 10
367.4427641217811
 20
142.3364334549712
 30
0.0
 11
367.5041103717811
 21
142.4220215799712
 31
0.0
  0
LINE
  5
1932
330
22
100
AcDbEntity
  8
POW
  6
Continuous
100
AcDbLine
 10
367.5041103717811
 20
142.4220215799712
 30
0.0
 11
367.5726884967811
 21
142.5419578299712
 31
0.0
  0
ARC
  5
1933
330
22
100
AcDbEntity
  8
POW
  6
Continuous
100
AcDbCircle
 10
366.9095478717811
 20
143.0801090799712
 30
0.0
 40
0.854030625
100
AcDbArc
 50
320.9398669999995
 51
329.0023020000002
  0
LINE
  5
1934
330
22
100
AcDbEntity
  8
POW
  6
Continuous
100
AcDbLine
 10
367.6416078717811
 20
142.6402903299712
 30
0.0
 11
367.5840416217811
 21
142.6737984549712
 31
0.0
  0
LINE
  5
1935
330
22
100
AcDbEntity
  8
POW
  6
Continuous
100
AcDbLine
 10
367.5840416217811
 20
142.6737984549712
 30
0.0
 11
367.559747246781
 21
142.6906509549712
 31
0.0
  0
LINE
  5
1936
330
22
100
AcDbEntity
  8
POW
  6
Continuous
100
AcDbLine
 10
367.559747246781
 20
142.6906509549712
 30
0.0
 11
367.5390097467811
 21
142.6603978299712
 31
0.0
  0
LINE
  5
1937
330
22
100
AcDbEntity
  8
POW
  6
Continuous
100
AcDbLine
 10
367.5390097467811
 20
142.6603978299712
 30
0.0
 11
367.468410371781
 21
142.5640209549712
 31
0.0
  0
LINE
  5
1938
330
22
100
AcDbEntity
  8
POW
  6
Continuous
100
AcDbLine
 10
367.468410371781
 20
142.5640209549712
 30
0.0
 11
367.345035371781
 21
142.3854290799712
 31
0.0
  0
ARC
  5
1939
330
22
100
AcDbEntity
  8
POW
  6
Continuous
100
AcDbCircle
 10
367.324560371781
 20
142.3989215799712
 30
0.0
 40
0.0245175
100
AcDbArc
 50
135.7717270000003
 51
326.6192519999993
  0
LINE
  5
193A
330
22
100
AcDbEntity
  8
POW
  6
Continuous
100
AcDbLine
 10
367.3069991217811
 20
142.4160234549712
 30
0.0
 11
367.3488809967811
 21
142.4850740799712
 31
0.0
  0
LINE
  5
193B
330
22
100
AcDbEntity
  8
POW
  6
Continuous
100
AcDbLine
 10
367.3488809967811
 20
142.4850740799712
 30
0.0
 11
367.447344746781
 21
142.6217840799712
 31
0.0
  0
ARC
  5
193C
330
22
100
AcDbEntity
  8
POW
  6
Continuous
100
AcDbCircle
 10
367.514400371781
 20
142.6273622049712
 30
0.0
 40
0.067291875
100
AcDbArc
 50
108.188987999999
 51
184.7558729999996
  0
LINE
  5
193D
330
22
100
AcDbEntity
  8
POW
  6
Continuous
100
AcDbLine
 10
367.493400371781
 20
142.6912809549712
 30
0.0
 11
367.5049109967811
 21
142.7331759549712
 31
0.0
  0
ARC
  5
193E
330
22
100
AcDbEntity
  8
POW
  6
Continuous
100
AcDbCircle
 10
367.498204121781
 20
142.7604497049712
 30
0.0
 40
0.0280875
100
AcDbArc
 50
185.6294749999996
 51
283.8125579999982
  0
LINE
  5
193F
330
22
100
AcDbEntity
  8
POW
  6
Continuous
100
AcDbLine
 10
367.4702609967811
 20
142.7576934549712
 30
0.0
 11
367.4351909967811
 21
142.7713040799712
 31
0.0
  0
ARC
  5
1940
330
22
100
AcDbEntity
  8
POW
  6
Continuous
100
AcDbCircle
 10
367.4192309967811
 20
142.7643872049712
 30
0.0
 40
0.017390625
100
AcDbArc
 50
23.4674620000002
 51
175.0530820000003
  0
LINE
  5
1941
330
22
100
AcDbEntity
  8
POW
  6
Continuous
100
AcDbLine
 10
367.4019059967811
 20
142.7658834549712
 30
0.0
 11
367.355180996781
 21
142.6992740799712
 31
0.0
  0
LINE
  5
1942
330
22
100
AcDbEntity
  8
POW
  6
Continuous
100
AcDbLine
 10
367.355180996781
 20
142.6992740799712
 30
0.0
 11
367.2169616217811
 21
142.4728678299712
 31
0.0
  0
ARC
  5
1943
330
22
100
AcDbEntity
  8
POW
  6
Continuous
100
AcDbCircle
 10
367.2919841217811
 20
142.4127815799712
 30
0.0
 40
0.0961275
100
AcDbArc
 50
141.304997999999
 51
232.7765410000004
  0
LINE
  5
1944
330
22
100
AcDbEntity
  8
POW
  6
Continuous
100
AcDbLine
 10
367.2338272467811
 20
142.3362365799712
 30
0.0
 11
367.333196621781
 21
142.2797203299712
 31
0.0
  0
ARC
  5
1945
330
22
100
AcDbEntity
  8
POW
  6
Continuous
100
AcDbCircle
 10
369.0597378717811
 20
142.5147890799712
 30
0.0
 40
0.157828125
100
AcDbArc
 50
280.2250560000008
 51
321.5631249999999
  0
LINE
  5
1946
330
22
100
AcDbEntity
  8
POW
  6
Continuous
100
AcDbLine
 10
369.1833622467811
 20
142.4166797049712
 30
0.0
 11
369.2130509967811
 21
142.4733665799712
 31
0.0
  0
LINE
  5
1947
330
22
100
AcDbEntity
  8
POW
  6
Continuous
100
AcDbLine
 10
369.2130509967811
 20
142.4733665799712
 30
0.0
 11
369.277494746781
 21
142.4847984549712
 31
0.0
  0
ARC
  5
1948
330
22
100
AcDbEntity
  8
POW
  6
Continuous
100
AcDbCircle
 10
369.365064746781
 20
142.0530515799712
 30
0.0
 40
0.440540625
100
AcDbArc
 50
66.12052399999829
 51
101.4656829999987
  0
ARC
  5
1949
330
22
100
AcDbEntity
  8
POW
  6
Continuous
100
AcDbCircle
 10
369.7323547467811
 20
142.5870947049712
 30
0.0
 40
0.230041875
100
AcDbArc
 50
214.7784070000001
 51
278.3172839999987
  0
LINE
  5
194A
330
22
100
AcDbEntity
  8
POW
  6
Continuous
100
AcDbLine
 10
369.7656266217811
 20
142.3594809549712
 30
0.0
 11
369.894947246781
 21
142.3708734549712
 31
0.0
  0
LINE
  5
194B
330
22
100
AcDbEntity
  8
POW
  6
Continuous
100
AcDbLine
 10
369.894947246781
 20
142.3708734549712
 30
0.0
 11
369.9535241217811
 21
142.3821478299712
 31
0.0
  0
LINE
  5
194C
330
22
100
AcDbEntity
  8
POW
  6
Continuous
100
AcDbLine
 10
369.9535241217811
 20
142.3821478299712
 30
0.0
 11
369.918926621781
 21
142.4296209549712
 31
0.0
  0
LINE
  5
194D
330
22
100
AcDbEntity
  8
POW
  6
Continuous
100
AcDbLine
 10
369.918926621781
 20
142.4296209549712
 30
0.0
 11
369.886494746781
 21
142.4615015799712
 31
0.0
  0
ARC
  5
194E
330
22
100
AcDbEntity
  8
POW
  6
Continuous
100
AcDbCircle
 10
369.9085709967811
 20
142.4794565799712
 30
0.0
 40
0.028468125
100
AcDbArc
 50
81.17056699999887
 51
219.1129330000006
  0
ARC
  5
194F
330
22
100
AcDbEntity
  8
POW
  6
Continuous
100
AcDbCircle
 10
369.947644121781
 20
142.3594415799712
 30
0.0
 40
0.152158125
100
AcDbArc
 50
55.86071400000133
 51
103.1857150000011
  0
LINE
  5
1950
330
22
100
AcDbEntity
  8
POW
  6
Continuous
100
AcDbLine
 10
370.0330484967811
 20
142.4853759549712
 30
0.0
 11
370.1706641217811
 21
142.3957453299712
 31
0.0
  0
LINE
  5
1951
330
22
100
AcDbEntity
  8
POW
  6
Continuous
100
AcDbLine
 10
370.1706641217811
 20
142.3957453299712
 30
0.0
 11
370.291085996781
 21
142.4270615799712
 31
0.0
  0
LINE
  5
1952
330
22
100
AcDbEntity
  8
POW
  6
Continuous
100
AcDbLine
 10
370.291085996781
 20
142.4270615799712
 30
0.0
 11
370.3908491217811
 21
142.4729859549712
 31
0.0
  0
ARC
  5
1953
330
22
100
AcDbEntity
  8
POW
  6
Continuous
100
AcDbCircle
 10
370.374928496781
 20
142.4929622049712
 30
0.0
 40
0.02554125
100
AcDbArc
 50
308.5478870000019
 51
86.01786600000147
  0
LINE
  5
1954
330
22
100
AcDbEntity
  8
POW
  6
Continuous
100
AcDbLine
 10
370.376700371781
 20
142.5184378299712
 30
0.0
 11
370.3408428717811
 21
142.5579309549712
 31
0.0
  0
ARC
  5
1955
330
22
100
AcDbEntity
  8
POW
  6
Continuous
100
AcDbCircle
 10
370.3491247467811
 20
142.5770672049712
 30
0.0
 40
0.0208425
100
AcDbArc
 50
87.93378800000001
 51
246.5978389999985
  0
ARC
  5
1956
330
22
100
AcDbEntity
  8
POW
  6
Continuous
100
AcDbCircle
 10
370.389982871781
 20
142.5487959549712
 30
0.0
 40
0.063406875
100
AcDbArc
 50
75.32144300000095
 51
129.2421210000017
  0
ARC
  5
1957
330
22
100
AcDbEntity
  8
POW
  6
Continuous
100
AcDbCircle
 10
370.411219121781
 20
142.3150659549712
 30
0.0
 40
0.2951025
100
AcDbArc
 50
61.81648599999832
 51
91.00364200000031
  0
ARC
  5
1958
330
22
100
AcDbEntity
  8
POW
  6
Continuous
100
AcDbCircle
 10
370.606492871781
 20
142.6890890799712
 30
0.0
 40
0.126879375
100
AcDbArc
 50
243.8607929999988
 51
306.2984680000001
  0
LINE
  5
1959
330
22
100
AcDbEntity
  8
POW
  6
Continuous
100
AcDbLine
 10
370.6816072467811
 20
142.5868322049712
 30
0.0
 11
370.8645697467811
 21
142.6992478299712
 31
0.0
  0
ARC
  5
195A
330
22
100
AcDbEntity
  8
POW
  6
Continuous
100
AcDbCircle
 10
370.865869121781
 20
142.7291597049712
 30
0.0
 40
0.02995125
100
AcDbArc
 50
267.4989580000003
 51
12.69109800000054
  0
LINE
  5
195B
330
22
100
AcDbEntity
  8
POW
  6
Continuous
100
AcDbLine
 10
370.8950853717811
 20
142.7357353299712
 30
0.0
 11
370.8453809967811
 21
142.7698865799712
 31
0.0
  0
ARC
  5
195C
330
22
100
AcDbEntity
  8
POW
  6
Continuous
100
AcDbCircle
 10
370.8440816217811
 20
142.7953490799712
 30
0.0
 40
0.02548875
100
AcDbArc
 50
119.6633989999991
 51
272.9106920000012
  0
LINE
  5
195D
330
22
100
AcDbEntity
  8
POW
  6
Continuous
100
AcDbLine
 10
370.8314684967811
 20
142.8175040799712
 30
0.0
 11
370.852914746781
 21
142.8380184549712
 31
0.0
  0
LINE
  5
195E
330
22
100
AcDbEntity
  8
POW
  6
Continuous
100
AcDbLine
 10
370.852914746781
 20
142.8380184549712
 30
0.0
 11
370.876264121781
 21
142.8490565799712
 31
0.0
  0
LINE
  5
195F
330
22
100
AcDbEntity
  8
POW
  6
Continuous
100
AcDbLine
 10
370.876264121781
 20
142.8490565799712
 30
0.0
 11
371.023001621781
 21
142.8152072049712
 31
0.0
  0
LINE
  5
1960
330
22
100
AcDbEntity
  8
POW
  6
Continuous
100
AcDbLine
 10
371.023001621781
 20
142.8152072049712
 30
0.0
 11
371.144512871781
 21
142.8829059549712
 31
0.0
  0
LINE
  5
1961
330
22
100
AcDbEntity
  8
POW
  6
Continuous
100
AcDbLine
 10
371.144512871781
 20
142.8829059549712
 30
0.0
 11
371.230127246781
 21
142.9527309549712
 31
0.0
  0
LINE
  5
1962
330
22
100
AcDbEntity
  8
POW
  6
Continuous
100
AcDbLine
 10
371.230127246781
 20
142.9527309549712
 30
0.0
 11
371.270040371781
 21
142.9974084549712
 31
0.0
  0
ARC
  5
1963
330
22
100
AcDbEntity
  8
POW
  6
Continuous
100
AcDbCircle
 10
371.264869121781
 20
143.0054803299712
 30
0.0
 40
0.009594375
100
AcDbArc
 50
302.6544959999982
 51
164.4853429999991
  0
LINE
  5
1964
330
22
100
AcDbEntity
  8
POW
  6
Continuous
100
AcDbLine
 10
371.2556159967811
 20
143.0080397049712
 30
0.0
 11
371.2295497467811
 21
143.0252465799712
 31
0.0
  0
LINE
  5
1965
330
22
100
AcDbEntity
  8
POW
  6
Continuous
100
AcDbLine
 10
371.2295497467811
 20
143.0252465799712
 30
0.0
 11
371.1714847467811
 21
143.0625740799712
 31
0.0
  0
LINE
  5
1966
330
22
100
AcDbEntity
  8
POW
  6
Continuous
100
AcDbLine
 10
371.1714847467811
 20
143.0625740799712
 30
0.0
 11
371.2134059967811
 21
143.1119503299712
 31
0.0
  0
LINE
  5
1967
330
22
100
AcDbEntity
  8
POW
  6
Continuous
100
AcDbLine
 10
371.2134059967811
 20
143.1119503299712
 30
0.0
 11
371.2742666217811
 21
143.1565228299712
 31
0.0
  0
ARC
  5
1968
330
22
100
AcDbEntity
  8
POW
  6
Continuous
100
AcDbCircle
 10
371.3236953717811
 20
143.1276215799712
 30
0.0
 40
0.057264375
100
AcDbArc
 50
65.65118599999964
 51
149.6836559999999
  0
LINE
  5
1969
330
22
100
AcDbEntity
  8
POW
  6
Continuous
100
AcDbLine
 10
371.3473072467811
 20
143.1797934549712
 30
0.0
 11
371.4806572467811
 21
143.1610772049712
 31
0.0
  0
ARC
  5
196A
330
22
100
AcDbEntity
  8
POW
  6
Continuous
100
AcDbCircle
 10
371.436504746781
 20
143.3097178299712
 30
0.0
 40
0.15505875
100
AcDbArc
 50
286.5447300000006
 51
330.27567
  0
ARC
  5
196B
330
22
100
AcDbEntity
  8
POW
  6
Continuous
100
AcDbCircle
 10
371.4385391217811
 20
143.4600515799712
 30
0.0
 40
0.2630775
100
AcDbArc
 50
300.2711390000001
 51
346.0759139999991
  0
LINE
  5
196C
330
22
100
AcDbEntity
  8
POW
  6
Continuous
100
AcDbLine
 10
371.693899121781
 20
143.3967365799712
 30
0.0
 11
371.5826647467811
 21
143.4349697049712
 31
0.0
  0
ARC
  5
196D
330
22
100
AcDbEntity
  8
POW
  6
Continuous
100
AcDbCircle
 10
371.592679121781
 20
143.4510740799712
 30
0.0
 40
0.018965625
100
AcDbArc
 50
83.09216099999892
 51
238.1142300000006
  0
LINE
  5
196E
330
22
100
AcDbEntity
  8
POW
  6
Continuous
100
AcDbLine
 10
371.594962871781
 20
143.4698953299712
 30
0.0
 11
371.6283266217811
 21
143.5100709549712
 31
0.0
  0
ARC
  5
196F
330
22
100
AcDbEntity
  8
POW
  6
Continuous
100
AcDbCircle
 10
371.7084284967811
 20
143.4630309549712
 30
0.0
 40
0.092885625
100
AcDbArc
 50
86.69588700000041
 51
149.5747929999996
  0
LINE
  5
1970
330
22
100
AcDbEntity
  8
POW
  6
Continuous
100
AcDbLine
 10
371.713770371781
 20
143.5557590799712
 30
0.0
 11
371.8379722467811
 21
143.5667053299712
 31
0.0
  0
ARC
  5
1971
330
22
100
AcDbEntity
  8
POW
  6
Continuous
100
AcDbCircle
 10
369.3361109967811
 20
144.6251840799712
 30
0.0
 40
2.71656
100
AcDbArc
 50
337.0679129999999
 51
346.8705859999996
  0
ARC
  5
1972
330
22
100
AcDbEntity
  8
POW
  6
Continuous
100
AcDbCircle
 10
371.971400996781
 20
144.0154228299712
 30
0.0
 40
0.012586875
100
AcDbArc
 50
324.5299090000007
 51
138.6709549999987
  0
ARC
  5
1973
330
22
100
AcDbEntity
  8
POW
  6
Continuous
100
AcDbCircle
 10
371.9493116217811
 20
144.0209090799712
 30
0.0
 40
0.012954375
100
AcDbArc
 50
221.5581059999983
 51
12.54967800000078
  0
LINE
  5
1974
330
22
100
AcDbEntity
  8
POW
  6
Continuous
100
AcDbLine
 10
371.939625371781
 20
144.0123253299712
 30
0.0
 11
371.9013791217811
 21
143.9873090799712
 31
0.0
  0
LINE
  5
1975
330
22
100
AcDbEntity
  8
POW
  6
Continuous
100
AcDbLine
 10
371.9013791217811
 20
143.9873090799712
 30
0.0
 11
371.819990996781
 21
143.9195315799712
 31
0.0
  0
LINE
  5
1976
330
22
100
AcDbEntity
  8
POW
  6
Continuous
100
AcDbLine
 10
371.819990996781
 20
143.9195315799712
 30
0.0
 11
371.624100371781
 21
143.8178128299712
 31
0.0
  0
ARC
  5
1977
330
22
100
AcDbEntity
  8
POW
  6
Continuous
100
AcDbCircle
 10
371.798295371781
 20
143.6440509549712
 30
0.0
 40
0.24604125
100
AcDbArc
 50
135.0720259999984
 51
179.1505539999996
  0
ARC
  5
1978
330
22
100
AcDbEntity
  8
POW
  6
Continuous
100
AcDbCircle
 10
371.4302834967811
 20
143.6494978299712
 30
0.0
 40
0.12201
100
AcDbArc
 50
306.5067610000019
 51
359.1505539999996
  0
LINE
  5
1979
330
22
100
AcDbEntity
  8
POW
  6
Continuous
100
AcDbLine
 10
371.480066621781
 20
143.5439597049712
 30
0.0
 11
371.5028778717811
 21
143.5514278299712
 31
0.0
  0
ARC
  5
197A
330
22
100
AcDbEntity
  8
POW
  6
Continuous
100
AcDbCircle
 10
371.4731891217811
 20
143.5397334549712
 30
0.0
 40
0.00805875
100
AcDbArc
 50
140.0295600000013
 51
31.58074599999934
  0
LINE
  5
197B
330
22
100
AcDbEntity
  8
POW
  6
Continuous
100
AcDbLine
 10
371.4670203717811
 20
143.5449178299712
 30
0.0
 11
371.4445503717811
 21
143.5906847049712
 31
0.0
  0
ARC
  5
197C
330
22
100
AcDbEntity
  8
POW
  6
Continuous
100
AcDbCircle
 10
371.552149121781
 20
143.2904897049712
 30
0.0
 40
0.318898125
100
AcDbArc
 50
109.7191659999987
 51
160.0021879999996
  0
LINE
  5
197D
330
22
100
AcDbEntity
  8
POW
  6
Continuous
100
AcDbLine
 10
371.252479121781
 20
143.3995453299712
 30
0.0
 11
371.2187609967811
 21
143.2604728299712
 31
0.0
  0
LINE
  5
197E
330
22
100
AcDbEntity
  8
POW
  6
Continuous
100
AcDbLine
 10
371.2187609967811
 20
143.2604728299712
 30
0.0
 11
371.1675603717811
 21
143.2138659549712
 31
0.0
  0
LINE
  5
197F
330
22
100
AcDbEntity
  8
POW
  6
Continuous
100
AcDbLine
 10
371.1675603717811
 20
143.2138659549712
 30
0.0
 11
371.1506684967811
 21
143.1813159549712
 31
0.0
  0
LINE
  5
1980
330
22
100
AcDbEntity
  8
POW
  6
Continuous
100
AcDbLine
 10
371.1506684967811
 20
143.1813159549712
 30
0.0
 11
371.1152834967811
 21
143.1673509549712
 31
0.0
  0
LINE
  5
1981
330
22
100
AcDbEntity
  8
POW
  6
Continuous
100
AcDbLine
 10
371.1152834967811
 20
143.1673509549712
 30
0.0
 11
371.069385371781
 21
143.1380690799712
 31
0.0
  0
LINE
  5
1982
330
22
100
AcDbEntity
  8
POW
  6
Continuous
100
AcDbLine
 10
371.069385371781
 20
143.1380690799712
 30
0.0
 11
371.0589378717811
 21
143.2047047049712
 31
0.0
  0
ARC
  5
1983
330
22
100
AcDbEntity
  8
POW
  6
Continuous
100
AcDbCircle
 10
371.0334491217811
 20
143.1178565799712
 30
0.0
 40
0.09051
100
AcDbArc
 50
73.64301599999873
 51
146.157325000001
  0
LINE
  5
1984
330
22
100
AcDbEntity
  8
POW
  6
Continuous
100
AcDbLine
 10
370.958282246781
 20
143.1682697049712
 30
0.0
 11
370.914379121781
 21
143.1345909549712
 31
0.0
  0
ARC
  5
1985
330
22
100
AcDbEntity
  8
POW
  6
Continuous
100
AcDbCircle
 10
370.8685859967811
 20
143.1485428299712
 30
0.0
 40
0.047866875
100
AcDbArc
 50
267.4507830000004
 51
343.0534940000001
  0
ARC
  5
1986
330
22
100
AcDbEntity
  8
POW
  6
Continuous
100
AcDbCircle
 10
370.9698059967811
 20
142.9971197049712
 30
0.0
 40
0.146330625
100
AcDbArc
 50
134.9288739999986
 51
198.4304219999991
  0
ARC
  5
1987
330
22
100
AcDbEntity
  8
POW
  6
Continuous
100
AcDbCircle
 10
370.712962871781
 20
143.0072653299712
 30
0.0
 40
0.13080375
100
AcDbArc
 50
289.2020679999985
 51
334.4507689999998
  0
ARC
  5
1988
330
22
100
AcDbEntity
  8
POW
  6
Continuous
100
AcDbCircle
 10
370.7306684967811
 20
142.9023834549712
 30
0.0
 40
0.031434375
100
AcDbArc
 50
193.5865659999994
 51
323.632830999999
  0
ARC
  5
1989
330
22
100
AcDbEntity
  8
POW
  6
Continuous
100
AcDbCircle
 10
370.667537246781
 20
142.9061503299712
 30
0.0
 40
0.034426875
100
AcDbArc
 50
341.1016620000004
 51
86.8829419999996
  0
LINE
  5
198A
330
22
100
AcDbEntity
  8
POW
  6
Continuous
100
AcDbLine
 10
370.6694009967811
 20
142.9405247049712
 30
0.0
 11
370.454610371781
 21
142.8374672049712
 31
0.0
  0
LINE
  5
198B
330
22
100
AcDbEntity
  8
POW
  6
Continuous
100
AcDbLine
 10
370.454610371781
 20
142.8374672049712
 30
0.0
 11
370.431339746781
 21
142.8242109549712
 31
0.0
  0
LINE
  5
198C
330
22
100
AcDbEntity
  8
POW
  6
Continuous
100
AcDbLine
 10
370.431339746781
 20
142.8242109549712
 30
0.0
 11
370.432166621781
 21
142.7862140799712
 31
0.0
  0
LINE
  5
198D
330
22
100
AcDbEntity
  8
POW
  6
Continuous
100
AcDbLine
 10
370.432166621781
 20
142.7862140799712
 30
0.0
 11
370.4207872467811
 21
142.7183053299712
 31
0.0
  0
LINE
  5
198E
330
22
100
AcDbEntity
  8
POW
  6
Continuous
100
AcDbLine
 10
370.4207872467811
 20
142.7183053299712
 30
0.0
 11
370.3290828717811
 21
142.6768697049712
 31
0.0
  0
ARC
  5
198F
330
22
100
AcDbEntity
  8
POW
  6
Continuous
100
AcDbCircle
 10
370.308292871781
 20
142.6915040799712
 30
0.0
 40
0.025423125
100
AcDbArc
 50
197.4932950000007
 51
324.8612709999983
  0
LINE
  5
1990
330
22
100
AcDbEntity
  8
POW
  6
Continuous
100
AcDbLine
 10
370.284050996781
 20
142.6838653299712
 30
0.0
 11
370.284339746781
 21
142.7273090799712
 31
0.0
  0
LINE
  5
1991
330
22
100
AcDbEntity
  8
POW
  6
Continuous
100
AcDbLine
 10
370.284339746781
 20
142.7273090799712
 30
0.0
 11
370.2540078717811
 21
142.7346590799712
 31
0.0
  0
ARC
  5
1992
330
22
100
AcDbEntity
  8
POW
  6
Continuous
100
AcDbCircle
 10
370.225985996781
 20
142.7092097049712
 30
0.0
 40
0.0378525
100
AcDbArc
 50
42.25724699999872
 51
137.2837349999982
  0
LINE
  5
1993
330
22
100
AcDbEntity
  8
POW
  6
Continuous
100
AcDbLine
 10
370.1981872467811
 20
142.7348822049712
 30
0.0
 11
370.127351621781
 21
142.7362865799712
 31
0.0
  0
ARC
  5
1994
330
22
100
AcDbEntity
  8
POW
  6
Continuous
100
AcDbCircle
 10
370.1251991217811
 20
142.6271522049712
 30
0.0
 40
0.1091475
100
AcDbArc
 50
88.86422700000052
 51
160.9683879999986
  0
ARC
  5
1995
330
22
100
AcDbEntity
  8
POW
  6
Continuous
100
AcDbCircle
 10
369.957199121781
 20
142.6448972049712
 30
0.0
 40
0.06722625
100
AcDbArc
 50
246.6586639999999
 51
15.39612300000021
  0
LINE
  5
1996
330
22
100
AcDbEntity
  8
POW
  6
Continuous
100
AcDbLine
 10
369.9305684967811
 20
142.5831834549712
 30
0.0
 11
369.873763496781
 21
142.5644409549712
 31
0.0
  0
ARC
  5
1997
330
22
100
AcDbEntity
  8
POW
  6
Continuous
100
AcDbCircle
 10
369.8839616217811
 20
142.5968859549712
 30
0.0
 40
0.03402
100
AcDbArc
 50
134.8638839999983
 51
252.5584070000017
  0
ARC
  5
1998
330
22
100
AcDbEntity
  8
POW
  6
Continuous
100
AcDbCircle
 10
369.803177246781
 20
142.6263384549712
 30
0.0
 40
0.05704125
100
AcDbArc
 50
354.6334110000001
 51
113.9039679999994
  0
ARC
  5
1999
330
22
100
AcDbEntity
  8
POW
  6
Continuous
100
AcDbCircle
 10
369.7333128717811
 20
142.4077153299712
 30
0.0
 40
0.274771875
100
AcDbArc
 50
80.20418400000039
 51
116.3616000000012
  0
ARC
  5
199A
330
22
100
AcDbEntity
  8
POW
  6
Continuous
100
AcDbCircle
 10
369.489581621781
 20
142.6774997049712
 30
0.0
 40
0.123991875
100
AcDbArc
 50
275.1070609999999
 51
349.0362079999993
  0
LINE
  5
199B
330
22
100
AcDbEntity
  8
POW
  6
Continuous
100
AcDbLine
 10
369.5006066217811
 20
142.5540065799712
 30
0.0
 11
369.4636859967811
 21
142.5418134549712
 31
0.0
  0
LINE
  5
199C
330
22
100
AcDbEntity
  8
POW
  6
Continuous
100
AcDbLine
 10
369.4636859967811
 20
142.5418134549712
 30
0.0
 11
369.429757871781
 21
142.5531534549712
 31
0.0
  0
LINE
  5
199D
330
22
100
AcDbEntity
  8
POW
  6
Continuous
100
AcDbLine
 10
369.429757871781
 20
142.5531534549712
 30
0.0
 11
369.3471228717811
 21
142.5531534549712
 31
0.0
  0
ARC
  5
199E
330
22
100
AcDbEntity
  8
POW
  6
Continuous
100
AcDbCircle
 10
369.3281047467811
 20
142.6354865799712
 30
0.0
 40
0.08449875
100
AcDbArc
 50
194.8676480000006
 51
283.0078370000002
  0
ARC
  5
199F
330
22
100
AcDbEntity
  8
POW
  6
Continuous
100
AcDbCircle
 10
369.1593697467811
 20
142.6030547049712
 30
0.0
 40
0.0877275
100
AcDbArc
 50
7.03844799999932
 51
81.73781600000022
  0
LINE
  5
19A0
330
22
100
AcDbEntity
  8
POW
  6
Continuous
100
AcDbLine
 10
369.171982871781
 20
142.6898765799712
 30
0.0
 11
369.061601621781
 21
142.7126615799712
 31
0.0
  0
LINE
  5
19A1
330
22
100
AcDbEntity
  8
POW
  6
Continuous
100
AcDbLine
 10
369.061601621781
 20
142.7126615799712
 30
0.0
 11
369.0254028717811
 21
142.7120840799712
 31
0.0
  0
ARC
  5
19A2
330
22
100
AcDbEntity
  8
POW
  6
Continuous
100
AcDbCircle
 10
369.0082747467811
 20
142.7098659549712
 30
0.0
 40
0.0172725
100
AcDbArc
 50
7.37297600000072
 51
134.9524899999997
  0
ARC
  5
19A3
330
22
100
AcDbEntity
  8
POW
  6
Continuous
100
AcDbCircle
 10
368.9852272467811
 20
142.7235553299712
 30
0.0
 40
0.01094625
100
AcDbArc
 50
187.5160979999999
 51
352.2925870000008
  0
LINE
  5
19A4
330
22
100
AcDbEntity
  8
POW
  6
Continuous
100
AcDbLine
 10
368.974372871781
 20
142.7221247049712
 30
0.0
 11
368.9510366217811
 21
142.7126615799712
 31
0.0
  0
ARC
  5
19A5
330
22
100
AcDbEntity
  8
POW
  6
Continuous
100
AcDbCircle
 10
368.934157871781
 20
142.7147878299711
 30
0.0
 40
0.01701
100
AcDbArc
 50
352.8297990000003
 51
252.6989400000005
  0
LINE
  5
19A6
330
22
100
AcDbEntity
  8
POW
  6
Continuous
100
AcDbLine
 10
368.929091621781
 20
142.6985390799712
 30
0.0
 11
368.9391191217811
 21
142.6620778299712
 31
0.0
  0
ARC
  5
19A7
330
22
100
AcDbEntity
  8
POW
  6
Continuous
100
AcDbCircle
 10
368.936966621781
 20
142.6474828299712
 30
0.0
 40
0.014765625
100
AcDbArc
 50
280.6960580000015
 51
81.65927800000106
  0
ARC
  5
19A8
330
22
100
AcDbEntity
  8
POW
  6
Continuous
100
AcDbCircle
 10
368.8837972467811
 20
142.8230822049712
 30
0.0
 40
0.19816125
100
AcDbArc
 50
202.7495049999996
 51
286.3888040000002
  0
ARC
  5
19A9
330
22
100
AcDbEntity
  8
POW
  6
Continuous
100
AcDbCircle
 10
368.424172871781
 20
142.3898128299712
 30
0.0
 40
0.4515000000000001
100
AcDbArc
 50
52.17675999999933
 51
89.8079680000009
  0
LINE
  5
19AA
330
22
100
AcDbEntity
  8
POW
  6
Continuous
100
AcDbLine
 10
368.425695371781
 20
142.8413128299712
 30
0.0
 11
368.4500553717811
 21
142.7546878299712
 31
0.0
  0
ARC
  5
19AB
330
22
100
AcDbEntity
  8
POW
  6
Continuous
100
AcDbCircle
 10
368.4171116217811
 20
142.8152597049712
 30
0.0
 40
0.068945625
100
AcDbArc
 50
235.7961600000009
 51
298.5450770000012
  0
ARC
  5
19AC
330
22
100
AcDbEntity
  8
POW
  6
Continuous
100
AcDbCircle
 10
368.372709746781
 20
142.8628903299712
 30
0.0
 40
0.104803125
100
AcDbArc
 50
187.6949990000004
 51
273.0893950000004
  0
ARC
  5
19AD
330
22
100
AcDbEntity
  8
POW
  6
Continuous
100
AcDbCircle
 10
368.186177246781
 20
142.8502378299712
 30
0.0
 40
0.0826875
100
AcDbArc
 50
359.0357079999995
 51
54.73183399999901
  0
LINE
  5
19AE
330
22
100
AcDbEntity
  8
POW
  6
Continuous
100
AcDbLine
 10
368.2339259967811
 20
142.9177659549712
 30
0.0
 11
368.153049746781
 21
142.9550015799712
 31
0.0
  0
LINE
  5
19AF
330
22
100
AcDbEntity
  8
POW
  6
Continuous
100
AcDbLine
 10
368.153049746781
 20
142.9550015799712
 30
0.0
 11
367.9934234967811
 21
143.0308115799712
 31
0.0
  0
LINE
  5
19B0
330
22
100
AcDbEntity
  8
POW
  6
Continuous
100
AcDbLine
 10
367.9934234967811
 20
143.0308115799712
 30
0.0
 11
368.0062991217811
 21
143.0186053299712
 31
0.0
  0
LINE
  5
19B1
330
22
100
AcDbEntity
  8
POW
  6
Continuous
100
AcDbLine
 10
368.0062991217811
 20
143.0186053299712
 30
0.0
 11
367.9943684967811
 21
143.0091553299712
 31
0.0
  0
LINE
  5
19B2
330
22
100
AcDbEntity
  8
POW
  6
Continuous
100
AcDbLine
 10
367.9943684967811
 20
143.0091553299712
 30
0.0
 11
368.006036621781
 21
142.9756865799712
 31
0.0
  0
ARC
  5
19B3
330
22
100
AcDbEntity
  8
POW
  6
Continuous
100
AcDbCircle
 10
367.9670159967811
 20
142.9885490799712
 30
0.0
 40
0.04108125
100
AcDbArc
 50
243.0972139999981
 51
341.7499590000007
  0
LINE
  5
19B4
330
22
100
AcDbEntity
  8
POW
  6
Continuous
100
AcDbLine
 10
367.948430996781
 20
142.9519172049712
 30
0.0
 11
367.8907072467811
 21
142.9906097049712
 31
0.0
  0
LINE
  5
19B5
330
22
100
AcDbEntity
  8
POW
  6
Continuous
100
AcDbLine
 10
367.8907072467811
 20
142.9906097049712
 30
0.0
 11
367.868683496781
 21
143.0551453299712
 31
0.0
  0
ARC
  5
19B6
330
22
100
AcDbEntity
  8
POW
  6
Continuous
100
AcDbCircle
 10
367.6538928717811
 20
143.0352347049712
 30
0.0
 40
0.215709375
100
AcDbArc
 50
5.294537000000802
 51
87.41955399999858
  0
ARC
  5
19B7
330
22
100
AcDbEntity
  8
POW
  6
Continuous
100
AcDbCircle
 10
367.6426578717811
 20
143.2291565799712
 30
0.0
 40
0.03005625
100
AcDbArc
 50
242.2608819999994
 51
45.85504899999853
  0
LINE
  5
19B8
330
22
100
AcDbEntity
  8
POW
  6
Continuous
100
AcDbLine
 10
367.6286666217811
 20
143.2025522049712
 30
0.0
 11
367.5724653717811
 21
143.2481353299712
 31
0.0
  0
LINE
  5
19B9
330
22
100
AcDbEntity
  8
POW
  6
Continuous
100
AcDbLine
 10
367.5724653717811
 20
143.2481353299712
 30
0.0
 11
367.5503366217811
 21
143.4364659549712
 31
0.0
  0
ARC
  5
19BA
330
22
100
AcDbEntity
  8
POW
  6
Continuous
100
AcDbCircle
 10
367.294714121781
 20
143.2820109549712
 30
0.0
 40
0.298659375
100
AcDbArc
 50
31.14107099999921
 51
61.12230300000132
  0
ARC
  5
19BB
330
22
100
AcDbEntity
  8
POW
  6
Continuous
100
AcDbCircle
 10
367.3655891217811
 20
143.5321865799712
 30
0.0
 40
0.074221875
100
AcDbArc
 50
8.78619199999931
 51
69.95796499999902
  0
LINE
  5
19BC
330
22
100
AcDbEntity
  8
POW
  6
Continuous
100
AcDbLine
 10
367.3910384967811
 20
143.6019197049712
 30
0.0
 11
367.3678859967811
 21
143.5223822049712
 31
0.0
  0
LINE
  5
19BD
330
22
100
AcDbEntity
  8
POW
  6
Continuous
100
AcDbLine
 10
367.3678859967811
 20
143.5223822049712
 30
0.0
 11
367.354813496781
 21
143.5094803299712
 31
0.0
  0
LINE
  5
19BE
330
22
100
AcDbEntity
  8
POW
  6
Continuous
100
AcDbLine
 10
367.354813496781
 20
143.5094803299712
 30
0.0
 11
367.336005371781
 21
143.5210959549712
 31
0.0
  0
LINE
  5
19BF
330
22
100
AcDbEntity
  8
POW
  6
Continuous
100
AcDbLine
 10
367.336005371781
 20
143.5210959549712
 30
0.0
 11
367.3100178717811
 21
143.5560347049712
 31
0.0
  0
LINE
  5
19C0
330
22
100
AcDbEntity
  8
POW
  6
Continuous
100
AcDbLine
 10
367.3100178717811
 20
143.5560347049712
 30
0.0
 11
367.2644872467811
 21
143.6090465799712
 31
0.0
  0
LINE
  5
19C1
330
22
100
AcDbEntity
  8
POW
  6
Continuous
100
AcDbLine
 10
367.2644872467811
 20
143.6090465799712
 30
0.0
 11
367.264828496781
 21
143.7963797049712
 31
0.0
  0
ARC
  5
19C2
330
22
100
AcDbEntity
  8
POW
  6
Continuous
100
AcDbCircle
 10
367.1625453717811
 20
143.7677803299712
 30
0.0
 40
0.1062075
100
AcDbArc
 50
15.61658900000065
 51
88.27881099999842
  0
ARC
  5
19C3
330
22
100
AcDbEntity
  8
POW
  6
Continuous
100
AcDbCircle
 10
367.008851621781
 20
143.7322640799712
 30
0.0
 40
0.211378125
100
AcDbArc
 50
42.08291899999983
 51
85.41608199999954
  0
LINE
  5
19C4
330
22
100
AcDbEntity
  8
POW
  6
Continuous
100
AcDbLine
 10
367.025743496781
 20
143.9429728299712
 30
0.0
 11
366.966274121781
 21
143.9895272049712
 31
0.0
  0
ARC
  5
19C5
330
22
100
AcDbEntity
  8
POW
  6
Continuous
100
AcDbCircle
 10
366.9523484967811
 20
144.0069440799712
 30
0.0
 40
0.022299375
100
AcDbArc
 50
195.6363559999994
 51
308.6673600000017
  0
ARC
  5
19C6
330
22
100
AcDbEntity
  8
POW
  6
Continuous
100
AcDbCircle
 10
366.9223053717811
 20
143.9866265799712
 30
0.0
 40
0.016681875
100
AcDbArc
 50
59.08130499999926
 51
230.2187209999992
  0
LINE
  5
19C7
330
22
100
AcDbEntity
  8
POW
  6
Continuous
100
AcDbLine
 10
366.911634746781
 20
143.9738034549712
 30
0.0
 11
366.934432871781
 21
143.8049897049712
 31
0.0
  0
LINE
  5
19C8
330
22
100
AcDbEntity
  8
POW
  6
Continuous
100
AcDbLine
 10
366.934432871781
 20
143.8049897049712
 30
0.0
 11
366.991841621781
 21
143.6171315799712
 31
0.0
  0
ARC
  5
19C9
330
22
100
AcDbEntity
  8
POW
  6
Continuous
100
AcDbCircle
 10
367.0520722467811
 20
143.7015515799712
 30
0.0
 40
0.103700625
100
AcDbArc
 50
234.4925500000009
 51
284.9037470000003
  0
LINE
  5
19CA
330
22
100
AcDbEntity
  8
POW
  6
Continuous
100
AcDbLine
 10
367.0787422467811
 20
143.6013422049712
 30
0.0
 11
367.155851621781
 21
143.5785440799712
 31
0.0
  0
LINE
  5
19CB
330
22
100
AcDbEntity
  8
POW
  6
Continuous
100
AcDbLine
 10
367.155851621781
 20
143.5785440799712
 30
0.0
 11
367.2647628717811
 21
143.5041384549712
 31
0.0
  0
LINE
  5
19CC
330
22
100
AcDbEntity
  8
POW
  6
Continuous
100
AcDbLine
 10
367.2647628717811
 20
143.5041384549712
 30
0.0
 11
367.288348496781
 21
143.4433565799712
 31
0.0
  0
LINE
  5
19CD
330
22
100
AcDbEntity
  8
POW
  6
Continuous
100
AcDbLine
 10
367.288348496781
 20
143.4433565799712
 30
0.0
 11
367.230388496781
 21
143.4261103299712
 31
0.0
  0
LINE
  5
19CE
330
22
100
AcDbEntity
  8
POW
  6
Continuous
100
AcDbLine
 10
367.230388496781
 20
143.4261103299712
 30
0.0
 11
367.1002278717811
 21
143.3733478299712
 31
0.0
  0
ARC
  5
19CF
330
22
100
AcDbEntity
  8
POW
  6
Continuous
100
AcDbCircle
 10
367.097353496781
 20
143.3579784549712
 30
0.0
 40
0.015645
100
AcDbArc
 50
79.44033900000028
 51
255.8536370000013
  0
LINE
  5
19D0
330
22
100
AcDbEntity
  8
POW
  6
Continuous
100
AcDbLine
 10
367.093534121781
 20
143.3428059549712
 30
0.0
 11
367.116489746781
 21
143.3136684549712
 31
0.0
  0
LINE
  5
19D1
330
22
100
AcDbEntity
  8
POW
  6
Continuous
100
AcDbLine
 10
367.116489746781
 20
143.3136684549712
 30
0.0
 11
367.173793496781
 21
143.2657622049712
 31
0.0
  0
LINE
  5
19D2
330
22
100
AcDbEntity
  8
POW
  6
Continuous
100
AcDbLine
 10
367.173793496781
 20
143.2657622049712
 30
0.0
 11
367.273937246781
 21
143.1917109549712
 31
0.0
  0
ARC
  5
19D3
330
22
100
AcDbEntity
  8
POW
  6
Continuous
100
AcDbCircle
 10
367.349537246781
 20
143.2449065799712
 30
0.0
 40
0.092439375
100
AcDbArc
 50
215.1302789999997
 51
304.3670390000011
  0
LINE
  5
19D4
330
22
100
AcDbEntity
  8
POW
  6
Continuous
100
AcDbLine
 10
367.401722246781
 20
143.1686109549712
 30
0.0
 11
367.468187246781
 21
143.1911859549712
 31
0.0
  0
ARC
  5
19D5
330
22
100
AcDbEntity
  8
POW
  6
Continuous
100
AcDbCircle
 10
367.502404121781
 20
143.1507872049712
 30
0.0
 40
0.052933125
100
AcDbArc
 50
46.11381900000169
 51
130.2623089999987
  0
LINE
  5
19D6
330
22
100
AcDbEntity
  8
POW
  6
Continuous
100
AcDbLine
 10
367.5390884967811
 20
143.1889415799712
 30
0.0
 11
367.594909121781
 21
143.1000328299712
 31
0.0
  0
ARC
  5
19D7
330
22
100
AcDbEntity
  8
POW
  6
Continuous
100
AcDbCircle
 10
367.443354746781
 20
143.2301934549712
 30
0.0
 40
0.1997625
100
AcDbArc
 50
278.1884259999986
 51
319.3442659999992
  0
ARC
  5
19D8
330
22
100
AcDbEntity
  8
POW
  6
Continuous
100
AcDbCircle
 10
367.619675996781
 20
143.0760534549712
 30
0.0
 40
0.154153125
100
AcDbArc
 50
196.4259619999994
 51
251.8575510000015
  0
LINE
  5
19D9
330
22
100
AcDbEntity
  8
POW
  6
Continuous
100
AcDbLine
 10
367.571677871781
 20
142.9295653299712
 30
0.0
 11
367.667857871781
 21
142.8599897049712
 31
0.0
  0
LINE
  5
19DA
330
22
100
AcDbEntity
  8
POW
  6
Continuous
100
AcDbLine
 10
367.667857871781
 20
142.8599897049712
 30
0.0
 11
367.8094897467811
 21
142.9172015799712
 31
0.0
  0
ARC
  5
19DB
330
22
100
AcDbEntity
  8
POW
  6
Continuous
100
AcDbCircle
 10
367.840950371781
 20
142.8831684549712
 30
0.0
 40
0.0463575
100
AcDbArc
 50
33.62084300000039
 51
132.7485939999982
  0
LINE
  5
19DC
330
22
100
AcDbEntity
  8
POW
  6
Continuous
100
AcDbLine
 10
367.879550996781
 20
142.9088278299712
 30
0.0
 11
367.9491134967811
 21
142.8822103299712
 31
0.0
  0
ARC
  5
19DD
330
22
100
AcDbEntity
  8
POW
  6
Continuous
100
AcDbCircle
 10
367.806352871781
 20
142.9274915799712
 30
0.0
 40
0.1497825
100
AcDbArc
 50
294.3705399999999
 51
342.4042539999994
  0
ARC
  5
19DE
330
22
100
AcDbEntity
  8
POW
  6
Continuous
100
AcDbCircle
 10
367.858354121781
 20
142.7702278299712
 30
0.0
 40
0.023008125
100
AcDbArc
 50
64.8014999999988
 51
265.0025610000014
  0
ARC
  5
19DF
330
22
100
AcDbEntity
  8
POW
  6
Continuous
100
AcDbCircle
 10
367.9225353717811
 20
142.7724197049712
 30
0.0
 40
0.07079625
100
AcDbArc
 50
200.7775669999996
 51
266.8991879999995
  0
LINE
  5
19E0
330
22
100
AcDbEntity
  8
POW
  6
Continuous
100
AcDbLine
 10
367.918715996781
 20
142.7017284549712
 30
0.0
 11
368.062001621781
 21
142.6138959549712
 31
0.0
  0
ARC
  5
19E1
330
22
100
AcDbEntity
  8
POW
  6
Continuous
100
AcDbCircle
 10
368.1070597467811
 20
142.6638103299712
 30
0.0
 40
0.067239375
100
AcDbArc
 50
227.9281639999987
 51
333.1630860000005
  0
LINE
  5
19E2
330
22
100
AcDbEntity
  8
POW
  6
Continuous
100
AcDbLine
 10
368.1670541217811
 20
142.6334522049712
 30
0.0
 11
368.2555822467811
 21
142.7003240799712
 31
0.0
  0
LINE
  5
19E3
330
22
100
AcDbEntity
  8
POW
  6
Continuous
100
AcDbLine
 10
368.2555822467811
 20
142.7003240799712
 30
0.0
 11
368.4130166217811
 21
142.6679315799712
 31
0.0
  0
LINE
  5
19E4
330
22
100
AcDbEntity
  8
POW
  6
Continuous
100
AcDbLine
 10
368.4130166217811
 20
142.6679315799712
 30
0.0
 11
368.4262466217811
 21
142.6379803299712
 31
0.0
  0
ARC
  5
19E5
330
22
100
AcDbEntity
  8
POW
  6
Continuous
100
AcDbCircle
 10
368.430407246781
 20
142.6298690799712
 30
0.0
 40
0.00910875
100
AcDbArc
 50
247.3462829999988
 51
117.1845340000001
  0
LINE
  5
19E6
330
22
100
AcDbEntity
  8
POW
  6
Continuous
100
AcDbLine
 10
368.426902871781
 20
142.6214690799712
 30
0.0
 11
368.393617871781
 21
142.5675122049712
 31
0.0
  0
LINE
  5
19E7
330
22
100
AcDbEntity
  8
POW
  6
Continuous
100
AcDbLine
 10
368.393617871781
 20
142.5675122049712
 30
0.0
 11
368.363679746781
 21
142.5191072049712
 31
0.0
  0
ARC
  5
19E8
330
22
100
AcDbEntity
  8
POW
  6
Continuous
100
AcDbCircle
 10
368.3638766217811
 20
142.5012178299712
 30
0.0
 40
0.01787625
100
AcDbArc
 50
90.62946000000064
 51
293.6316689999984
  0
LINE
  5
19E9
330
22
100
AcDbEntity
  8
POW
  6
Continuous
100
AcDbLine
 10
368.3710428717811
 20
142.4848378299712
 30
0.0
 11
368.516940371781
 21
142.4512509549712
 31
0.0
  0
LINE
  5
19EA
330
22
100
AcDbEntity
  8
POW
  6
Continuous
100
AcDbLine
 10
368.516940371781
 20
142.4512509549712
 30
0.0
 11
368.5794941217811
 21
142.4392284549712
 31
0.0
  0
LINE
  5
19EB
330
22
100
AcDbEntity
  8
POW
  6
Continuous
100
AcDbLine
 10
368.5794941217811
 20
142.4392284549712
 30
0.0
 11
368.6196303717811
 21
142.4386378299712
 31
0.0
  0
ARC
  5
19EC
330
22
100
AcDbEntity
  8
POW
  6
Continuous
100
AcDbCircle
 10
368.6311147467811
 20
142.4490197049712
 30
0.0
 40
0.015474375
100
AcDbArc
 50
84.64031499999867
 51
222.1057519999997
  0
ARC
  5
19ED
330
22
100
AcDbEntity
  8
POW
  6
Continuous
100
AcDbCircle
 10
368.752534121781
 20
142.4458434549712
 30
0.0
 40
0.12140625
100
AcDbArc
 50
117.5015980000007
 51
171.1984340000002
  0
ARC
  5
19EE
330
22
100
AcDbEntity
  8
POW
  6
Continuous
100
AcDbCircle
 10
368.7623253717811
 20
142.4650978299712
 30
0.0
 40
0.110263125
100
AcDbArc
 50
53.00017799999959
 51
126.6718929999998
  0
ARC
  5
19EF
330
22
100
AcDbEntity
  8
POW
  6
Continuous
100
AcDbCircle
 10
368.8406291217811
 20
142.5126890799712
 30
0.0
 40
0.04218375
100
AcDbArc
 50
355.4309870000007
 51
106.4392570000009
  0
LINE
  5
19F0
330
22
100
AcDbEntity
  8
POW
  6
Continuous
100
AcDbLine
 10
368.882681621781
 20
142.5093290799712
 30
0.0
 11
368.8366259967811
 21
142.4666465799712
 31
0.0
  0
ARC
  5
19F1
330
22
100
AcDbEntity
  8
POW
  6
Continuous
100
AcDbCircle
 10
368.868309746781
 20
142.4261165799712
 30
0.0
 40
0.05145
100
AcDbArc
 50
128.0127799999998
 51
301.5374699999993
  0
LINE
  5
19F2
330
22
100
AcDbEntity
  8
POW
  6
Continuous
100
AcDbLine
 10
368.8952159967811
 20
142.3822659549712
 30
0.0
 11
369.0877597467811
 21
142.3594809549712
 31
0.0
  0
ARC
  5
19F3
330
22
100
AcDbEntity
  8
POW
  6
Continuous
100
AcDbCircle
 10
369.697547246781
 20
142.4666072049712
 30
0.0
 40
0.07840875
100
AcDbArc
 50
183.6033270000001
 51
248.5051750000009
  0
LINE
  5
19F4
330
22
100
AcDbEntity
  8
POW
  6
Continuous
100
AcDbLine
 10
369.619295996781
 20
142.4616853299712
 30
0.0
 11
369.6642491217811
 21
142.4852709549712
 31
0.0
  0
LINE
  5
19F5
330
22
100
AcDbEntity
  8
POW
  6
Continuous
100
AcDbLine
 10
369.6642491217811
 20
142.4852709549712
 30
0.0
 11
369.7138878717811
 21
142.4734059549712
 31
0.0
  0
ARC
  5
19F6
330
22
100
AcDbEntity
  8
POW
  6
Continuous
100
AcDbCircle
 10
369.706262246781
 20
142.3637203299712
 30
0.0
 40
0.109948125
100
AcDbArc
 50
24.48555500000058
 51
86.02062500000156
  0
LINE
  5
19F7
330
22
100
AcDbEntity
  8
POW
  6
Continuous
100
AcDbLine
 10
369.806327246781
 20
142.4092903299712
 30
0.0
 11
369.6688166217811
 21
142.3936584549712
 31
0.0
  0
ARC
  5
19F8
330
22
100
AcDbEntity
  8
POW
  6
Continuous
100
AcDbCircle
 10
368.959069121781
 20
142.4660690799712
 30
0.0
 40
0.0428925
100
AcDbArc
 50
106.2178709999983
 51
243.0742339999991
  0
ARC
  5
19F9
330
22
100
AcDbEntity
  8
POW
  6
Continuous
100
AcDbCircle
 10
369.0004128717811
 20
142.4011134549712
 30
0.0
 40
0.11878125
100
AcDbArc
 50
63.68254199999924
 51
116.6762149999985
  0
LINE
  5
19FA
330
22
100
AcDbEntity
  8
POW
  6
Continuous
100
AcDbLine
 10
369.053083496781
 20
142.5075834549712
 30
0.0
 11
369.1108597467811
 21
142.4844178299712
 31
0.0
  0
LINE
  5
19FB
330
22
100
AcDbEntity
  8
POW
  6
Continuous
100
AcDbLine
 10
369.1108597467811
 20
142.4844178299712
 30
0.0
 11
369.099532871781
 21
142.4511459549712
 31
0.0
  0
LINE
  5
19FC
330
22
100
AcDbEntity
  8
POW
  6
Continuous
100
AcDbLine
 10
369.099532871781
 20
142.4511459549712
 30
0.0
 11
369.075815996781
 21
142.4373122049712
 31
0.0
  0
LINE
  5
19FD
330
22
100
AcDbEntity
  8
POW
  6
Continuous
100
AcDbLine
 10
369.075815996781
 20
142.4373122049712
 30
0.0
 11
368.9396441217811
 21
142.4278359549712
 31
0.0
  0
ARC
  5
19FE
330
22
100
AcDbEntity
  8
POW
  6
Continuous
100
AcDbCircle
 10
370.1473278717811
 20
142.5023203299712
 30
0.0
 40
0.040306875
100
AcDbArc
 50
155.308317
 51
270.0107939999992
  0
LINE
  5
19FF
330
22
100
AcDbEntity
  8
POW
  6
Continuous
100
AcDbLine
 10
370.1107091217811
 20
142.5191597049712
 30
0.0
 11
370.208345996781
 21
142.5303684549712
 31
0.0
  0
ARC
  5
1A00
330
22
100
AcDbEntity
  8
POW
  6
Continuous
100
AcDbCircle
 10
370.2305403717811
 20
142.5069140799712
 30
0.0
 40
0.0322875
100
AcDbArc
 50
306.0703210000003
 51
133.4003330000011
  0
ARC
  5
1A01
330
22
100
AcDbEntity
  8
POW
  6
Continuous
100
AcDbCircle
 10
370.175966621781
 20
142.5936178299712
 30
0.0
 40
0.134675625
100
AcDbArc
 50
257.7244659999984
 51
303.1159500000001
  0
ARC
  5
1A02
330
22
100
AcDbEntity
  8
POW
  6
Continuous
100
AcDbCircle
 10
367.092116621781
 20
142.5855722049712
 30
0.0
 40
0.11673375
100
AcDbArc
 50
255.2938980000009
 51
331.4727320000006
  0
LINE
  5
1A03
330
22
100
AcDbEntity
  8
POW
  6
Continuous
100
AcDbLine
 10
367.2868653717811
 20
142.6539928299712
 30
0.0
 11
367.194675371781
 21
142.5298303299712
 31
0.0
  0
ARC
  5
1A04
330
22
100
AcDbEntity
  8
POW
  6
Continuous
100
AcDbCircle
 10
367.1402459967811
 20
142.8408272049712
 30
0.0
 40
0.237496875
100
AcDbArc
 50
308.1218209999985
 51
343.0053889999991
  0
ARC
  5
1A05
330
22
100
AcDbEntity
  8
POW
  6
Continuous
100
AcDbCircle
 10
367.2599591217811
 20
142.7895609549712
 30
0.0
 40
0.1089375
100
AcDbArc
 50
350.4151649999994
 51
73.69486600000098
  0
ARC
  5
1A06
330
22
100
AcDbEntity
  8
POW
  6
Continuous
100
AcDbCircle
 10
367.2070784967811
 20
142.8135665799712
 30
0.0
 40
0.115985625
100
AcDbArc
 50
43.97921299999985
 51
149.3402029999987
  0
LINE
  5
1A07
330
22
100
AcDbEntity
  8
POW
  6
Continuous
100
AcDbLine
 10
367.107302246781
 20
142.8727209549712
 30
0.0
 11
366.9953722467811
 21
142.7357747049712
 31
0.0
  0
ARC
  5
1A08
330
22
100
AcDbEntity
  8
POW
  6
Continuous
100
AcDbCircle
 10
367.101894746781
 20
142.6228340799712
 30
0.0
 40
0.155255625
100
AcDbArc
 50
133.3229669999983
 51
255.2938980000009
  0
LINE
  5
1A09
330
22
100
AcDbEntity
  8
POW
  6
Continuous
100
AcDbLine
 10
368.495310371781
 20
142.5075834549712
 30
0.0
 11
368.4534809967811
 21
142.5181622049712
 31
0.0
  0
LINE
  5
1A0A
330
22
100
AcDbEntity
  8
POW
  6
Continuous
100
AcDbLine
 10
368.4534809967811
 20
142.5181622049712
 30
0.0
 11
368.460397871781
 21
142.5630103299712
 31
0.0
  0
LINE
  5
1A0B
330
22
100
AcDbEntity
  8
POW
  6
Continuous
100
AcDbLine
 10
368.460397871781
 20
142.5630103299712
 30
0.0
 11
368.521297871781
 21
142.6109690799712
 31
0.0
  0
ARC
  5
1A0C
330
22
100
AcDbEntity
  8
POW
  6
Continuous
100
AcDbCircle
 10
368.5459334967811
 20
142.5915309549712
 30
0.0
 40
0.031381875
100
AcDbArc
 50
305.6028499999998
 51
141.7361700000003
  0
LINE
  5
1A0D
330
22
100
AcDbEntity
  8
POW
  6
Continuous
100
AcDbLine
 10
368.564203496781
 20
142.5660290799712
 30
0.0
 11
368.5382422467811
 21
142.5181359549712
 31
0.0
  0
LINE
  5
1A0E
330
22
100
AcDbEntity
  8
POW
  6
Continuous
100
AcDbLine
 10
368.5382422467811
 20
142.5181359549712
 30
0.0
 11
368.495310371781
 21
142.5075834549712
 31
0.0
  0
ARC
  5
1A0F
330
22
100
AcDbEntity
  8
POW
  6
Continuous
100
AcDbCircle
 10
367.072822871781
 20
142.5946940799712
 30
0.0
 40
0.038810625
100
AcDbArc
 50
100.5138279999989
 51
230.9300109999992
  0
LINE
  5
1A10
330
22
100
AcDbEntity
  8
POW
  6
Continuous
100
AcDbLine
 10
367.0657484967811
 20
142.6328484549712
 30
0.0
 11
367.119469121781
 21
142.7017678299712
 31
0.0
  0
LINE
  5
1A11
330
22
100
AcDbEntity
  8
POW
  6
Continuous
100
AcDbLine
 10
367.119469121781
 20
142.7017678299712
 30
0.0
 11
367.2196653717811
 21
142.8268884549712
 31
0.0
  0
ARC
  5
1A12
330
22
100
AcDbEntity
  8
POW
  6
Continuous
100
AcDbCircle
 10
367.2408359967811
 20
142.8155090799712
 30
0.0
 40
0.02401875
100
AcDbArc
 50
2.555514999999654
 51
151.7524059999988
  0
LINE
  5
1A13
330
22
100
AcDbEntity
  8
POW
  6
Continuous
100
AcDbLine
 10
367.264828496781
 20
142.8165853299712
 30
0.0
 11
367.2419647467811
 21
142.7711990799712
 31
0.0
  0
LINE
  5
1A14
330
22
100
AcDbEntity
  8
POW
  6
Continuous
100
AcDbLine
 10
367.2419647467811
 20
142.7711990799712
 30
0.0
 11
367.1848972467811
 21
142.7037628299712
 31
0.0
  0
LINE
  5
1A15
330
22
100
AcDbEntity
  8
POW
  6
Continuous
100
AcDbLine
 10
367.1848972467811
 20
142.7037628299712
 30
0.0
 11
367.150575371781
 21
142.6630622049712
 31
0.0
  0
LINE
  5
1A16
330
22
100
AcDbEntity
  8
POW
  6
Continuous
100
AcDbLine
 10
367.150575371781
 20
142.6630622049712
 30
0.0
 11
367.1171984967811
 21
142.6218365799712
 31
0.0
  0
ARC
  5
1A17
330
22
100
AcDbEntity
  8
POW
  6
Continuous
100
AcDbCircle
 10
367.046848496781
 20
142.6363790799712
 30
0.0
 40
0.07184625
100
AcDbArc
 50
271.2053529999995
 51
348.3252940000006
  0
ARC
  5
1A18
330
22
100
AcDbEntity
  8
POW
  6
Continuous
100
AcDbCircle
 10
370.565949746781
 20
142.6421934549712
 30
0.0
 40
0.032195625
100
AcDbArc
 50
169.1773050000006
 51
275.2336400000005
  0
LINE
  5
1A19
330
22
100
AcDbEntity
  8
POW
  6
Continuous
100
AcDbLine
 10
370.5343316217811
 20
142.6482309549712
 30
0.0
 11
370.5572084967811
 21
142.6666978299712
 31
0.0
  0
LINE
  5
1A1A
330
22
100
AcDbEntity
  8
POW
  6
Continuous
100
AcDbLine
 10
370.5572084967811
 20
142.6666978299712
 30
0.0
 11
370.5846003717811
 21
142.6792584549712
 31
0.0
  0
LINE
  5
1A1B
330
22
100
AcDbEntity
  8
POW
  6
Continuous
100
AcDbLine
 10
370.5846003717811
 20
142.6792584549712
 30
0.0
 11
370.6891672467811
 21
142.7240540799712
 31
0.0
  0
LINE
  5
1A1C
330
22
100
AcDbEntity
  8
POW
  6
Continuous
100
AcDbLine
 10
370.6891672467811
 20
142.7240540799712
 30
0.0
 11
370.7374147467811
 21
142.7240540799712
 31
0.0
  0
ARC
  5
1A1D
330
22
100
AcDbEntity
  8
POW
  6
Continuous
100
AcDbCircle
 10
370.7362072467811
 20
142.7087634549712
 30
0.0
 40
0.015343125
100
AcDbArc
 50
284.712064000001
 51
85.46485499999938
  0
LINE
  5
1A1E
330
22
100
AcDbEntity
  8
POW
  6
Continuous
100
AcDbLine
 10
370.7401053717811
 20
142.6939190799712
 30
0.0
 11
370.6849409967811
 21
142.6555547049712
 31
0.0
  0
LINE
  5
1A1F
330
22
100
AcDbEntity
  8
POW
  6
Continuous
100
AcDbLine
 10
370.6849409967811
 20
142.6555547049712
 30
0.0
 11
370.636444121781
 21
142.6210097049712
 31
0.0
  0
LINE
  5
1A20
330
22
100
AcDbEntity
  8
POW
  6
Continuous
100
AcDbLine
 10
370.636444121781
 20
142.6210097049712
 30
0.0
 11
370.5688897467811
 21
142.6101290799712
 31
0.0
  0
LINE
  5
1A21
330
22
100
AcDbEntity
  8
POW
  6
Continuous
100
AcDbLine
 10
371.9588666217811
 20
142.6556990799712
 30
0.0
 11
372.0153041217811
 21
142.7009278299712
 31
0.0
  0
LINE
  5
1A22
330
22
100
AcDbEntity
  8
POW
  6
Continuous
100
AcDbLine
 10
372.0153041217811
 20
142.7009278299712
 30
0.0
 11
372.0280747467811
 21
142.7141840799712
 31
0.0
  0
LINE
  5
1A23
330
22
100
AcDbEntity
  8
POW
  6
Continuous
100
AcDbLine
 10
372.0280747467811
 20
142.7141840799712
 30
0.0
 11
372.0154091217811
 21
142.7248415799712
 31
0.0
  0
LINE
  5
1A24
330
22
100
AcDbEntity
  8
POW
  6
Continuous
100
AcDbLine
 10
372.0154091217811
 20
142.7248415799712
 30
0.0
 11
371.9931884967811
 21
142.7532178299712
 31
0.0
  0
LINE
  5
1A25
330
22
100
AcDbEntity
  8
POW
  6
Continuous
100
AcDbLine
 10
371.9931884967811
 20
142.7532178299712
 30
0.0
 11
371.901641621781
 21
142.8383465799712
 31
0.0
  0
LINE
  5
1A26
330
22
100
AcDbEntity
  8
POW
  6
Continuous
100
AcDbLine
 10
371.901641621781
 20
142.8383465799712
 30
0.0
 11
371.847172871781
 21
142.8951122049712
 31
0.0
  0
LINE
  5
1A27
330
22
100
AcDbEntity
  8
POW
  6
Continuous
100
AcDbLine
 10
371.847172871781
 20
142.8951122049712
 30
0.0
 11
371.805461621781
 21
142.9533478299712
 31
0.0
  0
LINE
  5
1A28
330
22
100
AcDbEntity
  8
POW
  6
Continuous
100
AcDbLine
 10
371.805461621781
 20
142.9533478299712
 30
0.0
 11
371.928770996781
 21
142.8713690799712
 31
0.0
  0
LINE
  5
1A29
330
22
100
AcDbEntity
  8
POW
  6
Continuous
100
AcDbLine
 10
371.928770996781
 20
142.8713690799712
 30
0.0
 11
372.049704746781
 21
142.8154565799712
 31
0.0
  0
ARC
  5
1A2A
330
22
100
AcDbEntity
  8
POW
  6
Continuous
100
AcDbCircle
 10
372.0908778717811
 20
142.8611315799712
 30
0.0
 40
0.061490625
100
AcDbArc
 50
227.9731689999985
 51
348.4742509999999
  0
ARC
  5
1A2B
330
22
100
AcDbEntity
  8
POW
  6
Continuous
100
AcDbCircle
 10
372.129754121781
 20
142.8837197049712
 30
0.0
 40
0.0408975
100
AcDbArc
 50
301.4996140000009
 51
32.11698100000089
  0
LINE
  5
1A2C
330
22
100
AcDbEntity
  8
POW
  6
Continuous
100
AcDbLine
 10
372.164404121781
 20
142.9054678299712
 30
0.0
 11
372.1044622467811
 21
142.9524422049712
 31
0.0
  0
LINE
  5
1A2D
330
22
100
AcDbEntity
  8
POW
  6
Continuous
100
AcDbLine
 10
372.1044622467811
 20
142.9524422049712
 30
0.0
 11
372.085037246781
 21
142.9828528299712
 31
0.0
  0
ARC
  5
1A2E
330
22
100
AcDbEntity
  8
POW
  6
Continuous
100
AcDbCircle
 10
372.075350996781
 20
142.9975922049712
 30
0.0
 40
0.017626875
100
AcDbArc
 50
141.1778900000004
 51
303.2985189999998
  0
LINE
  5
1A2F
330
22
100
AcDbEntity
  8
POW
  6
Continuous
100
AcDbLine
 10
372.061622246781
 20
143.0086434549712
 30
0.0
 11
372.003806621781
 21
143.0548434549712
 31
0.0
  0
LINE
  5
1A30
330
22
100
AcDbEntity
  8
POW
  6
Continuous
100
AcDbLine
 10
372.003806621781
 20
143.0548434549712
 30
0.0
 11
371.887729121781
 21
143.1688209549712
 31
0.0
  0
ARC
  5
1A31
330
22
100
AcDbEntity
  8
POW
  6
Continuous
100
AcDbCircle
 10
371.854509746781
 20
143.1349715799712
 30
0.0
 40
0.04743375
100
AcDbArc
 50
45.52268399999936
 51
258.5167029999989
  0
LINE
  5
1A32
330
22
100
AcDbEntity
  8
POW
  6
Continuous
100
AcDbLine
 10
371.9585647467811
 20
142.9788365799712
 30
0.0
 11
371.8450597467811
 21
143.0884959549712
 31
0.0
  0
LINE
  5
1A33
330
22
100
AcDbEntity
  8
POW
  6
Continuous
100
AcDbLine
 10
371.9585647467811
 20
142.9788365799712
 30
0.0
 11
371.9703247467811
 21
142.9632572049712
 31
0.0
  0
LINE
  5
1A34
330
22
100
AcDbEntity
  8
POW
  6
Continuous
100
AcDbLine
 10
371.9703247467811
 20
142.9632572049712
 30
0.0
 11
371.982478496781
 21
142.9441997049712
 31
0.0
  0
ARC
  5
1A35
330
22
100
AcDbEntity
  8
POW
  6
Continuous
100
AcDbCircle
 10
371.9699441217811
 20
142.9632572049712
 30
0.0
 40
0.02281125
100
AcDbArc
 50
192.0981190000006
 51
303.3405559999983
  0
LINE
  5
1A36
330
22
100
AcDbEntity
  8
POW
  6
Continuous
100
AcDbLine
 10
371.947644746781
 20
142.9584665799712
 30
0.0
 11
371.8870859967811
 21
142.9983272049712
 31
0.0
  0
LINE
  5
1A37
330
22
100
AcDbEntity
  8
POW
  6
Continuous
100
AcDbLine
 10
371.8870859967811
 20
142.9983272049712
 30
0.0
 11
371.800093496781
 21
143.0311922049712
 31
0.0
  0
ARC
  5
1A38
330
22
100
AcDbEntity
  8
POW
  6
Continuous
100
AcDbCircle
 10
371.7893178717811
 20
143.0350640799712
 30
0.0
 40
0.011445
100
AcDbArc
 50
340.203556000001
 51
141.0847130000014
  0
LINE
  5
1A39
330
22
100
AcDbEntity
  8
POW
  6
Continuous
100
AcDbLine
 10
371.7804191217811
 20
143.0422565799712
 30
0.0
 11
371.7655091217811
 21
143.0618653299712
 31
0.0
  0
LINE
  5
1A3A
330
22
100
AcDbEntity
  8
POW
  6
Continuous
100
AcDbLine
 10
371.7655091217811
 20
143.0618653299712
 30
0.0
 11
371.724244121781
 21
143.0546728299712
 31
0.0
  0
LINE
  5
1A3B
330
22
100
AcDbEntity
  8
POW
  6
Continuous
100
AcDbLine
 10
371.724244121781
 20
143.0546728299712
 30
0.0
 11
371.651452871781
 21
142.9745447049712
 31
0.0
  0
LINE
  5
1A3C
330
22
100
AcDbEntity
  8
POW
  6
Continuous
100
AcDbLine
 10
371.651452871781
 20
142.9745447049712
 30
0.0
 11
371.7198341217811
 21
142.9174772049712
 31
0.0
  0
LINE
  5
1A3D
330
22
100
AcDbEntity
  8
POW
  6
Continuous
100
AcDbLine
 10
371.7198341217811
 20
142.9174772049712
 30
0.0
 11
371.9588666217811
 21
142.6556990799712
 31
0.0
  0
LINE
  5
1A3E
330
22
100
AcDbEntity
  8
POW
  6
Continuous
100
AcDbLine
 10
368.0395709967811
 20
142.6898765799712
 30
0.0
 11
367.959324746781
 21
142.7420615799712
 31
0.0
  0
ARC
  5
1A3F
330
22
100
AcDbEntity
  8
POW
  6
Continuous
100
AcDbCircle
 10
368.0137016217811
 20
142.7442797049712
 30
0.0
 40
0.054429375
100
AcDbArc
 50
62.20289599999965
 51
182.3314689999993
  0
LINE
  5
1A40
330
22
100
AcDbEntity
  8
POW
  6
Continuous
100
AcDbLine
 10
368.039085371781
 20
142.7924222049712
 30
0.0
 11
368.108214746781
 21
142.7806359549712
 31
0.0
  0
LINE
  5
1A41
330
22
100
AcDbEntity
  8
POW
  6
Continuous
100
AcDbLine
 10
368.108214746781
 20
142.7806359549712
 30
0.0
 11
368.1415916217811
 21
142.7700178299712
 31
0.0
  0
LINE
  5
1A42
330
22
100
AcDbEntity
  8
POW
  6
Continuous
100
AcDbLine
 10
368.1415916217811
 20
142.7700178299712
 30
0.0
 11
368.1423266217811
 21
142.7327690799712
 31
0.0
  0
ARC
  5
1A43
330
22
100
AcDbEntity
  8
POW
  6
Continuous
100
AcDbCircle
 10
368.0712284967811
 20
142.7585728299712
 30
0.0
 40
0.075639375
100
AcDbArc
 50
245.2618089999993
 51
340.0575939999987
  0
LINE
  5
1A44
330
22
100
AcDbEntity
  8
POW
  6
Continuous
100
AcDbLine
 10
366.740747246781
 20
142.7240540799712
 30
0.0
 11
367.0448797467811
 21
142.9055203299712
 31
0.0
  0
LINE
  5
1A45
330
22
100
AcDbEntity
  8
POW
  6
Continuous
100
AcDbLine
 10
367.0448797467811
 20
142.9055203299712
 30
0.0
 11
367.126149746781
 21
142.9520484549712
 31
0.0
  0
ARC
  5
1A46
330
22
100
AcDbEntity
  8
POW
  6
Continuous
100
AcDbCircle
 10
367.1270422467811
 20
142.9770515799712
 30
0.0
 40
0.02501625
100
AcDbArc
 50
267.9736690000007
 51
22.21777300000092
  0
LINE
  5
1A47
330
22
100
AcDbEntity
  8
POW
  6
Continuous
100
AcDbLine
 10
367.1501947467811
 20
142.9865015799712
 30
0.0
 11
367.1171722467811
 21
143.0170828299712
 31
0.0
  0
ARC
  5
1A48
330
22
100
AcDbEntity
  8
POW
  6
Continuous
100
AcDbCircle
 10
367.0805403717811
 20
142.9811859549712
 30
0.0
 40
0.0512925
100
AcDbArc
 50
44.42541200000028
 51
146.7924339999999
  0
LINE
  5
1A49
330
22
100
AcDbEntity
  8
POW
  6
Continuous
100
AcDbLine
 10
367.0376347467811
 20
143.0092734549712
 30
0.0
 11
366.9785591217811
 21
142.9627847049712
 31
0.0
  0
LINE
  5
1A4A
330
22
100
AcDbEntity
  8
POW
  6
Continuous
100
AcDbLine
 10
366.9785591217811
 20
142.9627847049712
 30
0.0
 11
366.9584253717811
 21
142.9511953299712
 31
0.0
  0
LINE
  5
1A4B
330
22
100
AcDbEntity
  8
POW
  6
Continuous
100
AcDbLine
 10
366.9584253717811
 20
142.9511953299712
 30
0.0
 11
366.9572178717811
 21
142.9860947049712
 31
0.0
  0
LINE
  5
1A4C
330
22
100
AcDbEntity
  8
POW
  6
Continuous
100
AcDbLine
 10
366.9572178717811
 20
142.9860947049712
 30
0.0
 11
366.991369121781
 21
143.0325965799712
 31
0.0
  0
LINE
  5
1A4D
330
22
100
AcDbEntity
  8
POW
  6
Continuous
100
AcDbLine
 10
366.991369121781
 20
143.0325965799712
 30
0.0
 11
367.0258616217811
 21
143.0853722049712
 31
0.0
  0
LINE
  5
1A4E
330
22
100
AcDbEntity
  8
POW
  6
Continuous
100
AcDbLine
 10
367.0258616217811
 20
143.0853722049712
 30
0.0
 11
367.002564746781
 21
143.1343940799712
 31
0.0
  0
LINE
  5
1A4F
330
22
100
AcDbEntity
  8
POW
  6
Continuous
100
AcDbLine
 10
367.002564746781
 20
143.1343940799712
 30
0.0
 11
366.9684922467811
 21
143.1621403299712
 31
0.0
  0
ARC
  5
1A50
330
22
100
AcDbEntity
  8
POW
  6
Continuous
100
AcDbCircle
 10
366.9595409967811
 20
143.1382134549712
 30
0.0
 40
0.02554125
100
AcDbArc
 50
69.47681400000149
 51
190.8866770000006
  0
LINE
  5
1A51
330
22
100
AcDbEntity
  8
POW
  6
Continuous
100
AcDbLine
 10
366.9344591217811
 20
143.1333965799712
 30
0.0
 11
366.8683616217811
 21
143.0322159549712
 31
0.0
  0
ARC
  5
1A52
330
22
100
AcDbEntity
  8
POW
  6
Continuous
100
AcDbCircle
 10
366.5366666217811
 20
143.1328847049712
 30
0.0
 40
0.346644375
100
AcDbArc
 50
308.5298090000004
 51
343.115441999999
  0
LINE
  5
1A53
330
22
100
AcDbEntity
  8
POW
  6
Continuous
100
AcDbLine
 10
366.7525991217811
 20
142.8617222049712
 30
0.0
 11
366.6832072467811
 21
142.8028565799712
 31
0.0
  0
LINE
  5
1A54
330
22
100
AcDbEntity
  8
POW
  6
Continuous
100
AcDbLine
 10
366.6832072467811
 20
142.8028565799712
 30
0.0
 11
366.740747246781
 21
142.7240540799712
 31
0.0
  0
ARC
  5
1A55
330
22
100
AcDbEntity
  8
POW
  6
Continuous
100
AcDbCircle
 10
370.9776547467811
 20
142.9051659549712
 30
0.0
 40
0.021643125
100
AcDbArc
 50
53.18440100000022
 51
273.6831490000014
  0
LINE
  5
1A56
330
22
100
AcDbEntity
  8
POW
  6
Continuous
100
AcDbLine
 10
370.990622246781
 20
142.9224909549712
 30
0.0
 11
371.0430303717811
 21
142.9637559549712
 31
0.0
  0
ARC
  5
1A57
330
22
100
AcDbEntity
  8
POW
  6
Continuous
100
AcDbCircle
 10
371.0526378717811
 20
142.9355240799712
 30
0.0
 40
0.02982
100
AcDbArc
 50
281.906393999999
 51
108.8146429999983
  0
ARC
  5
1A58
330
22
100
AcDbEntity
  8
POW
  6
Continuous
100
AcDbCircle
 10
371.002894121781
 20
142.9510640799712
 30
0.0
 40
0.07158375
100
AcDbArc
 50
250.5406809999989
 51
321.3484900000004
  0
ARC
  5
1A59
330
22
100
AcDbEntity
  8
POW
  6
Continuous
100
AcDbCircle
 10
369.3222247467811
 20
145.5968672049712
 30
0.0
 40
2.760108749999999
100
AcDbArc
 50
280.5655960000012
 51
296.3384769999985
  0
LINE
  5
1A5A
330
22
100
AcDbEntity
  8
POW
  6
Continuous
100
AcDbLine
 10
370.546813496781
 20
143.1233034549712
 30
0.0
 11
370.853374121781
 21
143.3126578299712
 31
0.0
  0
LINE
  5
1A5B
330
22
100
AcDbEntity
  8
POW
  6
Continuous
100
AcDbLine
 10
370.853374121781
 20
143.3126578299712
 30
0.0
 11
370.8883653717811
 21
143.3347865799712
 31
0.0
  0
ARC
  5
1A5C
330
22
100
AcDbEntity
  8
POW
  6
Continuous
100
AcDbCircle
 10
370.8663809967811
 20
143.3317415799712
 30
0.0
 40
0.022194375
100
AcDbArc
 50
7.882242000000077
 51
123.1992599999995
  0
LINE
  5
1A5D
330
22
100
AcDbEntity
  8
POW
  6
Continuous
100
AcDbLine
 10
370.854227246781
 20
143.3503134549712
 30
0.0
 11
370.765003496781
 21
143.3734659549712
 31
0.0
  0
LINE
  5
1A5E
330
22
100
AcDbEntity
  8
POW
  6
Continuous
100
AcDbLine
 10
370.765003496781
 20
143.3734659549712
 30
0.0
 11
370.579875371781
 21
143.4083522049712
 31
0.0
  0
ARC
  5
1A5F
330
22
100
AcDbEntity
  8
POW
  6
Continuous
100
AcDbCircle
 10
370.5613034967811
 20
143.3975634549712
 30
0.0
 40
0.021485625
100
AcDbArc
 50
30.13025400000009
 51
152.9987930000003
  0
ARC
  5
1A60
330
22
100
AcDbEntity
  8
POW
  6
Continuous
100
AcDbCircle
 10
370.5413534967811
 20
143.3995453299712
 30
0.0
 40
0.007809375
100
AcDbArc
 50
84.03536199999868
 51
315.3931490000001
  0
LINE
  5
1A61
330
22
100
AcDbEntity
  8
POW
  6
Continuous
100
AcDbLine
 10
370.5469184967811
 20
143.3940590799712
 30
0.0
 11
370.534147871781
 21
143.3672709549712
 31
0.0
  0
LINE
  5
1A62
330
22
100
AcDbEntity
  8
POW
  6
Continuous
100
AcDbLine
 10
370.534147871781
 20
143.3672709549712
 30
0.0
 11
370.5470628717811
 21
143.3412047049712
 31
0.0
  0
LINE
  5
1A63
330
22
100
AcDbEntity
  8
POW
  6
Continuous
100
AcDbLine
 10
370.5470628717811
 20
143.3412047049712
 30
0.0
 11
370.505509121781
 21
143.3385797049712
 31
0.0
  0
LINE
  5
1A64
330
22
100
AcDbEntity
  8
POW
  6
Continuous
100
AcDbLine
 10
370.505509121781
 20
143.3385797049712
 30
0.0
 11
370.459807871781
 21
143.3733084549712
 31
0.0
  0
ARC
  5
1A65
330
22
100
AcDbEntity
  8
POW
  6
Continuous
100
AcDbCircle
 10
370.414605371781
 20
143.3696859549712
 30
0.0
 40
0.045346875
100
AcDbArc
 50
4.571801999999339
 51
150.9175850000005
  0
LINE
  5
1A66
330
22
100
AcDbEntity
  8
POW
  6
Continuous
100
AcDbLine
 10
370.3749678717811
 20
143.3917359549712
 30
0.0
 11
370.3293453717811
 21
143.3578209549712
 31
0.0
  0
LINE
  5
1A67
330
22
100
AcDbEntity
  8
POW
  6
Continuous
100
AcDbLine
 10
370.3293453717811
 20
143.3578209549712
 30
0.0
 11
370.3189766217811
 21
143.3325553299712
 31
0.0
  0
LINE
  5
1A68
330
22
100
AcDbEntity
  8
POW
  6
Continuous
100
AcDbLine
 10
370.3189766217811
 20
143.3325553299712
 30
0.0
 11
370.2835916217811
 21
143.3285784549712
 31
0.0
  0
LINE
  5
1A69
330
22
100
AcDbEntity
  8
POW
  6
Continuous
100
AcDbLine
 10
370.2835916217811
 20
143.3285784549712
 30
0.0
 11
370.2836966217811
 21
143.3965265799712
 31
0.0
  0
LINE
  5
1A6A
330
22
100
AcDbEntity
  8
POW
  6
Continuous
100
AcDbLine
 10
370.2836966217811
 20
143.3965265799712
 30
0.0
 11
370.2298447467811
 21
143.4076565799712
 31
0.0
  0
LINE
  5
1A6B
330
22
100
AcDbEntity
  8
POW
  6
Continuous
100
AcDbLine
 10
370.2298447467811
 20
143.4076565799712
 30
0.0
 11
370.1022041217811
 21
143.3766684549712
 31
0.0
  0
LINE
  5
1A6C
330
22
100
AcDbEntity
  8
POW
  6
Continuous
100
AcDbLine
 10
370.1022041217811
 20
143.3766684549712
 30
0.0
 11
369.8410822467811
 21
143.3285915799712
 31
0.0
  0
LINE
  5
1A6D
330
22
100
AcDbEntity
  8
POW
  6
Continuous
100
AcDbLine
 10
369.8410822467811
 20
143.3285915799712
 30
0.0
 11
369.576245996781
 21
143.2823259549712
 31
0.0
  0
LINE
  5
1A6E
330
22
100
AcDbEntity
  8
POW
  6
Continuous
100
AcDbLine
 10
369.576245996781
 20
143.2823259549712
 30
0.0
 11
369.509675996781
 21
143.2711959549712
 31
0.0
  0
LINE
  5
1A6F
330
22
100
AcDbEntity
  8
POW
  6
Continuous
100
AcDbLine
 10
369.509675996781
 20
143.2711959549712
 30
0.0
 11
369.5312534967811
 21
143.2170422049712
 31
0.0
  0
LINE
  5
1A70
330
22
100
AcDbEntity
  8
POW
  6
Continuous
100
AcDbLine
 10
369.5312534967811
 20
143.2170422049712
 30
0.0
 11
369.589042871781
 21
143.1448678299712
 31
0.0
  0
ARC
  5
1A71
330
22
100
AcDbEntity
  8
POW
  6
Continuous
100
AcDbCircle
 10
370.207650371781
 20
143.4711290799712
 30
0.0
 40
0.699365625
100
AcDbArc
 50
207.808023000001
 51
237.1543469999986
  0
ARC
  5
1A72
330
22
100
AcDbEntity
  8
POW
  6
Continuous
100
AcDbCircle
 10
367.658158496781
 20
143.0396972049712
 30
0.0
 40
0.10324125
100
AcDbArc
 50
199.8678830000008
 51
253.8361870000012
  0
ARC
  5
1A73
330
22
100
AcDbEntity
  8
POW
  6
Continuous
100
AcDbCircle
 10
367.6488659967811
 20
142.9529409549712
 30
0.0
 40
0.10187625
100
AcDbArc
 50
94.81369800000139
 51
149.5290740000007
  0
ARC
  5
1A74
330
22
100
AcDbEntity
  8
POW
  6
Continuous
100
AcDbCircle
 10
367.660665371781
 20
143.0214403299712
 30
0.0
 40
0.0387975
100
AcDbArc
 50
14.88486100000047
 51
121.6459469999984
  0
LINE
  5
1A75
330
22
100
AcDbEntity
  8
POW
  6
Continuous
100
AcDbLine
 10
367.698163496781
 20
143.0314022049712
 30
0.0
 11
367.7300441217811
 21
142.9855565799712
 31
0.0
  0
ARC
  5
1A76
330
22
100
AcDbEntity
  8
POW
  6
Continuous
100
AcDbCircle
 10
367.6151216217811
 20
143.1074222049712
 30
0.0
 40
0.16750125
100
AcDbArc
 50
274.8962689999987
 51
313.3185290000016
  0
CIRCLE
  5
1A77
330
22
100
AcDbEntity
  8
POW
  6
Continuous
100
AcDbCircle
 10
367.3163572467811
 20
143.3000578299712
 30
0.0
 40
0.07657125
  0
LINE
  5
1A78
330
22
100
AcDbEntity
  8
POW
  6
Continuous
100
AcDbLine
 10
371.4005947467811
 20
143.2367559549712
 30
0.0
 11
371.3775866217811
 21
143.2592653299712
 31
0.0
  0
LINE
  5
1A79
330
22
100
AcDbEntity
  8
POW
  6
Continuous
100
AcDbLine
 10
371.3775866217811
 20
143.2592653299712
 30
0.0
 11
371.400778496781
 21
143.2870772049712
 31
0.0
  0
LINE
  5
1A7A
330
22
100
AcDbEntity
  8
POW
  6
Continuous
100
AcDbLine
 10
371.400778496781
 20
143.2870772049712
 30
0.0
 11
371.4457709967811
 21
143.3357578299712
 31
0.0
  0
ARC
  5
1A7B
330
22
100
AcDbEntity
  8
POW
  6
Continuous
100
AcDbCircle
 10
371.4623478717811
 20
143.3249559549712
 30
0.0
 40
0.019779375
100
AcDbArc
 50
335.4506120000003
 51
146.9344439999994
  0
LINE
  5
1A7C
330
22
100
AcDbEntity
  8
POW
  6
Continuous
100
AcDbLine
 10
371.4803553717811
 20
143.3167397049712
 30
0.0
 11
371.4629384967811
 21
143.2823915799712
 31
0.0
  0
ARC
  5
1A7D
330
22
100
AcDbEntity
  8
POW
  6
Continuous
100
AcDbCircle
 10
371.3510347467811
 20
143.3698434549712
 30
0.0
 40
0.142025625
100
AcDbArc
 50
290.4236729999997
 51
321.9905210000013
  0
ARC
  5
1A7E
330
22
100
AcDbEntity
  8
POW
  6
Continuous
100
AcDbCircle
 10
369.133237871781
 20
147.0543590799712
 30
0.0
 40
3.728746874999999
100
AcDbArc
 50
274.9094529999999
 51
285.0608049999997
  0
LINE
  5
1A7F
330
22
100
AcDbEntity
  8
POW
  6
Continuous
100
AcDbLine
 10
370.102125371781
 20
143.4536859549712
 30
0.0
 11
370.0532347467811
 21
143.4648684549712
 31
0.0
  0
ARC
  5
1A80
330
22
100
AcDbEntity
  8
POW
  6
Continuous
100
AcDbCircle
 10
370.035358496781
 20
143.4724678299712
 30
0.0
 40
0.019425
100
AcDbArc
 50
199.3622100000001
 51
336.9552359999992
  0
LINE
  5
1A81
330
22
100
AcDbEntity
  8
POW
  6
Continuous
100
AcDbLine
 10
370.017035996781
 20
143.4660234549712
 30
0.0
 11
369.913978496781
 21
143.4532265799712
 31
0.0
  0
LINE
  5
1A82
330
22
100
AcDbEntity
  8
POW
  6
Continuous
100
AcDbLine
 10
369.913978496781
 20
143.4532265799712
 30
0.0
 11
369.7084541217811
 21
143.4532265799712
 31
0.0
  0
LINE
  5
1A83
330
22
100
AcDbEntity
  8
POW
  6
Continuous
100
AcDbLine
 10
369.7084541217811
 20
143.4532265799712
 30
0.0
 11
369.4870353717811
 21
143.4430940799712
 31
0.0
  0
LINE
  5
1A84
330
22
100
AcDbEntity
  8
POW
  6
Continuous
100
AcDbLine
 10
369.4870353717811
 20
143.4430940799712
 30
0.0
 11
369.419389121781
 21
143.4418340799712
 31
0.0
  0
ARC
  5
1A85
330
22
100
AcDbEntity
  8
POW
  6
Continuous
100
AcDbCircle
 10
369.4104116217811
 20
143.4260315799712
 30
0.0
 40
0.018178125
100
AcDbArc
 50
60.41000199999867
 51
257.2147079999998
  0
LINE
  5
1A86
330
22
100
AcDbEntity
  8
POW
  6
Continuous
100
AcDbLine
 10
369.4063822467811
 20
143.4082997049712
 30
0.0
 11
369.4523459967811
 21
143.3392884549712
 31
0.0
  0
ARC
  5
1A87
330
22
100
AcDbEntity
  8
POW
  6
Continuous
100
AcDbCircle
 10
370.905296621781
 20
143.4785315799712
 30
0.0
 40
0.10523625
100
AcDbArc
 50
266.7325609999987
 51
346.4382600000006
  0
LINE
  5
1A88
330
22
100
AcDbEntity
  8
POW
  6
Continuous
100
AcDbLine
 10
371.007592871781
 20
143.4538565799712
 30
0.0
 11
370.8234228717811
 21
143.4646190799712
 31
0.0
  0
LINE
  5
1A89
330
22
100
AcDbEntity
  8
POW
  6
Continuous
100
AcDbLine
 10
370.8234228717811
 20
143.4646190799712
 30
0.0
 11
370.7012684967811
 21
143.4646190799712
 31
0.0
  0
LINE
  5
1A8A
330
22
100
AcDbEntity
  8
POW
  6
Continuous
100
AcDbLine
 10
370.7012684967811
 20
143.4646190799712
 30
0.0
 11
370.6700047467811
 21
143.4591197049712
 31
0.0
  0
LINE
  5
1A8B
330
22
100
AcDbEntity
  8
POW
  6
Continuous
100
AcDbLine
 10
370.6700047467811
 20
143.4591197049712
 30
0.0
 11
370.6947584967811
 21
143.4513365799712
 31
0.0
  0
LINE
  5
1A8C
330
22
100
AcDbEntity
  8
POW
  6
Continuous
100
AcDbLine
 10
370.6947584967811
 20
143.4513365799712
 30
0.0
 11
370.7298416217811
 21
143.4297328299711
 31
0.0
  0
LINE
  5
1A8D
330
22
100
AcDbEntity
  8
POW
  6
Continuous
100
AcDbLine
 10
370.7298416217811
 20
143.4297328299711
 30
0.0
 11
370.8992984967811
 21
143.3734659549712
 31
0.0
  0
ARC
  5
1A8E
330
22
100
AcDbEntity
  8
POW
  6
Continuous
100
AcDbCircle
 10
367.748222246781
 20
144.6684965799712
 30
0.0
 40
0.7494506249999999
100
AcDbArc
 50
198.2076640000001
 51
227.5151130000006
  0
LINE
  5
1A8F
330
22
100
AcDbEntity
  8
POW
  6
Continuous
100
AcDbLine
 10
367.242043496781
 20
144.1158159549712
 30
0.0
 11
367.3787666217811
 21
145.3214128299712
 31
0.0
  0
LINE
  5
1A90
330
22
100
AcDbEntity
  8
POW
  6
Continuous
100
AcDbLine
 10
367.3787666217811
 20
145.3214128299712
 30
0.0
 11
367.412944121781
 21
145.5846347049712
 31
0.0
  0
LINE
  5
1A91
330
22
100
AcDbEntity
  8
POW
  6
Continuous
100
AcDbLine
 10
367.412944121781
 20
145.5846347049712
 30
0.0
 11
367.3673741217811
 21
145.7009747049712
 31
0.0
  0
ARC
  5
1A92
330
22
100
AcDbEntity
  8
POW
  6
Continuous
100
AcDbCircle
 10
367.5206872467811
 20
145.7916028299712
 30
0.0
 40
0.17810625
100
AcDbArc
 50
171.40643
 51
210.589776
  0
LINE
  5
1A93
330
22
100
AcDbEntity
  8
POW
  6
Continuous
100
AcDbLine
 10
367.344589121781
 20
145.8182203299712
 30
0.0
 11
367.333196621781
 21
146.0099897049712
 31
0.0
  0
LINE
  5
1A94
330
22
100
AcDbEntity
  8
POW
  6
Continuous
100
AcDbLine
 10
367.333196621781
 20
146.0099897049712
 30
0.0
 11
367.3118553717811
 21
146.0737378299712
 31
0.0
  0
LINE
  5
1A95
330
22
100
AcDbEntity
  8
POW
  6
Continuous
100
AcDbLine
 10
367.3118553717811
 20
146.0737378299712
 30
0.0
 11
367.253435996781
 21
146.0966934549712
 31
0.0
  0
LINE
  5
1A96
330
22
100
AcDbEntity
  8
POW
  6
Continuous
100
AcDbLine
 10
367.253435996781
 20
146.0966934549712
 30
0.0
 11
367.460981621781
 21
146.2112222049712
 31
0.0
  0
ARC
  5
1A97
330
22
100
AcDbEntity
  8
POW
  6
Continuous
100
AcDbCircle
 10
367.2517559967811
 20
147.0085265799712
 30
0.0
 40
0.8243024999999999
100
AcDbArc
 50
284.7038880000004
 51
301.0481380000007
  0
ARC
  5
1A98
330
22
100
AcDbEntity
  8
POW
  6
Continuous
100
AcDbCircle
 10
367.7642084967811
 20
146.0432484549712
 30
0.0
 40
0.27339375
100
AcDbArc
 50
47.77678999999852
 51
108.6245740000011
  0
LINE
  5
1A99
330
22
100
AcDbEntity
  8
POW
  6
Continuous
100
AcDbLine
 10
367.947932246781
 20
146.2457015799712
 30
0.0
 11
368.150621621781
 21
146.1417909549712
 31
0.0
  0
LINE
  5
1A9A
330
22
100
AcDbEntity
  8
POW
  6
Continuous
100
AcDbLine
 10
368.150621621781
 20
146.1417909549712
 30
0.0
 11
368.233742246781
 21
146.0961290799712
 31
0.0
  0
LINE
  5
1A9B
330
22
100
AcDbEntity
  8
POW
  6
Continuous
100
AcDbLine
 10
368.233742246781
 20
146.0961290799712
 30
0.0
 11
368.243034746781
 21
146.0729240799712
 31
0.0
  0
LINE
  5
1A9C
330
22
100
AcDbEntity
  8
POW
  6
Continuous
100
AcDbLine
 10
368.243034746781
 20
146.0729240799712
 30
0.0
 11
368.2031347467811
 21
146.0736722049712
 31
0.0
  0
ARC
  5
1A9D
330
22
100
AcDbEntity
  8
POW
  6
Continuous
100
AcDbCircle
 10
368.2012447467811
 20
146.0563340799712
 30
0.0
 40
0.01743
100
AcDbArc
 50
83.78438799999896
 51
218.9421990000002
  0
LINE
  5
1A9E
330
22
100
AcDbEntity
  8
POW
  6
Continuous
100
AcDbLine
 10
368.1876866217811
 20
146.0453747049712
 30
0.0
 11
368.1876866217811
 21
146.0071809549712
 31
0.0
  0
LINE
  5
1A9F
330
22
100
AcDbEntity
  8
POW
  6
Continuous
100
AcDbLine
 10
368.1876866217811
 20
146.0071809549712
 30
0.0
 11
368.1763991217811
 21
145.7414915799712
 31
0.0
  0
LINE
  5
1AA0
330
22
100
AcDbEntity
  8
POW
  6
Continuous
100
AcDbLine
 10
368.1763991217811
 20
145.7414915799712
 30
0.0
 11
368.1188197467811
 21
145.6513359549712
 31
0.0
  0
ARC
  5
1AA1
330
22
100
AcDbEntity
  8
POW
  6
Continuous
100
AcDbCircle
 10
368.217309746781
 20
145.5736359549712
 30
0.0
 40
0.12544875
100
AcDbArc
 50
141.7250250000014
 51
195.7068319999996
  0
LINE
  5
1AA2
330
22
100
AcDbEntity
  8
POW
  6
Continuous
100
AcDbLine
 10
368.0965466217811
 20
145.5396684549712
 30
0.0
 11
368.148193496781
 21
145.0255622049712
 31
0.0
  0
LINE
  5
1AA3
330
22
100
AcDbEntity
  8
POW
  6
Continuous
100
AcDbLine
 10
368.148193496781
 20
145.0255622049712
 30
0.0
 11
368.164901621781
 21
144.9039197049712
 31
0.0
  0
LINE
  5
1AA4
330
22
100
AcDbEntity
  8
POW
  6
Continuous
100
AcDbLine
 10
368.164901621781
 20
144.9039197049712
 30
0.0
 11
368.166187871781
 21
144.8426784549712
 31
0.0
  0
ARC
  5
1AA5
330
22
100
AcDbEntity
  8
POW
  6
Continuous
100
AcDbCircle
 10
368.183355371781
 20
144.8547140799712
 30
0.0
 40
0.020960625
100
AcDbArc
 50
215.0196960000005
 51
359.9198339999994
  0
LINE
  5
1AA6
330
22
100
AcDbEntity
  8
POW
  6
Continuous
100
AcDbLine
 10
368.204329121781
 20
144.8546878299712
 30
0.0
 11
368.3285309967811
 21
144.9916078299712
 31
0.0
  0
ARC
  5
1AA7
330
22
100
AcDbEntity
  8
POW
  6
Continuous
100
AcDbCircle
 10
367.593872246781
 20
145.5785972049712
 30
0.0
 40
0.9403537499999998
100
AcDbArc
 50
321.3754709999998
 51
343.45537
  0
ARC
  5
1AA8
330
22
100
AcDbEntity
  8
POW
  6
Continuous
100
AcDbCircle
 10
366.909941621781
 20
145.8572540799712
 30
0.0
 40
1.676889375
100
AcDbArc
 50
340.982384
 51
1.205201999999765
  0
ARC
  5
1AA9
330
22
100
AcDbEntity
  8
POW
  6
Continuous
100
AcDbCircle
 10
369.873802871781
 20
146.0275640799712
 30
0.0
 40
1.294413749999999
100
AcDbArc
 50
162.6529969999996
 51
185.9885859999996
  0
ARC
  5
1AAA
330
22
100
AcDbEntity
  8
POW
  6
Continuous
100
AcDbCircle
 10
369.706052246781
 20
146.0799590799712
 30
0.0
 40
1.118656875
100
AcDbArc
 50
120.826757
 51
162.6529969999996
  0
ARC
  5
1AAB
330
22
100
AcDbEntity
  8
POW
  6
Continuous
100
AcDbCircle
 10
369.654562871781
 20
146.1028097049712
 30
0.0
 40
1.073152499999999
100
AcDbArc
 50
73.13502900000109
 51
119.0909360000002
  0
LINE
  5
1AAC
330
22
100
AcDbEntity
  8
POW
  6
Continuous
100
AcDbLine
 10
370.290469121781
 20
147.0314165799712
 30
0.0
 11
369.9659009967811
 21
147.1298015799712
 31
0.0
  0
ARC
  5
1AAD
330
22
100
AcDbEntity
  8
POW
  6
Continuous
100
AcDbCircle
 10
369.8197672467811
 20
145.6979165799712
 30
0.0
 40
1.41414
100
AcDbArc
 50
55.2498379999996
 51
70.55783799999942
  0
LINE
  5
1AAE
330
22
100
AcDbEntity
  8
POW
  6
Continuous
100
AcDbLine
 10
370.625825996781
 20
146.8598334549712
 30
0.0
 11
370.8408397467811
 21
146.7579834549712
 31
0.0
  0
LINE
  5
1AAF
330
22
100
AcDbEntity
  8
POW
  6
Continuous
100
AcDbLine
 10
370.8408397467811
 20
146.7579834549712
 30
0.0
 11
371.0333703717811
 21
146.6115740799712
 31
0.0
  0
ARC
  5
1AB0
330
22
100
AcDbEntity
  8
POW
  6
Continuous
100
AcDbCircle
 10
370.731626621781
 20
146.2147265799712
 30
0.0
 40
0.4985400000000001
100
AcDbArc
 50
357.5329290000007
 51
52.75112900000053
  0
LINE
  5
1AB1
330
22
100
AcDbEntity
  8
POW
  6
Continuous
100
AcDbLine
 10
371.2069091217811
 20
145.9555865799712
 30
0.0
 11
371.2296941217811
 21
146.1932672049712
 31
0.0
  0
LINE
  5
1AB2
330
22
100
AcDbEntity
  8
POW
  6
Continuous
100
AcDbLine
 10
371.2069091217811
 20
145.9555865799712
 30
0.0
 11
371.1166091217811
 21
145.7465840799712
 31
0.0
  0
LINE
  5
1AB3
330
22
100
AcDbEntity
  8
POW
  6
Continuous
100
AcDbLine
 10
371.1166091217811
 20
145.7465840799712
 30
0.0
 11
370.9329903717811
 21
145.4099934549712
 31
0.0
  0
LINE
  5
1AB4
330
22
100
AcDbEntity
  8
POW
  6
Continuous
100
AcDbLine
 10
370.9329903717811
 20
145.4099934549712
 30
0.0
 11
370.917187871781
 21
145.3671272049712
 31
0.0
  0
ARC
  5
1AB5
330
22
100
AcDbEntity
  8
POW
  6
Continuous
100
AcDbCircle
 10
370.921059746781
 20
145.3412709549712
 30
0.0
 40
0.026145
100
AcDbArc
 50
98.52146599999842
 51
216.6995220000006
  0
LINE
  5
1AB6
330
22
100
AcDbEntity
  8
POW
  6
Continuous
100
AcDbLine
 10
370.900099121781
 20
145.3256390799712
 30
0.0
 11
370.8651078717811
 21
145.2260465799712
 31
0.0
  0
LINE
  5
1AB7
330
22
100
AcDbEntity
  8
POW
  6
Continuous
100
AcDbLine
 10
370.8651078717811
 20
145.2260465799712
 30
0.0
 11
370.876500371781
 21
145.0059140799712
 31
0.0
  0
ARC
  5
1AB8
330
22
100
AcDbEntity
  8
POW
  6
Continuous
100
AcDbCircle
 10
370.408108496781
 20
144.9018065799712
 30
0.0
 40
0.4798368750000001
100
AcDbArc
 50
347.4598149999998
 51
12.53072900000068
  0
ARC
  5
1AB9
330
22
100
AcDbEntity
  8
POW
  6
Continuous
100
AcDbCircle
 10
370.7780497467811
 20
144.7920159549712
 30
0.0
 40
0.098608125
100
AcDbArc
 50
261.6473550000007
 51
3.259320000000305
  0
ARC
  5
1ABA
330
22
100
AcDbEntity
  8
POW
  6
Continuous
100
AcDbCircle
 10
370.578116621781
 20
144.3680522049712
 30
0.0
 40
0.37548
100
AcDbArc
 50
60.37493500000174
 51
89.59611499999956
  0
ARC
  5
1ABB
330
22
100
AcDbEntity
  8
POW
  6
Continuous
100
AcDbCircle
 10
370.589837246781
 20
144.6999703299712
 30
0.0
 40
0.04449375
100
AcDbArc
 50
101.7692770000012
 51
169.4713470000007
  0
LINE
  5
1ABC
330
22
100
AcDbEntity
  8
POW
  6
Continuous
100
AcDbLine
 10
370.5461047467811
 20
144.7080947049712
 30
0.0
 11
370.534712246781
 21
144.6350278299712
 31
0.0
  0
ARC
  5
1ABD
330
22
100
AcDbEntity
  8
POW
  6
Continuous
100
AcDbCircle
 10
370.5117172467811
 20
144.6194484549712
 30
0.0
 40
0.0277725
100
AcDbArc
 50
269.5039859999993
 51
34.116282
  0
LINE
  5
1ABE
330
22
100
AcDbEntity
  8
POW
  6
Continuous
100
AcDbLine
 10
370.5114678717811
 20
144.5916759549712
 30
0.0
 11
370.477250996781
 21
144.5573147049712
 31
0.0
  0
ARC
  5
1ABF
330
22
100
AcDbEntity
  8
POW
  6
Continuous
100
AcDbCircle
 10
370.6581791217811
 20
144.3378778299712
 30
0.0
 40
0.284405625
100
AcDbArc
 50
129.5049430000006
 51
174.6225979999998
  0
LINE
  5
1AC0
330
22
100
AcDbEntity
  8
POW
  6
Continuous
100
AcDbLine
 10
370.375020371781
 20
144.3645347049712
 30
0.0
 11
370.2957847467811
 21
144.3230334549712
 31
0.0
  0
LINE
  5
1AC1
330
22
100
AcDbEntity
  8
POW
  6
Continuous
100
AcDbLine
 10
370.2957847467811
 20
144.3230334549712
 30
0.0
 11
370.2493484967811
 21
144.3068765799712
 31
0.0
  0
LINE
  5
1AC2
330
22
100
AcDbEntity
  8
POW
  6
Continuous
100
AcDbLine
 10
370.2493484967811
 20
144.3068765799712
 30
0.0
 11
370.249834121781
 21
144.2461209549712
 31
0.0
  0
ARC
  5
1AC3
330
22
100
AcDbEntity
  8
POW
  6
Continuous
100
AcDbCircle
 10
369.904384121781
 20
144.2433647049712
 30
0.0
 40
0.345463125
100
AcDbArc
 50
320.1763320000018
 51
0.4579550000006626
  0
ARC
  5
1AC4
330
22
100
AcDbEntity
  8
POW
  6
Continuous
100
AcDbCircle
 10
370.050898496781
 20
144.1437459549712
 30
0.0
 40
0.17002125
100
AcDbArc
 50
245.4659079999992
 51
314.3278669999995
  0
ARC
  5
1AC5
330
22
100
AcDbEntity
  8
POW
  6
Continuous
100
AcDbCircle
 10
370.022364746781
 20
144.3151190799712
 30
0.0
 40
0.328741875
100
AcDbArc
 50
222.736535
 51
262.6473279999999
  0
ARC
  5
1AC6
330
22
100
AcDbEntity
  8
POW
  6
Continuous
100
AcDbCircle
 10
369.7812716217811
 20
144.1441265799712
 30
0.0
 40
0.05210625
100
AcDbArc
 50
200.1752919999994
 51
269.597405
  0
LINE
  5
1AC7
330
22
100
AcDbEntity
  8
POW
  6
Continuous
100
AcDbLine
 10
369.732367871781
 20
144.1261584549712
 30
0.0
 11
369.6815741217811
 21
144.1489040799712
 31
0.0
  0
ARC
  5
1AC8
330
22
100
AcDbEntity
  8
POW
  6
Continuous
100
AcDbCircle
 10
369.6228003717811
 20
144.2779753299712
 30
0.0
 40
0.141815625
100
AcDbArc
 50
246.2018939999982
 51
294.4782539999989
  0
LINE
  5
1AC9
330
22
100
AcDbEntity
  8
POW
  6
Continuous
100
AcDbLine
 10
369.5655753717811
 20
144.1482084549712
 30
0.0
 11
369.441478496781
 21
144.1257647049712
 31
0.0
  0
LINE
  5
1ACA
330
22
100
AcDbEntity
  8
POW
  6
Continuous
100
AcDbLine
 10
369.441478496781
 20
144.1257647049712
 30
0.0
 11
369.3837678717811
 21
144.0411084549712
 31
0.0
  0
ARC
  5
1ACB
330
22
100
AcDbEntity
  8
POW
  6
Continuous
100
AcDbCircle
 10
369.0621134967811
 20
144.2262103299712
 30
0.0
 40
0.371109375
100
AcDbArc
 50
303.9751120000005
 51
330.0794860000007
  0
LINE
  5
1ACC
330
22
100
AcDbEntity
  8
POW
  6
Continuous
100
AcDbLine
 10
369.2695016217811
 20
143.9184553299712
 30
0.0
 11
369.178886621781
 21
143.8349672049712
 31
0.0
  0
ARC
  5
1ACD
330
22
100
AcDbEntity
  8
POW
  6
Continuous
100
AcDbCircle
 10
369.2988884967811
 20
143.7793959549712
 30
0.0
 40
0.132234375
100
AcDbArc
 50
155.1471300000001
 51
214.8875369999993
  0
ARC
  5
1ACE
330
22
100
AcDbEntity
  8
POW
  6
Continuous
100
AcDbCircle
 10
369.6793166217811
 20
143.9062884549712
 30
0.0
 40
0.5291868749999999
100
AcDbArc
 50
202.5019100000002
 51
224.8640879999992
  0
LINE
  5
1ACF
330
22
100
AcDbEntity
  8
POW
  6
Continuous
100
AcDbLine
 10
369.3042303717811
 20
143.5329740799712
 30
0.0
 11
370.2693903717811
 21
143.5321340799712
 31
0.0
  0
ARC
  5
1AD0
330
22
100
AcDbEntity
  8
POW
  6
Continuous
100
AcDbCircle
 10
370.6045503717811
 20
143.3838084549712
 30
0.0
 40
0.366515625
100
AcDbArc
 50
128.6746200000008
 51
156.1277080000003
  0
LINE
  5
1AD1
330
22
100
AcDbEntity
  8
POW
  6
Continuous
100
AcDbLine
 10
370.375505996781
 20
143.6699465799712
 30
0.0
 11
370.409302871781
 21
143.6872059549712
 31
0.0
  0
LINE
  5
1AD2
330
22
100
AcDbEntity
  8
POW
  6
Continuous
100
AcDbLine
 10
370.409302871781
 20
143.6872059549712
 30
0.0
 11
370.432875371781
 21
143.6910253299712
 31
0.0
  0
LINE
  5
1AD3
330
22
100
AcDbEntity
  8
POW
  6
Continuous
100
AcDbLine
 10
370.432875371781
 20
143.6910253299712
 30
0.0
 11
370.4397528717811
 21
143.6700515799712
 31
0.0
  0
LINE
  5
1AD4
330
22
100
AcDbEntity
  8
POW
  6
Continuous
100
AcDbLine
 10
370.4397528717811
 20
143.6700515799712
 30
0.0
 11
370.465950371781
 21
143.5973128299712
 31
0.0
  0
LINE
  5
1AD5
330
22
100
AcDbEntity
  8
POW
  6
Continuous
100
AcDbLine
 10
370.465950371781
 20
143.5973128299712
 30
0.0
 11
370.4860841217811
 21
143.5676240799712
 31
0.0
  0
LINE
  5
1AD6
330
22
100
AcDbEntity
  8
POW
  6
Continuous
100
AcDbLine
 10
370.4860841217811
 20
143.5676240799712
 30
0.0
 11
370.508514746781
 21
143.5326722049712
 31
0.0
  0
LINE
  5
1AD7
330
22
100
AcDbEntity
  8
POW
  6
Continuous
100
AcDbLine
 10
370.508514746781
 20
143.5326722049712
 30
0.0
 11
370.6219934967811
 21
143.5329740799712
 31
0.0
  0
LINE
  5
1AD8
330
22
100
AcDbEntity
  8
POW
  6
Continuous
100
AcDbLine
 10
370.6219934967811
 20
143.5329740799712
 30
0.0
 11
370.881605996781
 21
143.5329740799712
 31
0.0
  0
ARC
  5
1AD9
330
22
100
AcDbEntity
  8
POW
  6
Continuous
100
AcDbCircle
 10
370.9646216217811
 20
143.9664534549712
 30
0.0
 40
0.4413543750000001
100
AcDbArc
 50
259.1585830000003
 51
298.6105059999999
  0
LINE
  5
1ADA
330
22
100
AcDbEntity
  8
POW
  6
Continuous
100
AcDbLine
 10
371.1759603717811
 20
143.5789903299712
 30
0.0
 11
371.374948496781
 21
143.7945290799712
 31
0.0
  0
ARC
  5
1ADB
330
22
100
AcDbEntity
  8
POW
  6
Continuous
100
AcDbCircle
 10
369.6817316217811
 20
145.1982740799712
 30
0.0
 40
2.199421875
100
AcDbArc
 50
320.339933000001
 51
335.9254559999989
  0
ARC
  5
1ADC
330
22
100
AcDbEntity
  8
POW
  6
Continuous
100
AcDbCircle
 10
369.451781621781
 20
145.3010165799712
 30
0.0
 40
2.451277499999999
100
AcDbArc
 50
335.9254559999989
 51
66.63763400000154
  0
ARC
  5
1ADD
330
22
100
AcDbEntity
  8
POW
  6
Continuous
100
AcDbCircle
 10
369.3947141217811
 20
145.1689003299712
 30
0.0
 40
2.595193124999999
100
AcDbArc
 50
66.63763400000154
 51
121.3886929999994
  0
ARC
  5
1ADE
330
22
100
AcDbEntity
  8
POW
  6
Continuous
100
AcDbCircle
 10
368.9502622467811
 20
145.7901722049712
 30
0.0
 40
1.834205625
100
AcDbArc
 50
119.6447069999998
 51
140.3334270000005
  0
ARC
  5
1ADF
330
22
100
AcDbEntity
  8
POW
  6
Continuous
100
AcDbCircle
 10
368.7779309967811
 20
145.6322522049712
 30
0.0
 40
1.817169375
100
AcDbArc
 50
133.0120310000009
 51
154.4873069999995
  0
ARC
  5
1AE0
330
22
100
AcDbEntity
  8
POW
  6
Continuous
100
AcDbCircle
 10
369.291394121781
 20
145.3174228299712
 30
0.0
 40
2.416981875
100
AcDbArc
 50
152.9944829999997
 51
188.3863540000002
  0
ARC
  5
1AE1
330
22
100
AcDbEntity
  8
POW
  6
Continuous
100
AcDbCircle
 10
369.056325371781
 20
145.2350240799712
 30
0.0
 40
2.172935625
100
AcDbArc
 50
187.1405549999994
 51
201.6222800000011
  0
ARC
  5
1AE2
330
22
100
AcDbEntity
  8
POW
  6
Continuous
100
AcDbCircle
 10
367.235625371781
 20
144.1739465799712
 30
0.0
 40
0.22840125
100
AcDbArc
 50
286.1139259999998
 51
320.8414140000013
  0
LINE
  5
1AE3
330
22
100
AcDbEntity
  8
POW
  6
Continuous
100
AcDbLine
 10
367.4127209967811
 20
144.0297290799712
 30
0.0
 11
367.518797246781
 21
144.1372490799712
 31
0.0
  0
LINE
  5
1AE4
330
22
100
AcDbEntity
  8
POW
  6
Continuous
100
AcDbLine
 10
367.518797246781
 20
144.1372490799712
 30
0.0
 11
367.618087871781
 21
144.2333634549712
 31
0.0
  0
ARC
  5
1AE5
330
22
100
AcDbEntity
  8
POW
  6
Continuous
100
AcDbCircle
 10
367.517917871781
 20
144.3567909549712
 30
0.0
 40
0.158956875
100
AcDbArc
 50
309.0613620000004
 51
337.0691299999996
  0
LINE
  5
1AE6
330
22
100
AcDbEntity
  8
POW
  6
Continuous
100
AcDbLine
 10
367.6643141217811
 20
144.2948540799712
 30
0.0
 11
367.6094909967811
 21
144.3307378299712
 31
0.0
  0
LINE
  5
1AE7
330
22
100
AcDbEntity
  8
POW
  6
Continuous
100
AcDbLine
 10
367.6094909967811
 20
144.3307378299712
 30
0.0
 11
367.4577003717811
 21
144.4221665799712
 31
0.0
  0
LINE
  5
1AE8
330
22
100
AcDbEntity
  8
POW
  6
Continuous
100
AcDbLine
 10
367.4577003717811
 20
144.4221665799712
 30
0.0
 11
367.3865759967811
 21
144.4566590799712
 31
0.0
  0
ARC
  5
1AE9
330
22
100
AcDbEntity
  8
POW
  6
Continuous
100
AcDbCircle
 10
367.3754066217811
 20
144.4412372049712
 30
0.0
 40
0.019044375
100
AcDbArc
 50
54.08577099999956
 51
191.6531620000004
  0
LINE
  5
1AEA
330
22
100
AcDbEntity
  8
POW
  6
Continuous
100
AcDbLine
 10
367.3567559967811
 20
144.4373915799712
 30
0.0
 11
367.3499309967811
 21
144.4095797049712
 31
0.0
  0
ARC
  5
1AEB
330
22
100
AcDbEntity
  8
POW
  6
Continuous
100
AcDbCircle
 10
369.0786772467811
 20
143.9857472049712
 30
0.0
 40
1.779946875
100
AcDbArc
 50
166.2244839999991
 51
181.0049540000007
  0
ARC
  5
1AEC
330
22
100
AcDbEntity
  8
POW
  6
Continuous
100
AcDbCircle
 10
367.7146222467811
 20
144.4021115799712
 30
0.0
 40
0.056398125
100
AcDbArc
 50
239.5196249999981
 51
336.8592060000009
  0
LINE
  5
1AED
330
22
100
AcDbEntity
  8
POW
  6
Continuous
100
AcDbLine
 10
367.8113272467811
 20
144.4294509549712
 30
0.0
 11
367.7664791217811
 21
144.3799434549712
 31
0.0
  0
LINE
  5
1AEE
330
22
100
AcDbEntity
  8
POW
  6
Continuous
100
AcDbLine
 10
367.8113272467811
 20
144.4294509549712
 30
0.0
 11
367.8691034967811
 21
144.4819509549712
 31
0.0
  0
LINE
  5
1AEF
330
22
100
AcDbEntity
  8
POW
  6
Continuous
100
AcDbLine
 10
367.8691034967811
 20
144.4819509549712
 30
0.0
 11
367.9333897467811
 21
144.5347528299712
 31
0.0
  0
LINE
  5
1AF0
330
22
100
AcDbEntity
  8
POW
  6
Continuous
100
AcDbLine
 10
367.9333897467811
 20
144.5347528299712
 30
0.0
 11
367.9720428717811
 21
144.6001809549712
 31
0.0
  0
LINE
  5
1AF1
330
22
100
AcDbEntity
  8
POW
  6
Continuous
100
AcDbLine
 10
367.9720428717811
 20
144.6001809549712
 30
0.0
 11
367.9033728717811
 21
144.6482447049712
 31
0.0
  0
LINE
  5
1AF2
330
22
100
AcDbEntity
  8
POW
  6
Continuous
100
AcDbLine
 10
367.9033728717811
 20
144.6482447049712
 30
0.0
 11
367.774144121781
 21
144.7175709549712
 31
0.0
  0
ARC
  5
1AF3
330
22
100
AcDbEntity
  8
POW
  6
Continuous
100
AcDbCircle
 10
367.7420797467811
 20
144.5363934549712
 30
0.0
 40
0.18398625
100
AcDbArc
 50
79.96350099999976
 51
132.263685999999
  0
LINE
  5
1AF4
330
22
100
AcDbEntity
  8
POW
  6
Continuous
100
AcDbLine
 10
367.618337246781
 20
144.6725522049712
 30
0.0
 11
367.4481584967811
 21
144.5703609549712
 31
0.0
  0
ARC
  5
1AF5
330
22
100
AcDbEntity
  8
POW
  6
Continuous
100
AcDbCircle
 10
367.441530371781
 20
144.5417747049712
 30
0.0
 40
0.0293475
100
AcDbArc
 50
76.95207799999835
 51
260.4660560000012
  0
LINE
  5
1AF6
330
22
100
AcDbEntity
  8
POW
  6
Continuous
100
AcDbLine
 10
367.4366741217811
 20
144.5128340799712
 30
0.0
 11
367.5125759967811
 21
144.4555959549712
 31
0.0
  0
LINE
  5
1AF7
330
22
100
AcDbEntity
  8
POW
  6
Continuous
100
AcDbLine
 10
367.5125759967811
 20
144.4555959549712
 30
0.0
 11
367.6860097467811
 21
144.3535097049712
 31
0.0
  0
LINE
  5
1AF8
330
22
100
AcDbEntity
  8
POW
  6
Continuous
100
AcDbLine
 10
367.3787666217811
 20
144.6039347049712
 30
0.0
 11
367.5660078717811
 21
144.6945628299712
 31
0.0
  0
LINE
  5
1AF9
330
22
100
AcDbEntity
  8
POW
  6
Continuous
100
AcDbLine
 10
367.5660078717811
 20
144.6945628299712
 30
0.0
 11
367.652265371781
 21
144.7521159549712
 31
0.0
  0
LINE
  5
1AFA
330
22
100
AcDbEntity
  8
POW
  6
Continuous
100
AcDbLine
 10
367.652265371781
 20
144.7521159549712
 30
0.0
 11
367.664786621781
 21
144.7719478299712
 31
0.0
  0
LINE
  5
1AFB
330
22
100
AcDbEntity
  8
POW
  6
Continuous
100
AcDbLine
 10
367.664786621781
 20
144.7719478299712
 30
0.0
 11
367.6455978717811
 21
144.7860572049712
 31
0.0
  0
LINE
  5
1AFC
330
22
100
AcDbEntity
  8
POW
  6
Continuous
100
AcDbLine
 10
367.6455978717811
 20
144.7860572049712
 30
0.0
 11
367.6046478717811
 21
144.8088947049712
 31
0.0
  0
LINE
  5
1AFD
330
22
100
AcDbEntity
  8
POW
  6
Continuous
100
AcDbLine
 10
367.6046478717811
 20
144.8088947049712
 30
0.0
 11
367.4933741217811
 21
144.8655290799712
 31
0.0
  0
LINE
  5
1AFE
330
22
100
AcDbEntity
  8
POW
  6
Continuous
100
AcDbLine
 10
367.4933741217811
 20
144.8655290799712
 30
0.0
 11
367.4559416217811
 21
144.9010059549712
 31
0.0
  0
ARC
  5
1AFF
330
22
100
AcDbEntity
  8
POW
  6
Continuous
100
AcDbCircle
 10
367.446662246781
 20
144.9094453299712
 30
0.0
 40
0.0125475
100
AcDbArc
 50
167.1584669999998
 51
317.6970999999981
  0
LINE
  5
1B00
330
22
100
AcDbEntity
  8
POW
  6
Continuous
100
AcDbLine
 10
367.4344297467811
 20
144.9122278299712
 30
0.0
 11
367.404964121781
 21
144.9005859549712
 31
0.0
  0
ARC
  5
1B01
330
22
100
AcDbEntity
  8
POW
  6
Continuous
100
AcDbCircle
 10
368.1830141217811
 20
144.6823959549712
 30
0.0
 40
0.8080668749999999
100
AcDbArc
 50
164.3353749999999
 51
185.5719789999995
  0
ARC
  5
1B02
330
22
100
AcDbEntity
  8
POW
  6
Continuous
100
AcDbCircle
 10
367.9977416217811
 20
144.7595447049712
 30
0.0
 40
0.1103025
100
AcDbArc
 50
273.980065000001
 51
20.09670499999958
  0
LINE
  5
1B03
330
22
100
AcDbEntity
  8
POW
  6
Continuous
100
AcDbLine
 10
368.101324121781
 20
144.7974497049712
 30
0.0
 11
368.085403496781
 21
144.9145772049712
 31
0.0
  0
ARC
  5
1B04
330
22
100
AcDbEntity
  8
POW
  6
Continuous
100
AcDbCircle
 10
368.067684746781
 20
144.9003234549712
 30
0.0
 40
0.022745625
100
AcDbArc
 50
38.80604000000012
 51
152.777653999999
  0
ARC
  5
1B05
330
22
100
AcDbEntity
  8
POW
  6
Continuous
100
AcDbCircle
 10
368.0377203717811
 20
144.9040640799712
 30
0.0
 40
0.011799375
100
AcDbArc
 50
34.41593099999999
 51
202.834131
  0
LINE
  5
1B06
330
22
100
AcDbEntity
  8
POW
  6
Continuous
100
AcDbLine
 10
368.0268528717811
 20
144.8994834549712
 30
0.0
 11
368.005577246781
 21
144.8935772049712
 31
0.0
  0
LINE
  5
1B07
330
22
100
AcDbEntity
  8
POW
  6
Continuous
100
AcDbLine
 10
368.005577246781
 20
144.8935772049712
 30
0.0
 11
367.8230609967811
 21
144.7861884549712
 31
0.0
  0
LINE
  5
1B08
330
22
100
AcDbEntity
  8
POW
  6
Continuous
100
AcDbLine
 10
367.8230609967811
 20
144.7861884549712
 30
0.0
 11
368.005393496781
 21
144.6495178299712
 31
0.0
  0
LINE
  5
1B09
330
22
100
AcDbEntity
  8
POW
  6
Continuous
100
AcDbLine
 10
367.7433528717811
 20
144.8090128299712
 30
0.0
 11
368.0469866217811
 21
144.9909778299712
 31
0.0
  0
LINE
  5
1B0A
330
22
100
AcDbEntity
  8
POW
  6
Continuous
100
AcDbLine
 10
368.0469866217811
 20
144.9909778299712
 30
0.0
 11
368.071937246781
 21
145.0260347049712
 31
0.0
  0
LINE
  5
1B0B
330
22
100
AcDbEntity
  8
POW
  6
Continuous
100
AcDbLine
 10
368.071937246781
 20
145.0260347049712
 30
0.0
 11
368.029372871781
 21
145.0476253299712
 31
0.0
  0
LINE
  5
1B0C
330
22
100
AcDbEntity
  8
POW
  6
Continuous
100
AcDbLine
 10
368.029372871781
 20
145.0476253299712
 30
0.0
 11
367.951226621781
 21
145.0930115799712
 31
0.0
  0
ARC
  5
1B0D
330
22
100
AcDbEntity
  8
POW
  6
Continuous
100
AcDbCircle
 10
367.8712822467811
 20
145.0474547049712
 30
0.0
 40
0.09200625
100
AcDbArc
 50
29.67068999999947
 51
84.13027400000125
  0
LINE
  5
1B0E
330
22
100
AcDbEntity
  8
POW
  6
Continuous
100
AcDbLine
 10
367.880692871781
 20
145.1389884549712
 30
0.0
 11
367.811182871781
 21
145.1750428299712
 31
0.0
  0
ARC
  5
1B0F
330
22
100
AcDbEntity
  8
POW
  6
Continuous
100
AcDbCircle
 10
367.7826884967811
 20
145.1731265799712
 30
0.0
 40
0.028546875
100
AcDbArc
 50
3.860739000000747
 51
125.429287000002
  0
ARC
  5
1B10
330
22
100
AcDbEntity
  8
POW
  6
Continuous
100
AcDbCircle
 10
367.7384047467811
 20
145.1815922049712
 30
0.0
 40
0.031434375
100
AcDbArc
 50
28.07014200000078
 51
125.3284449999994
  0
LINE
  5
1B11
330
22
100
AcDbEntity
  8
POW
  6
Continuous
100
AcDbLine
 10
367.720226621781
 20
145.2072384549712
 30
0.0
 11
367.629204746781
 21
145.1392378299712
 31
0.0
  0
LINE
  5
1B12
330
22
100
AcDbEntity
  8
POW
  6
Continuous
100
AcDbLine
 10
367.629204746781
 20
145.1392378299712
 30
0.0
 11
367.4388266217811
 21
145.0252209549712
 31
0.0
  0
ARC
  5
1B13
330
22
100
AcDbEntity
  8
POW
  6
Continuous
100
AcDbCircle
 10
367.929425996781
 20
145.3936659549712
 30
0.0
 40
0.61354125
100
AcDbArc
 50
216.9063220000002
 51
252.3447589999989
  0
ARC
  5
1B14
330
22
100
AcDbEntity
  8
POW
  6
Continuous
100
AcDbCircle
 10
366.819772871781
 20
146.4437840799712
 30
0.0
 40
1.473465
100
AcDbArc
 50
294.71028
 51
301.2108939999984
  0
LINE
  5
1B15
330
22
100
AcDbEntity
  8
POW
  6
Continuous
100
AcDbLine
 10
367.583319746781
 20
145.1835872049712
 30
0.0
 11
367.6528691217811
 21
145.2309553299712
 31
0.0
  0
ARC
  5
1B16
330
22
100
AcDbEntity
  8
POW
  6
Continuous
100
AcDbCircle
 10
367.6478816217811
 20
145.2503934549712
 30
0.0
 40
0.020068125
100
AcDbArc
 50
284.3731740000005
 51
7.648255999999411
  0
LINE
  5
1B17
330
22
100
AcDbEntity
  8
POW
  6
Continuous
100
AcDbLine
 10
367.667765996781
 20
145.2530578299712
 30
0.0
 11
367.6402953717811
 21
145.2774572049712
 31
0.0
  0
LINE
  5
1B18
330
22
100
AcDbEntity
  8
POW
  6
Continuous
100
AcDbLine
 10
367.6402953717811
 20
145.2774572049712
 30
0.0
 11
367.5949747467811
 21
145.3032872049712
 31
0.0
  0
ARC
  5
1B19
330
22
100
AcDbEntity
  8
POW
  6
Continuous
100
AcDbCircle
 10
367.5869553717811
 20
145.3471378299712
 30
0.0
 40
0.044585625
100
AcDbArc
 50
197.4286020000002
 51
280.3758820000009
  0
ARC
  5
1B1A
330
22
100
AcDbEntity
  8
POW
  6
Continuous
100
AcDbCircle
 10
367.4935316217811
 20
145.2884690799712
 30
0.0
 40
0.068131875
100
AcDbArc
 50
41.69463600000013
 51
133.5112330000004
  0
LINE
  5
1B1B
330
22
100
AcDbEntity
  8
POW
  6
Continuous
100
AcDbLine
 10
367.4466228717811
 20
145.3378847049712
 30
0.0
 11
367.4357291217811
 21
145.1052440799712
 31
0.0
  0
ARC
  5
1B1C
330
22
100
AcDbEntity
  8
POW
  6
Continuous
100
AcDbCircle
 10
368.0317616217811
 20
145.1614584549712
 30
0.0
 40
0.036631875
100
AcDbArc
 50
245.8761029999994
 51
326.6732090000008
  0
LINE
  5
1B1D
330
22
100
AcDbEntity
  8
POW
  6
Continuous
100
AcDbLine
 10
368.0623691217811
 20
145.1413378299712
 30
0.0
 11
368.0631828717811
 21
145.1941790799712
 31
0.0
  0
LINE
  5
1B1E
330
22
100
AcDbEntity
  8
POW
  6
Continuous
100
AcDbLine
 10
368.0631828717811
 20
145.1941790799712
 30
0.0
 11
368.0395709967811
 21
145.2959765799712
 31
0.0
  0
LINE
  5
1B1F
330
22
100
AcDbEntity
  8
POW
  6
Continuous
100
AcDbLine
 10
368.0395709967811
 20
145.2959765799712
 30
0.0
 11
368.040345371781
 21
145.3629140799712
 31
0.0
  0
LINE
  5
1B20
330
22
100
AcDbEntity
  8
POW
  6
Continuous
100
AcDbLine
 10
368.040345371781
 20
145.3629140799712
 30
0.0
 11
368.0089766217811
 21
145.3913690799712
 31
0.0
  0
LINE
  5
1B21
330
22
100
AcDbEntity
  8
POW
  6
Continuous
100
AcDbLine
 10
368.0089766217811
 20
145.3913690799712
 30
0.0
 11
367.9486278717811
 21
145.3447490799712
 31
0.0
  0
LINE
  5
1B22
330
22
100
AcDbEntity
  8
POW
  6
Continuous
100
AcDbLine
 10
367.9486278717811
 20
145.3447490799712
 30
0.0
 11
367.8570809967811
 21
145.2873534549712
 31
0.0
  0
LINE
  5
1B23
330
22
100
AcDbEntity
  8
POW
  6
Continuous
100
AcDbLine
 10
367.8570809967811
 20
145.2873534549712
 30
0.0
 11
367.8124166217811
 21
145.2651459549712
 31
0.0
  0
LINE
  5
1B24
330
22
100
AcDbEntity
  8
POW
  6
Continuous
100
AcDbLine
 10
367.8124166217811
 20
145.2651459549712
 30
0.0
 11
367.846095371781
 21
145.2189984549712
 31
0.0
  0
LINE
  5
1B25
330
22
100
AcDbEntity
  8
POW
  6
Continuous
100
AcDbLine
 10
367.846095371781
 20
145.2189984549712
 30
0.0
 11
368.016785996781
 21
145.1280290799712
 31
0.0
  0
LINE
  5
1B26
330
22
100
AcDbEntity
  8
POW
  6
Continuous
100
AcDbLine
 10
367.7433528717811
 20
145.2875372049712
 30
0.0
 11
368.003490371781
 21
145.4351015799712
 31
0.0
  0
ARC
  5
1B27
330
22
100
AcDbEntity
  8
POW
  6
Continuous
100
AcDbCircle
 10
367.987858496781
 20
145.4748572049712
 30
0.0
 40
0.042721875
100
AcDbArc
 50
291.4485270000017
 51
47.38420900000095
  0
ARC
  5
1B28
330
22
100
AcDbEntity
  8
POW
  6
Continuous
100
AcDbCircle
 10
367.883777246781
 20
145.5314522049712
 30
0.0
 40
0.13537125
100
AcDbArc
 50
349.2932249999993
 51
28.47269800000013
  0
LINE
  5
1B29
330
22
100
AcDbEntity
  8
POW
  6
Continuous
100
AcDbLine
 10
368.0027684967811
 20
145.5959878299712
 30
0.0
 11
367.815474746781
 21
145.5951478299712
 31
0.0
  0
LINE
  5
1B2A
330
22
100
AcDbEntity
  8
POW
  6
Continuous
100
AcDbLine
 10
367.815474746781
 20
145.5951478299712
 30
0.0
 11
367.5749722467811
 21
145.6065403299712
 31
0.0
  0
LINE
  5
1B2B
330
22
100
AcDbEntity
  8
POW
  6
Continuous
100
AcDbLine
 10
367.5749722467811
 20
145.6065403299712
 30
0.0
 11
367.5049503717811
 21
145.6070784549712
 31
0.0
  0
LINE
  5
1B2C
330
22
100
AcDbEntity
  8
POW
  6
Continuous
100
AcDbLine
 10
367.5049503717811
 20
145.6070784549712
 30
0.0
 11
367.480577246781
 21
145.5675853299712
 31
0.0
  0
LINE
  5
1B2D
330
22
100
AcDbEntity
  8
POW
  6
Continuous
100
AcDbLine
 10
367.480577246781
 20
145.5675853299712
 30
0.0
 11
367.469906621781
 21
145.4627428299712
 31
0.0
  0
ARC
  5
1B2E
330
22
100
AcDbEntity
  8
POW
  6
Continuous
100
AcDbCircle
 10
367.6363447467811
 20
145.5469528299712
 30
0.0
 40
0.186519375
100
AcDbArc
 50
206.8405559999991
 51
254.2802910000002
  0
LINE
  5
1B2F
330
22
100
AcDbEntity
  8
POW
  6
Continuous
100
AcDbLine
 10
367.585800371781
 20
145.3674159549712
 30
0.0
 11
367.7433528717811
 21
145.2875372049712
 31
0.0
  0
LINE
  5
1B30
330
22
100
AcDbEntity
  8
POW
  6
Continuous
100
AcDbLine
 10
367.481312246781
 20
145.7660484549712
 30
0.0
 11
367.5105022467811
 21
145.7779790799712
 31
0.0
  0
LINE
  5
1B31
330
22
100
AcDbEntity
  8
POW
  6
Continuous
100
AcDbLine
 10
367.5105022467811
 20
145.7779790799712
 30
0.0
 11
367.541096621781
 21
145.7660484549712
 31
0.0
  0
LINE
  5
1B32
330
22
100
AcDbEntity
  8
POW
  6
Continuous
100
AcDbLine
 10
367.541096621781
 20
145.7660484549712
 30
0.0
 11
367.620922871781
 21
145.7660484549712
 31
0.0
  0
ARC
  5
1B33
330
22
100
AcDbEntity
  8
POW
  6
Continuous
100
AcDbCircle
 10
367.6353866217811
 20
145.8686597049712
 30
0.0
 40
0.103621875
100
AcDbArc
 50
261.9744550000015
 51
325.3919500000003
  0
ARC
  5
1B34
330
22
100
AcDbEntity
  8
POW
  6
Continuous
100
AcDbCircle
 10
367.663828496781
 20
145.8335240799712
 30
0.0
 40
0.061595625
100
AcDbArc
 50
337.3480209999996
 51
49.14543500000029
  0
LINE
  5
1B35
330
22
100
AcDbEntity
  8
POW
  6
Continuous
100
AcDbLine
 10
367.7041222467811
 20
145.8801047049712
 30
0.0
 11
367.686390371781
 21
145.9374084549712
 31
0.0
  0
LINE
  5
1B36
330
22
100
AcDbEntity
  8
POW
  6
Continuous
100
AcDbLine
 10
367.686390371781
 20
145.9374084549712
 30
0.0
 11
367.673580371781
 21
145.9660997049712
 31
0.0
  0
LINE
  5
1B37
330
22
100
AcDbEntity
  8
POW
  6
Continuous
100
AcDbLine
 10
367.673580371781
 20
145.9660997049712
 30
0.0
 11
367.695420371781
 21
145.9940822049712
 31
0.0
  0
LINE
  5
1B38
330
22
100
AcDbEntity
  8
POW
  6
Continuous
100
AcDbLine
 10
367.695420371781
 20
145.9940822049712
 30
0.0
 11
367.7666891217811
 21
145.9692890799712
 31
0.0
  0
LINE
  5
1B39
330
22
100
AcDbEntity
  8
POW
  6
Continuous
100
AcDbLine
 10
367.7666891217811
 20
145.9692890799712
 30
0.0
 11
367.7943041217811
 21
145.9597340799712
 31
0.0
  0
ARC
  5
1B3A
330
22
100
AcDbEntity
  8
POW
  6
Continuous
100
AcDbCircle
 10
367.8031109967811
 20
145.9643409549712
 30
0.0
 40
0.009935625
100
AcDbArc
 50
207.6447709999998
 51
109.4055069999996
  0
LINE
  5
1B3B
330
22
100
AcDbEntity
  8
POW
  6
Continuous
100
AcDbLine
 10
367.799803496781
 20
145.9737253299712
 30
0.0
 11
367.788187871781
 21
146.0037028299712
 31
0.0
  0
LINE
  5
1B3C
330
22
100
AcDbEntity
  8
POW
  6
Continuous
100
AcDbLine
 10
367.788187871781
 20
146.0037028299712
 30
0.0
 11
367.8051978717811
 21
146.0288240799712
 31
0.0
  0
LINE
  5
1B3D
330
22
100
AcDbEntity
  8
POW
  6
Continuous
100
AcDbLine
 10
367.8051978717811
 20
146.0288240799712
 30
0.0
 11
367.9033991217811
 21
146.0601797049712
 31
0.0
  0
LINE
  5
1B3E
330
22
100
AcDbEntity
  8
POW
  6
Continuous
100
AcDbLine
 10
367.9033991217811
 20
146.0601797049712
 30
0.0
 11
367.9363034967811
 21
146.0513728299712
 31
0.0
  0
LINE
  5
1B3F
330
22
100
AcDbEntity
  8
POW
  6
Continuous
100
AcDbLine
 10
367.9363034967811
 20
146.0513728299712
 30
0.0
 11
367.9516466217811
 21
146.0276559549712
 31
0.0
  0
ARC
  5
1B40
330
22
100
AcDbEntity
  8
POW
  6
Continuous
100
AcDbCircle
 10
367.940844746781
 20
145.9985053299712
 30
0.0
 40
0.03108
100
AcDbArc
 50
297.4605139999995
 51
69.66722799999971
  0
LINE
  5
1B41
330
22
100
AcDbEntity
  8
POW
  6
Continuous
100
AcDbLine
 10
367.955190371781
 20
145.9709165799712
 30
0.0
 11
367.9516203717811
 21
145.9361090799712
 31
0.0
  0
LINE
  5
1B42
330
22
100
AcDbEntity
  8
POW
  6
Continuous
100
AcDbLine
 10
367.9516203717811
 20
145.9361090799712
 30
0.0
 11
367.980915371781
 21
145.9254647049712
 31
0.0
  0
LINE
  5
1B43
330
22
100
AcDbEntity
  8
POW
  6
Continuous
100
AcDbLine
 10
367.980915371781
 20
145.9254647049712
 30
0.0
 11
367.993685996781
 21
145.8992540799712
 31
0.0
  0
LINE
  5
1B44
330
22
100
AcDbEntity
  8
POW
  6
Continuous
100
AcDbLine
 10
367.993685996781
 20
145.8992540799712
 30
0.0
 11
368.005301621781
 21
145.8686990799712
 31
0.0
  0
ARC
  5
1B45
330
22
100
AcDbEntity
  8
POW
  6
Continuous
100
AcDbCircle
 10
368.058759746781
 20
145.8651815799712
 30
0.0
 40
0.053589375
100
AcDbArc
 50
176.2383319999997
 51
23.41950299999968
  0
ARC
  5
1B46
330
22
100
AcDbEntity
  8
POW
  6
Continuous
100
AcDbCircle
 10
367.930672871781
 20
145.9437740799712
 30
0.0
 40
0.18629625
100
AcDbArc
 50
342.0900600000012
 51
44.20692399999921
  0
LINE
  5
1B47
330
22
100
AcDbEntity
  8
POW
  6
Continuous
100
AcDbLine
 10
368.064206621781
 20
146.0736722049712
 30
0.0
 11
367.683161621781
 21
146.0850647049712
 31
0.0
  0
LINE
  5
1B48
330
22
100
AcDbEntity
  8
POW
  6
Continuous
100
AcDbLine
 10
367.683161621781
 20
146.0850647049712
 30
0.0
 11
367.5992797467811
 21
146.0736722049712
 31
0.0
  0
LINE
  5
1B49
330
22
100
AcDbEntity
  8
POW
  6
Continuous
100
AcDbLine
 10
367.5992797467811
 20
146.0736722049712
 30
0.0
 11
367.5524628717811
 21
146.0736722049712
 31
0.0
  0
LINE
  5
1B4A
330
22
100
AcDbEntity
  8
POW
  6
Continuous
100
AcDbLine
 10
367.5524628717811
 20
146.0736722049712
 30
0.0
 11
367.525950371781
 21
146.0856684549712
 31
0.0
  0
ARC
  5
1B4B
330
22
100
AcDbEntity
  8
POW
  6
Continuous
100
AcDbCircle
 10
367.4872578717811
 20
146.1418172049712
 30
0.0
 40
0.068184375
100
AcDbArc
 50
236.1223840000019
 51
304.5735919999986
  0
LINE
  5
1B4C
330
22
100
AcDbEntity
  8
POW
  6
Continuous
100
AcDbLine
 10
367.4492478717811
 20
146.0852090799712
 30
0.0
 11
367.412248496781
 21
146.0722547049712
 31
0.0
  0
LINE
  5
1B4D
330
22
100
AcDbEntity
  8
POW
  6
Continuous
100
AcDbLine
 10
367.412248496781
 20
146.0722547049712
 30
0.0
 11
367.412944121781
 21
146.0176940799712
 31
0.0
  0
LINE
  5
1B4E
330
22
100
AcDbEntity
  8
POW
  6
Continuous
100
AcDbLine
 10
367.412944121781
 20
146.0176940799712
 30
0.0
 11
367.424336621781
 21
145.8675047049712
 31
0.0
  0
ARC
  5
1B4F
330
22
100
AcDbEntity
  8
POW
  6
Continuous
100
AcDbCircle
 10
367.547252246781
 20
145.8698015799712
 30
0.0
 40
0.12292875
100
AcDbArc
 50
181.0707679999993
 51
237.5597249999995
  0
LINE
  5
1B50
330
22
100
AcDbEntity
  8
POW
  6
Continuous
100
AcDbLine
 10
366.7521397467811
 20
146.3812828299712
 30
0.0
 11
366.8336591217811
 21
146.5185572049712
 31
0.0
  0
LINE
  5
1B51
330
22
100
AcDbEntity
  8
POW
  6
Continuous
100
AcDbLine
 10
366.8336591217811
 20
146.5185572049712
 30
0.0
 11
366.922252871781
 21
146.6414334549712
 31
0.0
  0
LINE
  5
1B52
330
22
100
AcDbEntity
  8
POW
  6
Continuous
100
AcDbLine
 10
366.922252871781
 20
146.6414334549712
 30
0.0
 11
367.014403496781
 21
146.7544265799712
 31
0.0
  0
ARC
  5
1B53
330
22
100
AcDbEntity
  8
POW
  6
Continuous
100
AcDbCircle
 10
366.8333309967811
 20
146.7880659549711
 30
0.0
 40
0.184183125
100
AcDbArc
 50
349.4787769999991
 51
31.23143700000025
  0
LINE
  5
1B54
330
22
100
AcDbEntity
  8
POW
  6
Continuous
100
AcDbLine
 10
366.9908178717811
 20
146.8835634549712
 30
0.0
 11
366.991395371781
 21
147.3124753299712
 31
0.0
  0
LINE
  5
1B55
330
22
100
AcDbEntity
  8
POW
  6
Continuous
100
AcDbLine
 10
366.991395371781
 20
147.3124753299712
 30
0.0
 11
366.991395371781
 21
147.5667853299712
 31
0.0
  0
ARC
  5
1B56
330
22
100
AcDbEntity
  8
POW
  6
Continuous
100
AcDbCircle
 10
367.0995584967811
 20
147.6307565799712
 30
0.0
 40
0.125671875
100
AcDbArc
 50
122.3787829999992
 51
210.6019419999992
  0
LINE
  5
1B57
330
22
100
AcDbEntity
  8
POW
  6
Continuous
100
AcDbLine
 10
367.032266621781
 20
147.7368853299712
 30
0.0
 11
367.2198097467811
 21
147.8983359549712
 31
0.0
  0
LINE
  5
1B58
330
22
100
AcDbEntity
  8
POW
  6
Continuous
100
AcDbLine
 10
367.2198097467811
 20
147.8983359549712
 30
0.0
 11
367.321462871781
 21
147.9877303299712
 31
0.0
  0
LINE
  5
1B59
330
22
100
AcDbEntity
  8
POW
  6
Continuous
100
AcDbLine
 10
367.321462871781
 20
147.9877303299712
 30
0.0
 11
367.379370371781
 21
148.0505990799712
 31
0.0
  0
LINE
  5
1B5A
330
22
100
AcDbEntity
  8
POW
  6
Continuous
100
AcDbLine
 10
367.379370371781
 20
148.0505990799712
 30
0.0
 11
367.3787666217811
 21
148.1504803299712
 31
0.0
  0
LINE
  5
1B5B
330
22
100
AcDbEntity
  8
POW
  6
Continuous
100
AcDbLine
 10
367.3787666217811
 20
148.1504803299712
 30
0.0
 11
367.3673741217811
 21
149.0624840799712
 31
0.0
  0
LINE
  5
1B5C
330
22
100
AcDbEntity
  8
POW
  6
Continuous
100
AcDbLine
 10
367.3673741217811
 20
149.0624840799712
 30
0.0
 11
367.3559816217811
 21
149.2849003299712
 31
0.0
  0
LINE
  5
1B5D
330
22
100
AcDbEntity
  8
POW
  6
Continuous
100
AcDbLine
 10
367.3559816217811
 20
149.2849003299712
 30
0.0
 11
367.332881621781
 21
149.3783897049712
 31
0.0
  0
ARC
  5
1B5E
330
22
100
AcDbEntity
  8
POW
  6
Continuous
100
AcDbCircle
 10
367.2755647467811
 20
149.3642278299712
 30
0.0
 40
0.05903625
100
AcDbArc
 50
13.87792599999988
 51
98.9472710000005
  0
LINE
  5
1B5F
330
22
100
AcDbEntity
  8
POW
  6
Continuous
100
AcDbLine
 10
366.823250996781
 20
149.4346697049712
 30
0.0
 11
367.2663772467811
 21
149.4225422049712
 31
0.0
  0
LINE
  5
1B60
330
22
100
AcDbEntity
  8
POW
  6
Continuous
100
AcDbLine
 10
366.823250996781
 20
149.4346697049712
 30
0.0
 11
366.714589121781
 21
149.4346697049712
 31
0.0
  0
ARC
  5
1B61
330
22
100
AcDbEntity
  8
POW
  6
Continuous
100
AcDbCircle
 10
366.711885371781
 20
149.4129872049712
 30
0.0
 40
0.021853125
100
AcDbArc
 50
82.88123300000101
 51
220.1228899999997
  0
LINE
  5
1B62
330
22
100
AcDbEntity
  8
POW
  6
Continuous
100
AcDbLine
 10
366.695164121781
 20
149.3989040799712
 30
0.0
 11
366.695164121781
 21
149.3500003299712
 31
0.0
  0
LINE
  5
1B63
330
22
100
AcDbEntity
  8
POW
  6
Continuous
100
AcDbLine
 10
366.695164121781
 20
149.3500003299712
 30
0.0
 11
366.695164121781
 21
149.0959003299712
 31
0.0
  0
LINE
  5
1B64
330
22
100
AcDbEntity
  8
POW
  6
Continuous
100
AcDbLine
 10
366.695164121781
 20
149.0959003299712
 30
0.0
 11
366.706556621781
 21
148.6119684549712
 31
0.0
  0
ARC
  5
1B65
330
22
100
AcDbEntity
  8
POW
  6
Continuous
100
AcDbCircle
 10
349.122692246781
 20
147.6721003299712
 30
0.0
 40
17.6089725
100
AcDbArc
 50
359.071124
 51
3.05959700000013
  0
ARC
  5
1B66
330
22
100
AcDbEntity
  8
POW
  6
Continuous
100
AcDbCircle
 10
355.6869903717811
 20
146.6334272049712
 30
0.0
 40
11.068010625
100
AcDbArc
 50
358.6946269999992
 51
3.902171999999882
  0
LINE
  5
1B67
330
22
100
AcDbEntity
  8
POW
  6
Continuous
100
AcDbLine
 10
371.9132966217811
 20
146.4154603299712
 30
0.0
 11
371.7765734967811
 21
148.0754709549712
 31
0.0
  0
LINE
  5
1B68
330
22
100
AcDbEntity
  8
POW
  6
Continuous
100
AcDbLine
 10
371.7765734967811
 20
148.0754709549712
 30
0.0
 11
371.7074441217811
 21
148.9833928299712
 31
0.0
  0
ARC
  5
1B69
330
22
100
AcDbEntity
  8
POW
  6
Continuous
100
AcDbCircle
 10
370.2167984967811
 20
149.0025947049712
 30
0.0
 40
1.490776875
100
AcDbArc
 50
359.2619580000003
 51
14.18854499999931
  0
ARC
  5
1B6A
330
22
100
AcDbEntity
  8
POW
  6
Continuous
100
AcDbCircle
 10
371.610542246781
 20
149.3143528299712
 30
0.0
 40
0.07441875
100
AcDbArc
 50
46.14020499999838
 51
190.2782120000005
  0
LINE
  5
1B6B
330
22
100
AcDbEntity
  8
POW
  6
Continuous
100
AcDbLine
 10
371.5373178717811
 20
149.3010834549712
 30
0.0
 11
371.521502246781
 21
149.2245515799712
 31
0.0
  0
ARC
  5
1B6C
330
22
100
AcDbEntity
  8
POW
  6
Continuous
100
AcDbCircle
 10
385.1120591217811
 20
146.4156965799712
 30
0.0
 40
13.877784375
100
AcDbArc
 50
168.3227020000001
 51
176.1878699999995
  0
LINE
  5
1B6D
330
22
100
AcDbEntity
  8
POW
  6
Continuous
100
AcDbLine
 10
371.3442622467811
 20
147.2824978299712
 30
0.0
 11
371.264974121781
 21
147.3383578299712
 31
0.0
  0
LINE
  5
1B6E
330
22
100
AcDbEntity
  8
POW
  6
Continuous
100
AcDbLine
 10
371.3442622467811
 20
147.2824978299712
 30
0.0
 11
371.3664172467811
 21
147.4273190799712
 31
0.0
  0
LINE
  5
1B6F
330
22
100
AcDbEntity
  8
POW
  6
Continuous
100
AcDbLine
 10
371.3664172467811
 20
147.4273190799712
 30
0.0
 11
371.3892022467811
 21
147.5575453299712
 31
0.0
  0
LINE
  5
1B70
330
22
100
AcDbEntity
  8
POW
  6
Continuous
100
AcDbLine
 10
371.3892022467811
 20
147.5575453299712
 30
0.0
 11
371.388388496781
 21
147.6550903299712
 31
0.0
  0
ARC
  5
1B71
330
22
100
AcDbEntity
  8
POW
  6
Continuous
100
AcDbCircle
 10
371.391472871781
 20
147.6688453299712
 30
0.0
 40
0.01409625
100
AcDbArc
 50
257.3324910000013
 51
49.70933499999974
  0
ARC
  5
1B72
330
22
100
AcDbEntity
  8
POW
  6
Continuous
100
AcDbCircle
 10
371.411659121781
 20
147.6901472049712
 30
0.0
 40
0.0152775
100
AcDbArc
 50
56.53163400000036
 51
223.638266
  0
ARC
  5
1B73
330
22
100
AcDbEntity
  8
POW
  6
Continuous
100
AcDbCircle
 10
371.3487903717811
 20
147.5273972049712
 30
0.0
 40
0.189433125
100
AcDbArc
 50
355.6653989999992
 51
67.8932949999996
  0
LINE
  5
1B74
330
22
100
AcDbEntity
  8
POW
  6
Continuous
100
AcDbLine
 10
371.537685371781
 20
147.5130778299712
 30
0.0
 11
371.5487103717811
 21
147.2012803299712
 31
0.0
  0
LINE
  5
1B75
330
22
100
AcDbEntity
  8
POW
  6
Continuous
100
AcDbLine
 10
371.5487103717811
 20
147.2012803299712
 30
0.0
 11
371.589962246781
 21
146.9398172049712
 31
0.0
  0
LINE
  5
1B76
330
22
100
AcDbEntity
  8
POW
  6
Continuous
100
AcDbLine
 10
371.589962246781
 20
146.9398172049712
 30
0.0
 11
371.708480996781
 21
146.7683259549712
 31
0.0
  0
LINE
  5
1B77
330
22
100
AcDbEntity
  8
POW
  6
Continuous
100
AcDbLine
 10
371.708480996781
 20
146.7683259549712
 30
0.0
 11
371.9132966217811
 21
146.4154603299712
 31
0.0
  0
ARC
  5
1B78
330
22
100
AcDbEntity
  8
POW
  6
Continuous
100
AcDbCircle
 10
367.578607871781
 20
147.8151103299712
 30
0.0
 40
0.32988375
100
AcDbArc
 50
274.8726430000005
 51
315.0235909999989
  0
LINE
  5
1B79
330
22
100
AcDbEntity
  8
POW
  6
Continuous
100
AcDbLine
 10
367.8119703717811
 20
147.5819447049712
 30
0.0
 11
367.9804822467811
 21
147.6793059549712
 31
0.0
  0
ARC
  5
1B7A
330
22
100
AcDbEntity
  8
POW
  6
Continuous
100
AcDbCircle
 10
367.531725371781
 20
148.4214853299712
 30
0.0
 40
0.8673
100
AcDbArc
 50
301.1590539999982
 51
315.8118089999987
  0
LINE
  5
1B7B
330
22
100
AcDbEntity
  8
POW
  6
Continuous
100
AcDbLine
 10
368.1536272467811
 20
147.8169609549712
 30
0.0
 11
368.164967246781
 21
147.8979028299712
 31
0.0
  0
LINE
  5
1B7C
330
22
100
AcDbEntity
  8
POW
  6
Continuous
100
AcDbLine
 10
368.164967246781
 20
147.8979028299712
 30
0.0
 11
368.153509121781
 21
147.9699328299712
 31
0.0
  0
LINE
  5
1B7D
330
22
100
AcDbEntity
  8
POW
  6
Continuous
100
AcDbLine
 10
368.153509121781
 20
147.9699328299712
 30
0.0
 11
368.153509121781
 21
148.1242828299712
 31
0.0
  0
ARC
  5
1B7E
330
22
100
AcDbEntity
  8
POW
  6
Continuous
100
AcDbCircle
 10
353.840959121781
 20
148.4193722049712
 30
0.0
 40
14.315595
100
AcDbArc
 50
358.81884
 51
3.449895000000261
  0
ARC
  5
1B7F
330
22
100
AcDbEntity
  8
POW
  6
Continuous
100
AcDbCircle
 10
367.9791828717811
 20
149.2716965799712
 30
0.0
 40
0.15169875
100
AcDbArc
 50
3.449895000000261
 51
87.7233949999996
  0
ARC
  5
1B80
330
22
100
AcDbEntity
  8
POW
  6
Continuous
100
AcDbCircle
 10
367.8266572467811
 20
148.3311328299712
 30
0.0
 40
1.103589375
100
AcDbArc
 50
81.73964400000004
 51
98.34523900000093
  0
ARC
  5
1B81
330
22
100
AcDbEntity
  8
POW
  6
Continuous
100
AcDbCircle
 10
367.6403347467811
 20
149.2871840799712
 30
0.0
 40
0.138350625
100
AcDbArc
 50
79.10736500000004
 51
145.1796209999999
  0
LINE
  5
1B82
330
22
100
AcDbEntity
  8
POW
  6
Continuous
100
AcDbLine
 10
367.5267641217811
 20
149.3661834549712
 30
0.0
 11
367.4919566217811
 21
149.2393959549712
 31
0.0
  0
LINE
  5
1B83
330
22
100
AcDbEntity
  8
POW
  6
Continuous
100
AcDbLine
 10
367.4919566217811
 20
149.2393959549712
 30
0.0
 11
367.481312246781
 21
149.0656078299712
 31
0.0
  0
LINE
  5
1B84
330
22
100
AcDbEntity
  8
POW
  6
Continuous
100
AcDbLine
 10
367.481312246781
 20
149.0656078299712
 30
0.0
 11
367.492534121781
 21
148.9674065799712
 31
0.0
  0
ARC
  5
1B85
330
22
100
AcDbEntity
  8
POW
  6
Continuous
100
AcDbCircle
 10
367.581731621781
 20
148.9212459549712
 30
0.0
 40
0.1004325
100
AcDbArc
 50
152.6380570000004
 51
207.563761999999
  0
LINE
  5
1B86
330
22
100
AcDbEntity
  8
POW
  6
Continuous
100
AcDbLine
 10
367.492704746781
 20
148.8747834549712
 30
0.0
 11
367.5040972467811
 21
148.1139272049712
 31
0.0
  0
LINE
  5
1B87
330
22
100
AcDbEntity
  8
POW
  6
Continuous
100
AcDbLine
 10
367.5040972467811
 20
148.1139272049712
 30
0.0
 11
367.515489746781
 21
147.7793578299712
 31
0.0
  0
LINE
  5
1B88
330
22
100
AcDbEntity
  8
POW
  6
Continuous
100
AcDbLine
 10
367.515489746781
 20
147.7793578299712
 30
0.0
 11
367.520805371781
 21
147.5888878299712
 31
0.0
  0
ARC
  5
1B89
330
22
100
AcDbEntity
  8
POW
  6
Continuous
100
AcDbCircle
 10
367.7219853717811
 20
147.6702103299712
 30
0.0
 40
0.2169825
100
AcDbArc
 50
202.0103999999998
 51
237.8856660000014
  0
ARC
  5
1B8A
330
22
100
AcDbEntity
  8
POW
  6
Continuous
100
AcDbCircle
 10
345.938593496781
 20
148.8877378299712
 30
0.0
 40
25.18201875
100
AcDbArc
 50
356.8099979999993
 51
1.117542999999967
  0
ARC
  5
1B8B
330
22
100
AcDbEntity
  8
POW
  6
Continuous
100
AcDbCircle
 10
371.035404746781
 20
149.3220965799712
 30
0.0
 40
0.0984375
100
AcDbArc
 50
35.22717399999955
 51
114.1985379999989
  0
ARC
  5
1B8C
330
22
100
AcDbEntity
  8
POW
  6
Continuous
100
AcDbCircle
 10
370.953242246781
 20
149.2792565799712
 30
0.0
 40
0.139059375
100
AcDbArc
 50
72.49851500000167
 51
129.3272329999997
  0
LINE
  5
1B8D
330
22
100
AcDbEntity
  8
POW
  6
Continuous
100
AcDbLine
 10
370.8651078717811
 20
149.3868290799712
 30
0.0
 11
370.8651078717811
 21
149.0883928299712
 31
0.0
  0
LINE
  5
1B8E
330
22
100
AcDbEntity
  8
POW
  6
Continuous
100
AcDbLine
 10
370.8651078717811
 20
149.0883928299712
 30
0.0
 11
370.8651078717811
 21
148.5518165799712
 31
0.0
  0
LINE
  5
1B8F
330
22
100
AcDbEntity
  8
POW
  6
Continuous
100
AcDbLine
 10
370.8651078717811
 20
148.5518165799712
 30
0.0
 11
370.8651078717811
 21
147.9473315799712
 31
0.0
  0
LINE
  5
1B90
330
22
100
AcDbEntity
  8
POW
  6
Continuous
100
AcDbLine
 10
370.8651078717811
 20
147.9473315799712
 30
0.0
 11
370.8651078717811
 21
147.7674140799712
 31
0.0
  0
ARC
  5
1B91
330
22
100
AcDbEntity
  8
POW
  6
Continuous
100
AcDbCircle
 10
371.016255371781
 20
147.7270153299712
 30
0.0
 40
0.15645
100
AcDbArc
 50
165.0349150000003
 51
221.7396389999994
  0
LINE
  5
1B92
330
22
100
AcDbEntity
  8
POW
  6
Continuous
100
AcDbLine
 10
370.8995216217811
 20
147.6228553299712
 30
0.0
 11
371.081591621781
 21
147.4864340799712
 31
0.0
  0
ARC
  5
1B93
330
22
100
AcDbEntity
  8
POW
  6
Continuous
100
AcDbCircle
 10
367.826027246781
 20
147.8081540799712
 30
0.0
 40
0.054705
100
AcDbArc
 50
152.4297330000004
 51
241.9702919999985
  0
LINE
  5
1B94
330
22
100
AcDbEntity
  8
POW
  6
Continuous
100
AcDbLine
 10
367.7775303717811
 20
147.8334722049712
 30
0.0
 11
367.7775303717811
 21
147.9266465799712
 31
0.0
  0
LINE
  5
1B95
330
22
100
AcDbEntity
  8
POW
  6
Continuous
100
AcDbLine
 10
367.7775303717811
 20
147.9266465799712
 30
0.0
 11
367.7775303717811
 21
148.0941740799712
 31
0.0
  0
LINE
  5
1B96
330
22
100
AcDbEntity
  8
POW
  6
Continuous
100
AcDbLine
 10
367.7775303717811
 20
148.0941740799712
 30
0.0
 11
367.7775303717811
 21
148.4979384549712
 31
0.0
  0
LINE
  5
1B97
330
22
100
AcDbEntity
  8
POW
  6
Continuous
100
AcDbLine
 10
367.7775303717811
 20
148.4979384549712
 30
0.0
 11
367.766137871781
 21
148.8757153299712
 31
0.0
  0
ARC
  5
1B98
330
22
100
AcDbEntity
  8
POW
  6
Continuous
100
AcDbCircle
 10
368.9754491217811
 20
149.0424553299712
 30
0.0
 40
1.220756249999999
100
AcDbArc
 50
172.3030919999992
 51
187.8505239999998
  0
ARC
  5
1B99
330
22
100
AcDbEntity
  8
POW
  6
Continuous
100
AcDbCircle
 10
367.8313953717811
 20
149.1835359549712
 30
0.0
 40
0.069418125
100
AcDbArc
 50
29.26627799999949
 51
161.1612079999996
  0
LINE
  5
1B9A
330
22
100
AcDbEntity
  8
POW
  6
Continuous
100
AcDbLine
 10
367.891940996781
 20
149.2174772049712
 30
0.0
 11
367.8914684967811
 21
148.9678397049712
 31
0.0
  0
LINE
  5
1B9B
330
22
100
AcDbEntity
  8
POW
  6
Continuous
100
AcDbLine
 10
367.8914684967811
 20
148.9678397049712
 30
0.0
 11
367.9028609967811
 21
148.5250940799712
 31
0.0
  0
LINE
  5
1B9C
330
22
100
AcDbEntity
  8
POW
  6
Continuous
100
AcDbLine
 10
367.9028609967811
 20
148.5250940799712
 30
0.0
 11
367.9028609967811
 21
148.1165259549712
 31
0.0
  0
LINE
  5
1B9D
330
22
100
AcDbEntity
  8
POW
  6
Continuous
100
AcDbLine
 10
367.9028609967811
 20
148.1165259549712
 30
0.0
 11
367.9028609967811
 21
147.8582390799712
 31
0.0
  0
ARC
  5
1B9E
330
22
100
AcDbEntity
  8
POW
  6
Continuous
100
AcDbCircle
 10
367.8387716217811
 20
147.8224078299712
 30
0.0
 40
0.07342125
100
AcDbArc
 50
238.4131030000004
 51
29.21021200000076
  0
ARC
  5
1B9F
330
22
100
AcDbEntity
  8
POW
  6
Continuous
100
AcDbCircle
 10
362.445118496781
 20
148.4059584549712
 30
0.0
 40
8.251635
100
AcDbArc
 50
355.5092389999992
 51
1.423385999999761
  0
LINE
  5
1BA0
330
22
100
AcDbEntity
  8
POW
  6
Continuous
100
AcDbLine
 10
370.6942072467811
 20
148.6109315799712
 30
0.0
 11
370.6942072467811
 21
149.1133565799712
 31
0.0
  0
LINE
  5
1BA1
330
22
100
AcDbEntity
  8
POW
  6
Continuous
100
AcDbLine
 10
370.6942072467811
 20
149.1133565799712
 30
0.0
 11
370.6942072467811
 21
149.3488978299712
 31
0.0
  0
ARC
  5
1BA2
330
22
100
AcDbEntity
  8
POW
  6
Continuous
100
AcDbCircle
 10
370.639016621781
 20
149.3579672049712
 30
0.0
 40
0.05593875
100
AcDbArc
 50
350.6691100000006
 51
105.477085999999
  0
LINE
  5
1BA3
330
22
100
AcDbEntity
  8
POW
  6
Continuous
100
AcDbLine
 10
370.6240803717811
 20
149.4118847049712
 30
0.0
 11
370.5071103717811
 21
149.4118847049712
 31
0.0
  0
ARC
  5
1BA4
330
22
100
AcDbEntity
  8
POW
  6
Continuous
100
AcDbCircle
 10
370.4827897467811
 20
149.3668003299712
 30
0.0
 40
0.051226875
100
AcDbArc
 50
61.65917100000021
 51
181.6340979999995
  0
ARC
  5
1BA5
330
22
100
AcDbEntity
  8
POW
  6
Continuous
100
AcDbCircle
 10
370.2924641217811
 20
149.3316384549712
 30
0.0
 40
0.143154375
100
AcDbArc
 50
326.6232309999996
 51
13.6140979999999
  0
LINE
  5
1BA6
330
22
100
AcDbEntity
  8
POW
  6
Continuous
100
AcDbLine
 10
370.4120066217811
 20
149.2528884549711
 30
0.0
 11
370.3637591217811
 21
149.0483878299712
 31
0.0
  0
LINE
  5
1BA7
330
22
100
AcDbEntity
  8
POW
  6
Continuous
100
AcDbLine
 10
370.3637591217811
 20
149.0483878299712
 30
0.0
 11
370.3300409967811
 21
148.8655959549712
 31
0.0
  0
ARC
  5
1BA8
330
22
100
AcDbEntity
  8
POW
  6
Continuous
100
AcDbCircle
 10
370.369284746781
 20
148.8284653299712
 30
0.0
 40
0.0540225
100
AcDbArc
 50
136.5763619999997
 51
200.9897050000002
  0
LINE
  5
1BA9
330
22
100
AcDbEntity
  8
POW
  6
Continuous
100
AcDbLine
 10
370.318845371781
 20
148.8091059549712
 30
0.0
 11
370.2998928717811
 21
148.7952722049712
 31
0.0
  0
LINE
  5
1BAA
330
22
100
AcDbEntity
  8
POW
  6
Continuous
100
AcDbLine
 10
370.2998928717811
 20
148.7952722049712
 30
0.0
 11
370.284024746781
 21
148.8185428299712
 31
0.0
  0
LINE
  5
1BAB
330
22
100
AcDbEntity
  8
POW
  6
Continuous
100
AcDbLine
 10
370.284024746781
 20
148.8185428299712
 30
0.0
 11
370.272658496781
 21
148.9196840799712
 31
0.0
  0
LINE
  5
1BAC
330
22
100
AcDbEntity
  8
POW
  6
Continuous
100
AcDbLine
 10
370.272658496781
 20
148.9196840799712
 30
0.0
 11
370.2156959967811
 21
149.2899272049712
 31
0.0
  0
LINE
  5
1BAD
330
22
100
AcDbEntity
  8
POW
  6
Continuous
100
AcDbLine
 10
370.2156959967811
 20
149.2899272049712
 30
0.0
 11
370.2044084967811
 21
149.3775890799712
 31
0.0
  0
ARC
  5
1BAE
330
22
100
AcDbEntity
  8
POW
  6
Continuous
100
AcDbCircle
 10
370.154218496781
 20
149.3699503299712
 30
0.0
 40
0.0507675
100
AcDbArc
 50
8.652384000000667
 51
124.3191770000005
  0
LINE
  5
1BAF
330
22
100
AcDbEntity
  8
POW
  6
Continuous
100
AcDbLine
 10
370.1255928717811
 20
149.4118847049712
 30
0.0
 11
369.9224309967811
 21
149.4118847049712
 31
0.0
  0
ARC
  5
1BB0
330
22
100
AcDbEntity
  8
POW
  6
Continuous
100
AcDbCircle
 10
369.9201866217811
 20
149.3833509549712
 30
0.0
 40
0.0286125
100
AcDbArc
 50
85.49860800000123
 51
214.7789480000001
  0
LINE
  5
1BB1
330
22
100
AcDbEntity
  8
POW
  6
Continuous
100
AcDbLine
 10
369.8966797467811
 20
149.3670234549712
 30
0.0
 11
369.8966797467811
 21
149.2905965799712
 31
0.0
  0
LINE
  5
1BB2
330
22
100
AcDbEntity
  8
POW
  6
Continuous
100
AcDbLine
 10
369.8966797467811
 20
149.2905965799712
 30
0.0
 11
369.8966797467811
 21
149.1447253299712
 31
0.0
  0
LINE
  5
1BB3
330
22
100
AcDbEntity
  8
POW
  6
Continuous
100
AcDbLine
 10
369.8966797467811
 20
149.1447253299712
 30
0.0
 11
369.8966797467811
 21
148.8852440799712
 31
0.0
  0
LINE
  5
1BB4
330
22
100
AcDbEntity
  8
POW
  6
Continuous
100
AcDbLine
 10
369.8966797467811
 20
148.8852440799712
 30
0.0
 11
369.8966797467811
 21
148.3920984549712
 31
0.0
  0
LINE
  5
1BB5
330
22
100
AcDbEntity
  8
POW
  6
Continuous
100
AcDbLine
 10
369.8966797467811
 20
148.3920984549712
 30
0.0
 11
369.8966797467811
 21
148.1614134549712
 31
0.0
  0
LINE
  5
1BB6
330
22
100
AcDbEntity
  8
POW
  6
Continuous
100
AcDbLine
 10
369.8966797467811
 20
148.1614134549712
 30
0.0
 11
369.895918496781
 21
148.0350590799712
 31
0.0
  0
ARC
  5
1BB7
330
22
100
AcDbEntity
  8
POW
  6
Continuous
100
AcDbCircle
 10
369.9776478717811
 20
148.2289022049712
 30
0.0
 40
0.2103675
100
AcDbArc
 50
247.1393200000007
 51
272.899838999999
  0
LINE
  5
1BB8
330
22
100
AcDbEntity
  8
POW
  6
Continuous
100
AcDbLine
 10
369.9882922467811
 20
148.0188103299712
 30
0.0
 11
370.024490996781
 21
148.0106990799712
 31
0.0
  0
LINE
  5
1BB9
330
22
100
AcDbEntity
  8
POW
  6
Continuous
100
AcDbLine
 10
370.024490996781
 20
148.0106990799712
 30
0.0
 11
370.0332716217811
 21
147.9992803299712
 31
0.0
  0
LINE
  5
1BBA
330
22
100
AcDbEntity
  8
POW
  6
Continuous
100
AcDbLine
 10
370.0332716217811
 20
147.9992803299712
 30
0.0
 11
370.0448347467811
 21
148.0095703299712
 31
0.0
  0
LINE
  5
1BBB
330
22
100
AcDbEntity
  8
POW
  6
Continuous
100
AcDbLine
 10
370.0448347467811
 20
148.0095703299712
 30
0.0
 11
370.044795371781
 21
148.0805372049712
 31
0.0
  0
LINE
  5
1BBC
330
22
100
AcDbEntity
  8
POW
  6
Continuous
100
AcDbLine
 10
370.044795371781
 20
148.0805372049712
 30
0.0
 11
370.044795371781
 21
148.2096478299712
 31
0.0
  0
LINE
  5
1BBD
330
22
100
AcDbEntity
  8
POW
  6
Continuous
100
AcDbLine
 10
370.044795371781
 20
148.2096478299712
 30
0.0
 11
370.0377603717811
 21
148.4437190799712
 31
0.0
  0
ARC
  5
1BBE
330
22
100
AcDbEntity
  8
POW
  6
Continuous
100
AcDbCircle
 10
370.038049121781
 20
148.4515022049712
 30
0.0
 40
0.007783125
100
AcDbArc
 50
267.904359
 51
136.4173150000015
  0
LINE
  5
1BBF
330
22
100
AcDbEntity
  8
POW
  6
Continuous
100
AcDbLine
 10
370.0324053717811
 20
148.4568703299712
 30
0.0
 11
370.0478928717811
 21
148.4788678299712
 31
0.0
  0
LINE
  5
1BC0
330
22
100
AcDbEntity
  8
POW
  6
Continuous
100
AcDbLine
 10
370.0478928717811
 20
148.4788678299712
 30
0.0
 11
370.067580371781
 21
148.4232572049712
 31
0.0
  0
LINE
  5
1BC1
330
22
100
AcDbEntity
  8
POW
  6
Continuous
100
AcDbLine
 10
370.067580371781
 20
148.4232572049712
 30
0.0
 11
370.090365371781
 21
148.3269197049712
 31
0.0
  0
LINE
  5
1BC2
330
22
100
AcDbEntity
  8
POW
  6
Continuous
100
AcDbLine
 10
370.090365371781
 20
148.3269197049712
 30
0.0
 11
370.1473278717811
 21
148.0671890799712
 31
0.0
  0
ARC
  5
1BC3
330
22
100
AcDbEntity
  8
POW
  6
Continuous
100
AcDbCircle
 10
370.2797853717811
 20
148.0626478299712
 30
0.0
 40
0.13253625
100
AcDbArc
 50
178.0371699999999
 51
235.1477370000011
  0
ARC
  5
1BC4
330
22
100
AcDbEntity
  8
POW
  6
Continuous
100
AcDbCircle
 10
370.1857841217811
 20
148.0335365799712
 30
0.0
 40
0.08171625
100
AcDbArc
 50
282.9170949999997
 51
7.87946500000047
  0
LINE
  5
1BC5
330
22
100
AcDbEntity
  8
POW
  6
Continuous
100
AcDbLine
 10
370.2667259967811
 20
148.0447453299712
 30
0.0
 11
370.3581941217811
 21
148.3181128299712
 31
0.0
  0
LINE
  5
1BC6
330
22
100
AcDbEntity
  8
POW
  6
Continuous
100
AcDbLine
 10
370.3581941217811
 20
148.3181128299712
 30
0.0
 11
370.3988028717811
 21
148.4228240799712
 31
0.0
  0
LINE
  5
1BC7
330
22
100
AcDbEntity
  8
POW
  6
Continuous
100
AcDbLine
 10
370.3988028717811
 20
148.4228240799712
 30
0.0
 11
370.4034622467811
 21
148.4555053299712
 31
0.0
  0
ARC
  5
1BC8
330
22
100
AcDbEntity
  8
POW
  6
Continuous
100
AcDbCircle
 10
370.411691621781
 20
148.4452547049712
 30
0.0
 40
0.01315125
100
AcDbArc
 50
313.6952599999995
 51
128.7482130000002
  0
LINE
  5
1BC9
330
22
100
AcDbEntity
  8
POW
  6
Continuous
100
AcDbLine
 10
370.420774121781
 20
148.4357522049712
 30
0.0
 11
370.420774121781
 21
148.3691953299712
 31
0.0
  0
LINE
  5
1BCA
330
22
100
AcDbEntity
  8
POW
  6
Continuous
100
AcDbLine
 10
370.420774121781
 20
148.3691953299712
 30
0.0
 11
370.409381621781
 21
148.0471734549712
 31
0.0
  0
ARC
  5
1BCB
330
22
100
AcDbEntity
  8
POW
  6
Continuous
100
AcDbCircle
 10
370.6013741217811
 20
147.9953559549712
 30
0.0
 40
0.198856875
100
AcDbArc
 50
164.8966240000005
 51
231.6101690000014
  0
LINE
  5
1BCC
330
22
100
AcDbEntity
  8
POW
  6
Continuous
100
AcDbLine
 10
370.477880996781
 20
147.8394965799712
 30
0.0
 11
370.671422246781
 21
147.7598672049712
 31
0.0
  0
ARC
  5
1BCD
330
22
100
AcDbEntity
  8
POW
  6
Continuous
100
AcDbCircle
 10
371.5082984967811
 20
147.9748809549712
 30
0.0
 40
0.062146875
100
AcDbArc
 50
178.4187489999999
 51
243.2782730000006
  0
LINE
  5
1BCE
330
22
100
AcDbEntity
  8
POW
  6
Continuous
100
AcDbLine
 10
371.446164746781
 20
147.9766003299712
 30
0.0
 11
371.4575703717811
 21
148.0685540799712
 31
0.0
  0
LINE
  5
1BCF
330
22
100
AcDbEntity
  8
POW
  6
Continuous
100
AcDbLine
 10
371.4575703717811
 20
148.0685540799712
 30
0.0
 11
371.4803553717811
 21
148.2356353299712
 31
0.0
  0
LINE
  5
1BD0
330
22
100
AcDbEntity
  8
POW
  6
Continuous
100
AcDbLine
 10
371.4803553717811
 20
148.2356353299712
 30
0.0
 11
371.491970996781
 21
148.2583678299712
 31
0.0
  0
ARC
  5
1BD1
330
22
100
AcDbEntity
  8
POW
  6
Continuous
100
AcDbCircle
 10
371.4958559967811
 20
148.2656128299712
 30
0.0
 40
0.00821625
100
AcDbArc
 50
13.44108800000022
 51
241.8246909999998
  0
LINE
  5
1BD2
330
22
100
AcDbEntity
  8
POW
  6
Continuous
100
AcDbLine
 10
371.5038491217811
 20
148.2675159549712
 30
0.0
 11
371.503140371781
 21
148.2092934549712
 31
0.0
  0
LINE
  5
1BD3
330
22
100
AcDbEntity
  8
POW
  6
Continuous
100
AcDbLine
 10
371.503140371781
 20
148.2092934549712
 30
0.0
 11
371.503140371781
 21
148.1043722049712
 31
0.0
  0
LINE
  5
1BD4
330
22
100
AcDbEntity
  8
POW
  6
Continuous
100
AcDbLine
 10
371.503140371781
 20
148.1043722049712
 30
0.0
 11
371.514532871781
 21
147.9995297049712
 31
0.0
  0
LINE
  5
1BD5
330
22
100
AcDbEntity
  8
POW
  6
Continuous
100
AcDbLine
 10
371.514532871781
 20
147.9995297049712
 30
0.0
 11
371.514532871781
 21
147.9417928299712
 31
0.0
  0
ARC
  5
1BD6
330
22
100
AcDbEntity
  8
POW
  6
Continuous
100
AcDbCircle
 10
371.4930603717811
 20
147.9372515799712
 30
0.0
 40
0.021945
100
AcDbArc
 50
234.5897069999981
 51
11.95193500000002
  0
LINE
  5
1BD7
330
22
100
AcDbEntity
  8
POW
  6
Continuous
100
AcDbLine
 10
368.4155497467811
 20
147.9193753299712
 30
0.0
 11
368.5880384967811
 21
147.9656803299712
 31
0.0
  0
ARC
  5
1BD8
330
22
100
AcDbEntity
  8
POW
  6
Continuous
100
AcDbCircle
 10
368.362787246781
 20
148.1132053299712
 30
0.0
 40
0.269259375
100
AcDbArc
 50
326.7781020000005
 51
4.418451999999497
  0
LINE
  5
1BD9
330
22
100
AcDbEntity
  8
POW
  6
Continuous
100
AcDbLine
 10
368.631245996781
 20
148.1339428299712
 30
0.0
 11
368.6662109967811
 21
148.3041347049712
 31
0.0
  0
LINE
  5
1BDA
330
22
100
AcDbEntity
  8
POW
  6
Continuous
100
AcDbLine
 10
368.6662109967811
 20
148.3041347049712
 30
0.0
 11
368.677603496781
 21
148.3845909549712
 31
0.0
  0
ARC
  5
1BDB
330
22
100
AcDbEntity
  8
POW
  6
Continuous
100
AcDbCircle
 10
368.703604121781
 20
148.4077565799712
 30
0.0
 40
0.03483375
100
AcDbArc
 50
94.35012399999996
 51
221.6922350000007
  0
LINE
  5
1BDC
330
22
100
AcDbEntity
  8
POW
  6
Continuous
100
AcDbLine
 10
368.7009659967811
 20
148.4424853299712
 30
0.0
 11
368.768730371781
 21
148.0327622049712
 31
0.0
  0
ARC
  5
1BDD
330
22
100
AcDbEntity
  8
POW
  6
Continuous
100
AcDbCircle
 10
368.851234121781
 20
148.1590509549712
 30
0.0
 40
0.150845625
100
AcDbArc
 50
236.8447380000019
 51
15.47545799999989
  0
ARC
  5
1BDE
330
22
100
AcDbEntity
  8
POW
  6
Continuous
100
AcDbCircle
 10
375.084506621781
 20
147.7016184549712
 30
0.0
 40
6.10819125
100
AcDbArc
 50
168.9970129999992
 51
175.3264219999994
  0
LINE
  5
1BDF
330
22
100
AcDbEntity
  8
POW
  6
Continuous
100
AcDbLine
 10
369.0885866217811
 20
148.8674203299712
 30
0.0
 11
369.1333297467811
 21
149.2718672049712
 31
0.0
  0
LINE
  5
1BE0
330
22
100
AcDbEntity
  8
POW
  6
Continuous
100
AcDbLine
 10
369.1333297467811
 20
149.2718672049712
 30
0.0
 11
369.1447222467811
 21
149.3819203299712
 31
0.0
  0
LINE
  5
1BE1
330
22
100
AcDbEntity
  8
POW
  6
Continuous
100
AcDbLine
 10
369.1447222467811
 20
149.3819203299712
 30
0.0
 11
369.129392246781
 21
149.4126853299712
 31
0.0
  0
LINE
  5
1BE2
330
22
100
AcDbEntity
  8
POW
  6
Continuous
100
AcDbLine
 10
369.129392246781
 20
149.4126853299712
 30
0.0
 11
369.0758816217811
 21
149.4128953299712
 31
0.0
  0
ARC
  5
1BE3
330
22
100
AcDbEntity
  8
POW
  6
Continuous
100
AcDbCircle
 10
369.036900371781
 20
149.3587284549712
 30
0.0
 40
0.066740625
100
AcDbArc
 50
54.26033500000157
 51
140.7638369999998
  0
LINE
  5
1BE4
330
22
100
AcDbEntity
  8
POW
  6
Continuous
100
AcDbLine
 10
368.985214121781
 20
149.4009384549712
 30
0.0
 11
368.9704484967811
 21
149.2861340799712
 31
0.0
  0
LINE
  5
1BE5
330
22
100
AcDbEntity
  8
POW
  6
Continuous
100
AcDbLine
 10
368.9704484967811
 20
149.2861340799712
 30
0.0
 11
368.9274247467811
 21
149.0676422049712
 31
0.0
  0
ARC
  5
1BE6
330
22
100
AcDbEntity
  8
POW
  6
Continuous
100
AcDbCircle
 10
368.8970403717811
 20
149.0524959549712
 30
0.0
 40
0.033954375
100
AcDbArc
 50
305.2851280000015
 51
26.50002300000023
  0
LINE
  5
1BE7
330
22
100
AcDbEntity
  8
POW
  6
Continuous
100
AcDbLine
 10
368.9166491217811
 20
149.0247890799712
 30
0.0
 11
368.905466621781
 21
149.0782997049712
 31
0.0
  0
LINE
  5
1BE8
330
22
100
AcDbEntity
  8
POW
  6
Continuous
100
AcDbLine
 10
368.905466621781
 20
149.0782997049712
 30
0.0
 11
368.8845059967811
 21
149.1834703299712
 31
0.0
  0
ARC
  5
1BE9
330
22
100
AcDbEntity
  8
POW
  6
Continuous
100
AcDbCircle
 10
368.4923966217811
 20
149.2063078299712
 30
0.0
 40
0.3927787499999999
100
AcDbArc
 50
356.6675219999998
 51
32.06922499999916
  0
ARC
  5
1BEA
330
22
100
AcDbEntity
  8
POW
  6
Continuous
100
AcDbCircle
 10
368.785714121781
 20
149.3231728299712
 30
0.0
 40
0.09982875
100
AcDbArc
 50
66.67925399999852
 51
137.822122
  0
LINE
  5
1BEB
330
22
100
AcDbEntity
  8
POW
  6
Continuous
100
AcDbLine
 10
368.7117416217811
 20
149.3902022049712
 30
0.0
 11
368.688995996781
 21
149.2796109549712
 31
0.0
  0
LINE
  5
1BEC
330
22
100
AcDbEntity
  8
POW
  6
Continuous
100
AcDbLine
 10
368.688995996781
 20
149.2796109549712
 30
0.0
 11
368.666381621781
 21
149.1702140799712
 31
0.0
  0
LINE
  5
1BED
330
22
100
AcDbEntity
  8
POW
  6
Continuous
100
AcDbLine
 10
368.666381621781
 20
149.1702140799712
 30
0.0
 11
368.6427566217811
 21
149.1217172049712
 31
0.0
  0
LINE
  5
1BEE
330
22
100
AcDbEntity
  8
POW
  6
Continuous
100
AcDbLine
 10
368.6427566217811
 20
149.1217172049712
 30
0.0
 11
368.6320334967811
 21
149.0522334549712
 31
0.0
  0
LINE
  5
1BEF
330
22
100
AcDbEntity
  8
POW
  6
Continuous
100
AcDbLine
 10
368.6320334967811
 20
149.0522334549712
 30
0.0
 11
368.5978428717811
 21
148.9386365799712
 31
0.0
  0
LINE
  5
1BF0
330
22
100
AcDbEntity
  8
POW
  6
Continuous
100
AcDbLine
 10
368.5978428717811
 20
148.9386365799712
 30
0.0
 11
368.5868703717811
 21
148.8769884549712
 31
0.0
  0
ARC
  5
1BF1
330
22
100
AcDbEntity
  8
POW
  6
Continuous
100
AcDbCircle
 10
368.590020371781
 20
148.9043015799712
 30
0.0
 40
0.027496875
100
AcDbArc
 50
163.4768490000002
 51
263.4089500000015
  0
LINE
  5
1BF2
330
22
100
AcDbEntity
  8
POW
  6
Continuous
100
AcDbLine
 10
368.5636653717811
 20
148.9121109549712
 30
0.0
 11
368.507542871781
 21
149.3316909549712
 31
0.0
  0
ARC
  5
1BF3
330
22
100
AcDbEntity
  8
POW
  6
Continuous
100
AcDbCircle
 10
368.4285959967811
 20
149.3591615799712
 30
0.0
 40
0.08358
100
AcDbArc
 50
340.8154949999996
 51
48.05849800000171
  0
LINE
  5
1BF4
330
22
100
AcDbEntity
  8
POW
  6
Continuous
100
AcDbLine
 10
368.484469121781
 20
149.4213347049712
 30
0.0
 11
368.349950996781
 21
149.4232772049712
 31
0.0
  0
LINE
  5
1BF5
330
22
100
AcDbEntity
  8
POW
  6
Continuous
100
AcDbLine
 10
368.349950996781
 20
149.4232772049712
 30
0.0
 11
368.247943496781
 21
149.4127247049712
 31
0.0
  0
LINE
  5
1BF6
330
22
100
AcDbEntity
  8
POW
  6
Continuous
100
AcDbLine
 10
368.247943496781
 20
149.4127247049712
 30
0.0
 11
368.2560547467811
 21
149.3225428299712
 31
0.0
  0
LINE
  5
1BF7
330
22
100
AcDbEntity
  8
POW
  6
Continuous
100
AcDbLine
 10
368.2560547467811
 20
149.3225428299712
 30
0.0
 11
368.2788397467811
 21
149.0711203299712
 31
0.0
  0
ARC
  5
1BF8
330
22
100
AcDbEntity
  8
POW
  6
Continuous
100
AcDbCircle
 10
368.368864121781
 20
149.0416809549712
 30
0.0
 40
0.094723125
100
AcDbArc
 50
161.8954790000002
 51
221.2239289999998
  0
LINE
  5
1BF9
330
22
100
AcDbEntity
  8
POW
  6
Continuous
100
AcDbLine
 10
368.297621621781
 20
148.9792584549712
 30
0.0
 11
368.3013491217811
 21
148.8618028299712
 31
0.0
  0
LINE
  5
1BFA
330
22
100
AcDbEntity
  8
POW
  6
Continuous
100
AcDbLine
 10
368.3013491217811
 20
148.8618028299712
 30
0.0
 11
368.3582459967811
 21
148.3486284549712
 31
0.0
  0
LINE
  5
1BFB
330
22
100
AcDbEntity
  8
POW
  6
Continuous
100
AcDbLine
 10
368.3582459967811
 20
148.3486284549712
 30
0.0
 11
368.4155497467811
 21
147.9193753299712
 31
0.0
  0
ARC
  5
1BFC
330
22
100
AcDbEntity
  8
POW
  6
Continuous
100
AcDbCircle
 10
369.092681621781
 20
148.4440078299712
 30
0.0
 40
2.15520375
100
AcDbArc
 50
174.9561650000002
 51
192.8431910000005
  0
LINE
  5
1BFD
330
22
100
AcDbEntity
  8
POW
  6
Continuous
100
AcDbLine
 10
366.945825371781
 20
148.6334934549712
 30
0.0
 11
366.934432871781
 21
148.9916878299712
 31
0.0
  0
LINE
  5
1BFE
330
22
100
AcDbEntity
  8
POW
  6
Continuous
100
AcDbLine
 10
366.934432871781
 20
148.9916878299712
 30
0.0
 11
366.945825371781
 21
149.1429272049712
 31
0.0
  0
LINE
  5
1BFF
330
22
100
AcDbEntity
  8
POW
  6
Continuous
100
AcDbLine
 10
366.945825371781
 20
149.1429272049712
 30
0.0
 11
366.935719121781
 21
149.2187240799712
 31
0.0
  0
LINE
  5
1C00
330
22
100
AcDbEntity
  8
POW
  6
Continuous
100
AcDbLine
 10
366.935719121781
 20
149.2187240799712
 30
0.0
 11
366.9449853717811
 21
149.2490559549712
 31
0.0
  0
LINE
  5
1C01
330
22
100
AcDbEntity
  8
POW
  6
Continuous
100
AcDbLine
 10
366.9449853717811
 20
149.2490559549712
 30
0.0
 11
366.9659459967811
 21
149.2639790799712
 31
0.0
  0
LINE
  5
1C02
330
22
100
AcDbEntity
  8
POW
  6
Continuous
100
AcDbLine
 10
366.9659459967811
 20
149.2639790799712
 30
0.0
 11
367.025953496781
 21
149.3015822049712
 31
0.0
  0
ARC
  5
1C03
330
22
100
AcDbEntity
  8
POW
  6
Continuous
100
AcDbCircle
 10
367.0581228717811
 20
149.2638872049712
 30
0.0
 40
0.049546875
100
AcDbArc
 50
16.70274300000011
 51
130.4744799999986
  0
LINE
  5
1C04
330
22
100
AcDbEntity
  8
POW
  6
Continuous
100
AcDbLine
 10
367.1055697467811
 20
149.2781278299712
 30
0.0
 11
367.116725996781
 21
149.0554228299712
 31
0.0
  0
LINE
  5
1C05
330
22
100
AcDbEntity
  8
POW
  6
Continuous
100
AcDbLine
 10
367.116725996781
 20
149.0554228299712
 30
0.0
 11
367.116725996781
 21
148.6078078299712
 31
0.0
  0
LINE
  5
1C06
330
22
100
AcDbEntity
  8
POW
  6
Continuous
100
AcDbLine
 10
367.116725996781
 20
148.6078078299712
 30
0.0
 11
367.128525371781
 21
148.1659022049712
 31
0.0
  0
ARC
  5
1C07
330
22
100
AcDbEntity
  8
POW
  6
Continuous
100
AcDbCircle
 10
366.962809121781
 20
148.1317115799712
 30
0.0
 40
0.1692075
100
AcDbArc
 50
279.7260879999998
 51
11.65742899999937
  0
LINE
  5
1C08
330
22
100
AcDbEntity
  8
POW
  6
Continuous
100
AcDbLine
 10
369.737171621781
 20
148.4206715799712
 30
0.0
 11
369.7111841217811
 21
148.5692334549712
 31
0.0
  0
LINE
  5
1C09
330
22
100
AcDbEntity
  8
POW
  6
Continuous
100
AcDbLine
 10
369.7111841217811
 20
148.5692334549712
 30
0.0
 11
369.6805897467811
 21
148.6254740799712
 31
0.0
  0
LINE
  5
1C0A
330
22
100
AcDbEntity
  8
POW
  6
Continuous
100
AcDbLine
 10
369.6805897467811
 20
148.6254740799712
 30
0.0
 11
369.679369121781
 21
148.7134772049712
 31
0.0
  0
LINE
  5
1C0B
330
22
100
AcDbEntity
  8
POW
  6
Continuous
100
AcDbLine
 10
369.679369121781
 20
148.7134772049712
 30
0.0
 11
369.736685996781
 21
148.7735372049712
 31
0.0
  0
LINE
  5
1C0C
330
22
100
AcDbEntity
  8
POW
  6
Continuous
100
AcDbLine
 10
369.736685996781
 20
148.7735372049712
 30
0.0
 11
369.773829746781
 21
148.8427453299712
 31
0.0
  0
ARC
  5
1C0D
330
22
100
AcDbEntity
  8
POW
  6
Continuous
100
AcDbCircle
 10
369.6758253717811
 20
148.7498072049712
 30
0.0
 40
0.13505625
100
AcDbArc
 50
43.47951199999871
 51
110.3992349999992
  0
LINE
  5
1C0E
330
22
100
AcDbEntity
  8
POW
  6
Continuous
100
AcDbLine
 10
369.628745996781
 20
148.8763978299712
 30
0.0
 11
369.6011834967811
 21
148.8873834549712
 31
0.0
  0
LINE
  5
1C0F
330
22
100
AcDbEntity
  8
POW
  6
Continuous
100
AcDbLine
 10
369.6011834967811
 20
148.8873834549712
 30
0.0
 11
369.589003496781
 21
148.9206159549712
 31
0.0
  0
LINE
  5
1C10
330
22
100
AcDbEntity
  8
POW
  6
Continuous
100
AcDbLine
 10
369.589003496781
 20
148.9206159549712
 30
0.0
 11
369.5669272467811
 21
149.0005472049712
 31
0.0
  0
LINE
  5
1C11
330
22
100
AcDbEntity
  8
POW
  6
Continuous
100
AcDbLine
 10
369.5669272467811
 20
149.0005472049712
 30
0.0
 11
369.5100172467811
 21
149.1447778299712
 31
0.0
  0
LINE
  5
1C12
330
22
100
AcDbEntity
  8
POW
  6
Continuous
100
AcDbLine
 10
369.5100172467811
 20
149.1447778299712
 30
0.0
 11
369.4846334967811
 21
149.2073578299712
 31
0.0
  0
ARC
  5
1C13
330
22
100
AcDbEntity
  8
POW
  6
Continuous
100
AcDbCircle
 10
369.460877246781
 20
149.2061240799712
 30
0.0
 40
0.0237825
100
AcDbArc
 50
2.976115000000379
 51
213.912634
  0
LINE
  5
1C14
330
22
100
AcDbEntity
  8
POW
  6
Continuous
100
AcDbLine
 10
369.4411503717811
 20
149.1928547049712
 30
0.0
 11
369.383990996781
 21
149.0554097049712
 31
0.0
  0
ARC
  5
1C15
330
22
100
AcDbEntity
  8
POW
  6
Continuous
100
AcDbCircle
 10
368.9241303717811
 20
149.1295528299712
 30
0.0
 40
0.4657931249999999
100
AcDbArc
 50
327.0008119999988
 51
350.8409720000003
  0
LINE
  5
1C16
330
22
100
AcDbEntity
  8
POW
  6
Continuous
100
AcDbLine
 10
369.314782871781
 20
148.8758728299712
 30
0.0
 11
369.2028134967811
 21
148.8763978299712
 31
0.0
  0
LINE
  5
1C17
330
22
100
AcDbEntity
  8
POW
  6
Continuous
100
AcDbLine
 10
369.2028134967811
 20
148.8763978299712
 30
0.0
 11
369.172205996781
 21
148.8763978299712
 31
0.0
  0
ARC
  5
1C18
330
22
100
AcDbEntity
  8
POW
  6
Continuous
100
AcDbCircle
 10
369.164107871781
 20
148.8730247049712
 30
0.0
 40
0.008780625
100
AcDbArc
 50
22.6320269999992
 51
248.7820580000001
  0
LINE
  5
1C19
330
22
100
AcDbEntity
  8
POW
  6
Continuous
100
AcDbLine
 10
369.160918496781
 20
148.8648347049712
 30
0.0
 11
369.179713496781
 21
148.8496359549712
 31
0.0
  0
ARC
  5
1C1A
330
22
100
AcDbEntity
  8
POW
  6
Continuous
100
AcDbCircle
 10
369.1862234967811
 20
148.8405272049712
 30
0.0
 40
0.011195625
100
AcDbArc
 50
125.558559000001
 51
293.3428820000002
  0
LINE
  5
1C1B
330
22
100
AcDbEntity
  8
POW
  6
Continuous
100
AcDbLine
 10
369.190659746781
 20
148.8302503299712
 30
0.0
 11
369.2214641217811
 21
148.7971228299712
 31
0.0
  0
LINE
  5
1C1C
330
22
100
AcDbEntity
  8
POW
  6
Continuous
100
AcDbLine
 10
369.2214641217811
 20
148.7971228299712
 30
0.0
 11
369.2351797467811
 21
148.7524453299712
 31
0.0
  0
ARC
  5
1C1D
330
22
100
AcDbEntity
  8
POW
  6
Continuous
100
AcDbCircle
 10
369.214665371781
 20
148.6988297049712
 30
0.0
 40
0.05740875
100
AcDbArc
 50
343.4292449999999
 51
69.061561
  0
LINE
  5
1C1E
330
22
100
AcDbEntity
  8
POW
  6
Continuous
100
AcDbLine
 10
369.2696853717811
 20
148.6824497049712
 30
0.0
 11
369.2049528717811
 21
148.5008653299712
 31
0.0
  0
LINE
  5
1C1F
330
22
100
AcDbEntity
  8
POW
  6
Continuous
100
AcDbLine
 10
369.2049528717811
 20
148.5008653299712
 30
0.0
 11
369.201697871781
 21
148.4477878299712
 31
0.0
  0
ARC
  5
1C20
330
22
100
AcDbEntity
  8
POW
  6
Continuous
100
AcDbCircle
 10
369.2121716217811
 20
148.4407003299712
 30
0.0
 40
0.0126525
100
AcDbArc
 50
145.9361430000007
 51
311.6836350000006
  0
LINE
  5
1C21
330
22
100
AcDbEntity
  8
POW
  6
Continuous
100
AcDbLine
 10
369.2205847467811
 20
148.4312503299712
 30
0.0
 11
369.237988496781
 21
148.4433122049712
 31
0.0
  0
LINE
  5
1C22
330
22
100
AcDbEntity
  8
POW
  6
Continuous
100
AcDbLine
 10
369.237988496781
 20
148.4433122049712
 30
0.0
 11
369.294924746781
 21
148.4898403299712
 31
0.0
  0
LINE
  5
1C23
330
22
100
AcDbEntity
  8
POW
  6
Continuous
100
AcDbLine
 10
369.294924746781
 20
148.4898403299712
 30
0.0
 11
369.4524641217811
 21
148.5803109549712
 31
0.0
  0
ARC
  5
1C24
330
22
100
AcDbEntity
  8
POW
  6
Continuous
100
AcDbCircle
 10
369.4854603717811
 20
148.5469865799712
 30
0.0
 40
0.046895625
100
AcDbArc
 50
26.99062100000001
 51
134.7291260000008
  0
LINE
  5
1C25
330
22
100
AcDbEntity
  8
POW
  6
Continuous
100
AcDbLine
 10
369.527263496781
 20
148.5682753299712
 30
0.0
 11
369.6006059967811
 21
148.5230334549712
 31
0.0
  0
LINE
  5
1C26
330
22
100
AcDbEntity
  8
POW
  6
Continuous
100
AcDbLine
 10
369.6006059967811
 20
148.5230334549712
 30
0.0
 11
369.737171621781
 21
148.4206715799712
 31
0.0
  0
ENDSEC
  0
SECTION
  2
OBJECTS
  0
DICTIONARY
  5
C
330
0
100
AcDbDictionary
281
     1
  3
ACAD_COLOR
350
1B
  3
ACAD_GROUP
350
D
  3
ACAD_LAYOUT
350
19
  3
ACAD_MATERIAL
350
1A
  3
ACAD_MLINESTYLE
350
16
  3
ACAD_PLOTSETTINGS
350
18
  3
ACAD_PLOTSTYLENAME
350
E
  3
ACAD_TABLESTYLE
350
1C
  3
AcDbVariableDictionary
350
3A7
  0
DICTIONARY
  5
1420
330
2
100
AcDbDictionary
280
     1
281
     1
  3
ACAD_LAYERFILTERS
360
1C2C
  3
ACLYDICTIONARY
360
1C2B
  0
DICTIONARY
  5
4CB
330
22
100
AcDbDictionary
280
     1
281
     1
  3
ACAD_SORTENTS
360
4CC
  0
DICTIONARY
  5
1B
102
{ACAD_REACTORS
330
C
102
}
330
C
100
AcDbDictionary
281
     1
  0
DICTIONARY
  5
D
102
{ACAD_REACTORS
330
C
102
}
330
C
100
AcDbDictionary
281
     1
  0
DICTIONARY
  5
19
102
{ACAD_REACTORS
330
C
102
}
330
C
100
AcDbDictionary
281
     1
  3
Layout1
350
21
  3
Model
350
25
  0
DICTIONARY
  5
1A
102
{ACAD_REACTORS
330
C
102
}
330
C
100
AcDbDictionary
281
     1
  0
DICTIONARY
  5
16
102
{ACAD_REACTORS
330
C
102
}
330
C
100
AcDbDictionary
281
     1
  3
Standard
350
17
  0
DICTIONARY
  5
18
102
{ACAD_REACTORS
330
C
102
}
330
C
100
AcDbDictionary
281
     1
  0
ACDBDICTIONARYWDFLT
  5
E
102
{ACAD_REACTORS
330
C
102
}
330
C
100
AcDbDictionary
281
     1
  3
Normal
350
F
100
AcDbDictionaryWithDefault
340
F
  0
DICTIONARY
  5
1C
102
{ACAD_REACTORS
330
C
102
}
330
C
100
AcDbDictionary
281
     1
  3
Standard
350
1D
  0
DICTIONARY
  5
3A7
102
{ACAD_REACTORS
330
C
102
}
330
C
100
AcDbDictionary
281
     1
  3
CTABLESTYLE
350
3A8
  0
DICTIONARY
  5
1C2C
102
{ACAD_REACTORS
330
1420
102
}
330
1420
100
AcDbDictionary
281
     1
  0
DICTIONARY
  5
1C2B
102
{ACAD_REACTORS
330
1420
102
}
330
1420
100
AcDbDictionary
281
     1
1001
ACAD
1000
<All
  0
SORTENTSTABLE
  5
4CC
102
{ACAD_REACTORS
330
4CB
102
}
330
4CB
100
AcDbSortentsTable
330
22
331
400
  5
3FF
331
5C9
  5
5C9
331
543
  5
543
331
48E
  5
48D
331
4CD
  5
4CD
331
504
  5
504
331
408
  5
407
331
457
  5
456
331
58A
  5
58A
331
602
  5
602
331
592
  5
592
331
50C
  5
50C
331
54B
  5
54B
331
5D1
  5
5D1
331
45F
  5
45E
331
496
  5
495
331
410
  5
40F
331
4D5
  5
4D5
331
5D9
  5
5D9
331
3C9
  5
3C8
331
59A
  5
59A
331
4DD
  5
4DD
331
514
  5
514
331
418
  5
417
331
467
  5
466
331
49E
  5
49D
331
553
  5
553
331
3D1
  5
3D0
331
51C
  5
51C
331
4A6
  5
4A5
331
5A2
  5
5A2
331
3D9
  5
3D8
331
3E1
  5
3E0
331
420
  5
41F
331
5AA
  5
5AA
331
4AE
  5
4AD
331
4E5
  5
4E5
331
3E9
  5
3E8
331
428
  5
427
331
46F
  5
46E
331
524
  5
524
331
5E3
  5
5E3
331
5B2
  5
5B2
331
52C
  5
52C
331
4B6
  5
4B5
331
4ED
  5
4ED
331
573
  5
573
331
3F1
  5
3F0
331
477
  5
476
331
5EB
  5
5EB
331
57B
  5
57B
331
534
  5
534
331
5BA
  5
5BA
331
3AA
  5
3A9
331
448
  5
447
331
47F
  5
47E
331
3F9
  5
3F8
331
4BE
  5
4BD
331
4F5
  5
4F5
331
5F3
  5
5F3
331
583
  5
583
331
4FD
  5
4FD
331
53C
  5
53C
331
5C2
  5
5C2
331
3B2
  5
3B1
331
487
  5
486
331
4C6
  5
4C5
331
5FB
  5
5FB
331
3BA
  5
3B9
331
3C2
  5
3C1
331
450
  5
44F
331
401
  5
400
331
5CA
  5
5CA
331
58B
  5
58B
331
4CE
  5
4CE
331
505
  5
505
331
409
  5
408
331
458
  5
457
331
48F
  5
48E
331
544
  5
544
331
603
  5
603
331
5D2
  5
5D2
331
54C
  5
54C
331
4D6
  5
4D6
331
50D
  5
50D
331
593
  5
593
331
411
  5
410
331
460
  5
45F
331
497
  5
496
331
5DA
  5
5DA
331
3CA
  5
3C9
331
554
  5
554
331
49F
  5
49E
331
419
  5
418
331
4DE
  5
4DE
331
515
  5
515
331
59B
  5
59B
331
3D2
  5
3D1
331
51D
  5
51D
331
4A7
  5
4A6
331
5A3
  5
5A3
331
3DA
  5
3D9
331
3E2
  5
3E1
331
421
  5
420
331
468
  5
467
331
525
  5
525
331
5AB
  5
5AB
331
429
  5
428
331
470
  5
46F
331
4AF
  5
4AE
331
3EA
  5
3E9
331
4E6
  5
4E6
331
5E4
  5
5E4
331
574
  5
574
331
4B7
  5
4B6
331
4EE
  5
4EE
331
3F2
  5
3F1
331
478
  5
477
331
52D
  5
52D
331
5B3
  5
5B3
331
5EC
  5
5EC
331
5BB
  5
5BB
331
3AB
  5
3AA
331
57C
  5
57C
331
4BF
  5
4BE
331
4F6
  5
4F6
331
3FA
  5
3F9
331
449
  5
448
331
480
  5
47F
331
535
  5
535
331
5F4
  5
5F4
331
5C3
  5
5C3
331
3B3
  5
3B2
331
53D
  5
53D
331
4C7
  5
4C6
331
4FE
  5
4FE
331
584
  5
584
331
5FC
  5
5FC
331
3BB
  5
3BA
331
3C3
  5
3C2
331
402
  5
401
331
451
  5
450
331
488
  5
487
331
58C
  5
58C
331
545
  5
545
331
5CB
  5
5CB
331
459
  5
458
331
490
  5
48F
331
4CF
  5
4CF
331
40A
  5
409
331
506
  5
506
331
604
  5
604
331
594
  5
594
331
50E
  5
50E
331
54D
  5
54D
331
5D3
  5
5D3
331
461
  5
460
331
498
  5
497
331
412
  5
411
331
4D7
  5
4D7
331
5DB
  5
5DB
331
3CB
  5
3CA
331
59C
  5
59C
331
4DF
  5
4DF
331
516
  5
516
331
41A
  5
419
331
4A0
  5
49F
331
555
  5
555
331
3D3
  5
3D2
331
51E
  5
51E
331
5A4
  5
5A4
331
3DB
  5
3DA
331
3E3
  5
3E2
331
422
  5
421
331
469
  5
468
331
4A8
  5
4A7
331
5AC
  5
5AC
331
4B0
  5
4AF
331
4E7
  5
4E7
331
3EB
  5
3EA
331
42A
  5
429
331
471
  5
470
331
526
  5
526
331
5E5
  5
5E5
331
5B4
  5
5B4
331
52E
  5
52E
331
4B8
  5
4B7
331
4EF
  5
4EF
331
575
  5
575
331
3F3
  5
3F2
331
479
  5
478
331
5ED
  5
5ED
331
57D
  5
57D
331
536
  5
536
331
5BC
  5
5BC
331
3AC
  5
3AB
331
44A
  5
449
331
481
  5
480
331
3FB
  5
3FA
331
4C0
  5
4BF
331
4F7
  5
4F7
331
5F5
  5
5F5
331
585
  5
585
331
4FF
  5
4FF
331
53E
  5
53E
331
5C4
  5
5C4
331
3B4
  5
3B3
331
5FD
  5
5FD
331
3BC
  5
3BB
331
3C4
  5
3C3
331
4C8
  5
4C7
331
403
  5
402
331
452
  5
451
331
489
  5
488
331
5CC
  5
5CC
331
58D
  5
58D
331
4D0
  5
4D0
331
507
  5
507
331
40B
  5
40A
331
45A
  5
459
331
491
  5
490
331
546
  5
546
331
605
  5
605
331
5D4
  5
5D4
331
54E
  5
54E
331
4D8
  5
4D8
331
50F
  5
50F
331
595
  5
595
331
413
  5
412
331
462
  5
461
331
499
  5
498
331
59D
  5
59D
331
556
  5
556
331
5DC
  5
5DC
331
4A1
  5
4A0
331
41B
  5
41A
331
517
  5
517
331
3CC
  5
3CB
331
3D4
  5
3D3
331
51F
  5
51F
331
5A5
  5
5A5
331
3DC
  5
3DB
331
46A
  5
469
331
4A9
  5
4A8
331
4E0
  5
4E0
331
3E4
  5
3E3
331
423
  5
422
331
527
  5
527
331
5AD
  5
5AD
331
42B
  5
42A
331
472
  5
471
331
3EC
  5
3EB
331
4B1
  5
4B0
331
4E8
  5
4E8
331
5E6
  5
5E6
331
576
  5
576
331
4B9
  5
4B8
331
4F0
  5
4F0
331
3F4
  5
3F3
331
47A
  5
479
331
52F
  5
52F
331
5B5
  5
5B5
331
5EE
  5
5EE
331
5BD
  5
5BD
331
3AD
  5
3AC
331
537
  5
537
331
4C1
  5
4C0
331
4F8
  5
4F8
331
57E
  5
57E
331
3FC
  5
3FB
331
44B
  5
44A
331
482
  5
481
331
5F6
  5
5F6
331
5C5
  5
5C5
331
3B5
  5
3B4
331
53F
  5
53F
331
586
  5
586
331
5FE
  5
5FE
331
3BD
  5
3BC
331
3C5
  5
3C4
331
4C9
  5
4C8
331
500
  5
500
331
404
  5
403
331
453
  5
452
331
48A
  5
489
331
58E
  5
58E
331
547
  5
547
331
5CD
  5
5CD
331
45B
  5
45A
331
492
  5
491
331
40C
  5
40B
331
4D1
  5
4D1
331
508
  5
508
331
606
  5
606
331
596
  5
596
331
4D9
  5
4D9
331
510
  5
510
331
414
  5
413
331
463
  5
462
331
49A
  5
499
331
54F
  5
54F
331
5D5
  5
5D5
331
5DD
  5
5DD
331
3CD
  5
3CC
331
59E
  5
59E
331
518
  5
518
331
41C
  5
41B
331
4A2
  5
4A1
331
557
  5
557
331
5A6
  5
5A6
331
3D5
  5
3D4
331
3DD
  5
3DC
331
4E1
  5
4E1
331
520
  5
520
331
3E5
  5
3E4
331
424
  5
423
331
46B
  5
46A
331
4AA
  5
4A9
331
528
  5
528
331
5AE
  5
5AE
331
4B2
  5
4B1
331
4E9
  5
4E9
331
3ED
  5
3EC
331
473
  5
472
331
5E7
  5
5E7
331
5B6
  5
5B6
331
530
  5
530
331
47B
  5
47A
331
3F5
  5
3F4
331
4BA
  5
4B9
331
4F1
  5
4F1
331
577
  5
577
331
5EF
  5
5EF
331
57F
  5
57F
331
538
  5
538
331
5BE
  5
5BE
331
3AE
  5
3AD
331
44C
  5
44B
331
483
  5
482
331
3FD
  5
3FC
331
4C2
  5
4C1
331
4F9
  5
4F9
331
3B6
  5
3B5
331
5F7
  5
5F7
331
587
  5
587
331
5C6
  5
5C6
331
5FF
  5
5FF
331
3BE
  5
3BD
331
3C6
  5
3C5
331
4CA
  5
4C9
331
501
  5
501
331
405
  5
404
331
454
  5
453
331
48B
  5
48A
331
540
  5
540
331
5CE
  5
5CE
331
548
  5
548
331
4D2
  5
4D2
331
509
  5
509
331
58F
  5
58F
331
40D
  5
40C
331
45C
  5
45B
331
493
  5
492
331
607
  5
607
331
5D6
  5
5D6
331
550
  5
550
331
4DA
  5
4DA
331
511
  5
511
331
597
  5
597
331
415
  5
414
331
464
  5
463
331
49B
  5
49A
331
59F
  5
59F
331
5DE
  5
5DE
331
4A3
  5
4A2
331
41D
  5
41C
331
519
  5
519
331
3CE
  5
3CD
331
3D6
  5
3D5
331
5A7
  5
5A7
331
3DE
  5
3DD
331
521
  5
521
331
425
  5
424
331
46C
  5
46B
331
4AB
  5
4AA
331
3E6
  5
3E5
331
4E2
  5
4E2
331
5E0
  5
5E0
331
4EA
  5
4EA
331
529
  5
529
331
5AF
  5
5AF
331
474
  5
473
331
3EE
  5
3ED
331
4B3
  5
4B2
331
5B7
  5
5B7
331
578
  5
578
331
4BB
  5
4BA
331
4F2
  5
4F2
331
3F6
  5
3F5
331
445
  5
444
331
47C
  5
47B
331
531
  5
531
331
5E8
  5
5E8
331
5F0
  5
5F0
331
5BF
  5
5BF
331
3AF
  5
3AE
331
539
  5
539
331
4C3
  5
4C2
331
4FA
  5
4FA
331
580
  5
580
331
3FE
  5
3FD
331
44D
  5
44C
331
484
  5
483
331
5F8
  5
5F8
331
5C7
  5
5C7
331
3B7
  5
3B6
331
3BF
  5
3BE
331
3C7
  5
3C6
331
541
  5
541
331
48C
  5
48B
331
502
  5
502
331
406
  5
405
331
455
  5
454
331
588
  5
588
331
600
  5
600
331
590
  5
590
331
549
  5
549
331
5CF
  5
5CF
331
45D
  5
45C
331
494
  5
493
331
40E
  5
40D
331
4D3
  5
4D3
331
50A
  5
50A
331
598
  5
598
331
4DB
  5
4DB
331
512
  5
512
331
416
  5
415
331
465
  5
464
331
49C
  5
49B
331
551
  5
551
331
5D7
  5
5D7
331
5DF
  5
5DF
331
3CF
  5
3CE
331
51A
  5
51A
331
41E
  5
41D
331
4A4
  5
4A3
331
5A0
  5
5A0
331
3D7
  5
3D6
331
3DF
  5
3DE
331
5A8
  5
5A8
331
4E3
  5
4E3
331
522
  5
522
331
3E7
  5
3E6
331
426
  5
425
331
46D
  5
46C
331
4AC
  5
4AB
331
5E1
  5
5E1
331
5B0
  5
5B0
331
52A
  5
52A
331
4B4
  5
4B3
331
4EB
  5
4EB
331
571
  5
571
331
3EF
  5
3EE
331
475
  5
474
331
5E9
  5
5E9
331
5B8
  5
5B8
331
532
  5
532
331
47D
  5
47C
331
4BC
  5
4BB
331
4F3
  5
4F3
331
579
  5
579
331
3F7
  5
3F6
331
446
  5
445
331
5F1
  5
5F1
331
581
  5
581
331
4FB
  5
4FB
331
53A
  5
53A
331
5C0
  5
5C0
331
3B0
  5
3AF
331
44E
  5
44D
331
485
  5
484
331
3FF
  5
3FE
331
4C4
  5
4C3
331
3B8
  5
3B7
331
5F9
  5
5F9
331
3C0
  5
3BF
331
5C8
  5
5C8
331
589
  5
589
331
503
  5
503
331
407
  5
406
331
456
  5
455
331
48D
  5
48C
331
542
  5
542
331
601
  5
601
331
5D0
  5
5D0
331
54A
  5
54A
331
4D4
  5
4D4
331
50B
  5
50B
331
591
  5
591
331
40F
  5
40E
331
45E
  5
45D
331
495
  5
494
331
5D8
  5
5D8
331
3C8
  5
3C7
331
552
  5
552
331
49D
  5
49C
331
4DC
  5
4DC
331
513
  5
513
331
599
  5
599
331
417
  5
416
331
466
  5
465
331
3D0
  5
3CF
331
5A1
  5
5A1
331
4A5
  5
4A4
331
41F
  5
41E
331
51B
  5
51B
331
3D8
  5
3D7
331
3E0
  5
3DF
331
523
  5
523
331
5A9
  5
5A9
331
427
  5
426
331
46E
  5
46D
331
4AD
  5
4AC
331
3E8
  5
3E7
331
4E4
  5
4E4
331
5E2
  5
5E2
331
572
  5
572
331
4EC
  5
4EC
331
52B
  5
52B
331
5B1
  5
5B1
331
476
  5
475
331
3F0
  5
3EF
331
4B5
  5
4B4
331
5EA
  5
5EA
331
5B9
  5
5B9
331
3A9
  5
257
331
57A
  5
57A
331
4BD
  5
4BC
331
4F4
  5
4F4
331
3F8
  5
3F7
331
447
  5
446
331
47E
  5
47D
331
533
  5
533
331
5F2
  5
5F2
331
5C1
  5
5C1
331
3B1
  5
3B0
331
53B
  5
53B
331
4C5
  5
4C4
331
4FC
  5
4FC
331
582
  5
582
331
44F
  5
44E
331
486
  5
485
331
5FA
  5
5FA
331
3B9
  5
3B8
331
3C1
  5
3C0
  0
LAYOUT
  5
21
102
{ACAD_REACTORS
330
19
102
}
330
19
100
AcDbPlotSettings
  1

  2
Panasonic DP-3530
  4

  6

 40
0.0
 41
0.0
 42
0.0
 43
0.0
 44
0.0
 45
0.0
 46
0.0
 47
0.0
 48
0.0
 49
0.0
140
0.0
141
0.0
142
1.0
143
1.0
 70
   688
 72
     0
 73
     0
 74
     5
  7

 75
    16
147
1.0
 76
     0
 77
     2
 78
   300
148
0.0
149
0.0
100
AcDbLayout
  1
Layout1
 70
     1
 71
     1
 10
0.0
 20
0.0
 11
12.0
 21
9.0
 12
0.0
 22
0.0
 32
0.0
 14
1.000000000000000E+20
 24
1.000000000000000E+20
 34
1.000000000000000E+20
 15
-1.000000000000000E+20
 25
-1.000000000000000E+20
 35
-1.000000000000000E+20
146
0.0
 13
0.0
 23
0.0
 33
0.0
 16
1.0
 26
0.0
 36
0.0
 17
0.0
 27
1.0
 37
0.0
 76
     0
330
1E
  0
LAYOUT
  5
25
102
{ACAD_REACTORS
330
19
102
}
330
19
100
AcDbPlotSettings
  1

  2
Panasonic DP-3530
  4

  6

 40
0.0
 41
0.0
 42
0.0
 43
0.0
 44
0.0
 45
0.0
 46
0.0
 47
0.0
 48
0.0
 49
0.0
140
0.0
141
0.0
142
1.0
143
1.0
 70
  1712
 72
     0
 73
     0
 74
     0
  7

 75
     0
147
1.0
 76
     0
 77
     2
 78
   300
148
0.0
149
0.0
100
AcDbLayout
  1
Model
 70
     1
 71
     0
 10
0.0
 20
0.0
 11
12.0
 21
9.0
 12
0.0
 22
0.0
 32
0.0
 14
0.0
 24
0.0
 34
0.0
 15
0.0
 25
0.0
 35
0.0
146
0.0
 13
0.0
 23
0.0
 33
0.0
 16
1.0
 26
0.0
 36
0.0
 17
0.0
 27
1.0
 37
0.0
 76
     0
330
22
  0
MLINESTYLE
  5
17
102
{ACAD_REACTORS
330
16
102
}
330
16
100
AcDbMlineStyle
  2
STANDARD
 70
     0
  3

 62
   256
 51
90.0
 52
90.0
 71
     2
 49
0.5
 62
   256
  6
BYLAYER
 49
-0.5
 62
   256
  6
BYLAYER
  0
ACDBPLACEHOLDER
  5
F
102
{ACAD_REACTORS
330
E
102
}
330
E
  0
TABLESTYLE
  5
1D
102
{ACAD_REACTORS
330
1C
102
}
330
1C
100
AcDbTableStyle
  3
Standard
 70
     0
 71
     0
 40
0.06
 41
0.06
280
     0
281
     0
  7
Standard
140
0.18
170
     2
 62
     0
 63
     7
283
     0
274
    -2
284
     1
 64
     0
275
    -2
285
     1
 65
     0
276
    -2
286
     1
 66
     0
277
    -2
287
     1
 67
     0
278
    -2
288
     1
 68
     0
279
    -2
289
     1
 69
     0
  7
Standard
140
0.25
170
     5
 62
     0
 63
     7
283
     0
274
    -2
284
     1
 64
     0
275
    -2
285
     1
 65
     0
276
    -2
286
     1
 66
     0
277
    -2
287
     1
 67
     0
278
    -2
288
     1
 68
     0
279
    -2
289
     1
 69
     0
  7
Standard
140
0.18
170
     5
 62
     0
 63
     7
283
     0
274
    -2
284
     1
 64
     0
275
    -2
285
     1
 65
     0
276
    -2
286
     1
 66
     0
277
    -2
287
     1
 67
     0
278
    -2
288
     1
 68
     0
279
    -2
289
     1
 69
     0
  0
DICTIONARYVAR
  5
3A8
102
{ACAD_REACTORS
330
3A7
102
}
330
3A7
100
DictionaryVariables
280
     0
  1
STANDARD
  0
ENDSEC
  0
EOF
