  0
SECTION
  2
HEADER
  9
$ACADVER
  1
AC1009
  9
$DWGCODEPAGE
  3
ansi_1252
  9
$INSBASE
 10
0.0
 20
0.0
 30
0.0
  9
$EXTMIN
 10
0.0718495474480149
 20
0.1243485172133863
 30
0.0
  9
$EXTMAX
 10
34.11478269013244
 20
20.45893093438952
 30
0.0
  9
$LIMMIN
 10
0.0
 20
0.0
  9
$LIMMAX
 10
12.0
 20
9.0
  9
$ORTHOMODE
 70
     0
  9
$REGENMODE
 70
     1
  9
$FILLMODE
 70
     1
  9
$QTEXTMODE
 70
     0
  9
$MIRRTEXT
 70
     1
  9
$DRAGMODE
 70
     2
  9
$LTSCALE
 40
1.0
  9
$OSMODE
 70
    37
  9
$ATTMODE
 70
     1
  9
$TEXTSIZE
 40
0.2
  9
$TRACEWID
 40
0.05
  9
$TEXTSTYLE
  7
STANDARD
  9
$CLAYER
  8
0
  9
$CELTYPE
  6
BYBLOCK
  9
$CECOLOR
 62
   256
  9
$DIMSCALE
 40
1.0
  9
$DIMASZ
 40
0.18
  9
$DIMEXO
 40
0.0625
  9
$DIMDLI
 40
0.38
  9
$DIMRND
 40
0.0
  9
$DIMDLE
 40
0.0
  9
$DIMEXE
 40
0.18
  9
$DIMTP
 40
0.0
  9
$DIMTM
 40
0.0
  9
$DIMTXT
 40
0.18
  9
$DIMCEN
 40
0.09
  9
$DIMTSZ
 40
0.0
  9
$DIMTOL
 70
     0
  9
$DIMLIM
 70
     0
  9
$DIMTIH
 70
     1
  9
$DIMTOH
 70
     1
  9
$DIMSE1
 70
     0
  9
$DIMSE2
 70
     0
  9
$DIMTAD
 70
     0
  9
$DIMZIN
 70
     0
  9
$DIMBLK
  1

  9
$DIMASO
 70
     1
  9
$DIMSHO
 70
     1
  9
$DIMPOST
  1

  9
$DIMAPOST
  1

  9
$DIMALT
 70
     0
  9
$DIMALTD
 70
     2
  9
$DIMALTF
 40
25.4
  9
$DIMLFAC
 40
1.0
  9
$DIMTOFL
 70
     0
  9
$DIMTVP
 40
0.0
  9
$DIMTIX
 70
     0
  9
$DIMSOXD
 70
     0
  9
$DIMSAH
 70
     0
  9
$DIMBLK1
  1

  9
$DIMBLK2
  1

  9
$DIMSTYLE
  2
STANDARD
  9
$DIMCLRD
 70
     0
  9
$DIMCLRE
 70
     0
  9
$DIMCLRT
 70
     0
  9
$DIMTFAC
 40
1.0
  9
$DIMGAP
 40
0.09
  9
$LUNITS
 70
     2
  9
$LUPREC
 70
     4
  9
$SKETCHINC
 40
0.1
  9
$FILLETRAD
 40
0.5
  9
$AUNITS
 70
     0
  9
$AUPREC
 70
     0
  9
$MENU
  1
.
  9
$ELEVATION
 40
0.0
  9
$PELEVATION
 40
0.0
  9
$THICKNESS
 40
0.0
  9
$LIMCHECK
 70
     0
  9
$CHAMFERA
 40
0.5
  9
$CHAMFERB
 40
0.5
  9
$SKPOLY
 70
     0
  9
$TDCREATE
 40
2453353.508792488
  9
$TDUPDATE
 40
9819271.856725926
  9
$TDINDWG
 40
9791572.06217926
  9
$TDUSRTIMER
 40
9791572.06217926
  9
$USRTIMER
 70
     1
  9
$ANGBASE
 50
0.0
  9
$ANGDIR
 70
     0
  9
$PDMODE
 70
     0
  9
$PDSIZE
 40
0.0
  9
$PLINEWID
 40
0.0
  9
$COORDS
 70
     1
  9
$SPLFRAME
 70
     0
  9
$SPLINETYPE
 70
     6
  9
$SPLINESEGS
 70
     8
  9
$ATTDIA
 70
     0
  9
$ATTREQ
 70
     1
  9
$HANDLING
 70
     1
  9
$HANDSEED
  5
522
  9
$SURFTAB1
 70
     6
  9
$SURFTAB2
 70
     6
  9
$SURFTYPE
 70
     6
  9
$SURFU
 70
     6
  9
$SURFV
 70
     6
  9
$UCSNAME
  2

  9
$UCSORG
 10
0.0
 20
0.0
 30
0.0
  9
$UCSXDIR
 10
1.0
 20
0.0
 30
0.0
  9
$UCSYDIR
 10
0.0
 20
1.0
 30
0.0
  9
$PUCSNAME
  2

  9
$PUCSORG
 10
0.0
 20
0.0
 30
0.0
  9
$PUCSXDIR
 10
1.0
 20
0.0
 30
0.0
  9
$PUCSYDIR
 10
0.0
 20
1.0
 30
0.0
  9
$USERI1
 70
     0
  9
$USERI2
 70
     0
  9
$USERI3
 70
     0
  9
$USERI4
 70
     0
  9
$USERI5
 70
     0
  9
$USERR1
 40
0.0
  9
$USERR2
 40
0.0
  9
$USERR3
 40
0.0
  9
$USERR4
 40
0.0
  9
$USERR5
 40
0.0
  9
$WORLDVIEW
 70
     1
  9
$SHADEDGE
 70
     3
  9
$SHADEDIF
 70
    70
  9
$TILEMODE
 70
     1
  9
$MAXACTVP
 70
    64
  9
$PLIMCHECK
 70
     0
  9
$PEXTMIN
 10
0.0
 20
0.0
 30
0.0
  9
$PEXTMAX
 10
0.0
 20
0.0
 30
0.0
  9
$PLIMMIN
 10
0.0
 20
0.0
  9
$PLIMMAX
 10
0.0
 20
0.0
  9
$UNITMODE
 70
     0
  9
$VISRETAIN
 70
     1
  9
$PLINEGEN
 70
     0
  9
$PSLTSCALE
 70
     1
  0
ENDSEC
  0
SECTION
  2
TABLES
  0
TABLE
  2
VPORT
 70
     1
  0
VPORT
  2
*ACTIVE
 70
     0
 10
0.0
 20
0.0
 11
1.0
 21
1.0
 12
16.55876627038149
 22
10.21171620866482
 13
0.0
 23
0.0
 14
0.5
 24
0.5
 15
0.5
 25
0.5
 16
0.0
 26
0.0
 36
1.0
 17
0.0
 27
0.0
 37
0.0
 40
21.5142013588264
 41
1.972972972850329
 42
50.0
 43
0.0
 44
0.0
 50
0.0
 51
0.0
 71
    16
 72
   100
 73
     1
 74
     3
 75
     0
 76
     0
 77
     0
 78
     0
  0
ENDTAB
  0
TABLE
  2
LTYPE
 70
     1
  0
LTYPE
  2
CONTINUOUS
 70
     0
  3
Solid line
 72
    65
 73
     0
 40
0.0
  0
ENDTAB
  0
TABLE
  2
LAYER
 70
     2
  0
LAYER
  2
0
 70
     0
 62
     7
  6
CONTINUOUS
  0
LAYER
  2
LAYER_1
 70
     0
 62
     7
  6
CONTINUOUS
  0
ENDTAB
  0
TABLE
  2
STYLE
 70
     1
  0
STYLE
  2
STANDARD
 70
     0
 40
0.0
 41
1.0
 50
0.0
 71
     0
 42
0.2
  3
txt
  4

  0
ENDTAB
  0
TABLE
  2
VIEW
 70
     0
  0
ENDTAB
  0
TABLE
  2
UCS
 70
     0
  0
ENDTAB
  0
TABLE
  2
APPID
 70
     1
  0
APPID
  2
ACAD
 70
     0
  0
ENDTAB
  0
TABLE
  2
DIMSTYLE
 70
     1
  0
DIMSTYLE
  2
STANDARD
 70
     0
  3

  4

  5

  6

  7

 40
1.0
 41
0.18
 42
0.0625
 43
0.38
 44
0.18
 45
0.0
 46
0.0
 47
0.0
 48
0.0
140
0.18
141
0.09
142
0.0
143
25.4
144
1.0
145
0.0
146
1.0
147
0.09
 71
     0
 72
     0
 73
     1
 74
     1
 75
     0
 76
     0
 77
     0
 78
     0
170
     0
171
     2
172
     0
173
     0
174
     0
175
     0
176
     0
177
     0
178
     0
  0
ENDTAB
  0
ENDSEC
  0
SECTION
  2
BLOCKS
  0
BLOCK
  8
0
  2
$MODEL_SPACE
 70
     0
 10
0.0
 20
0.0
 30
0.0
  3
$MODEL_SPACE
  1

  0
ENDBLK
  5
21
  8
0
  0
BLOCK
 67
     1
  8
0
  2
$PAPER_SPACE
 70
     0
 10
0.0
 20
0.0
 30
0.0
  3
$PAPER_SPACE
  1

  0
ENDBLK
  5
76
 67
     1
  8
0
  0
ENDSEC
  0
SECTION
  2
ENTITIES
  0
LINE
  5
285
  8
LAYER_1
 62
     1
 10
14.22177472037983
 20
1.436857223498224
 30
0.0
 11
7.541340545331025
 21
1.436017463349137
 31
0.0
  0
LINE
  5
2B4
  8
LAYER_1
 62
     1
 10
16.80347116039361
 20
1.53401851020983
 30
0.0
 11
17.66543876359577
 21
2.496735573526537
 31
0.0
  0
LINE
  5
2B5
  8
LAYER_1
 62
     1
 10
17.66543876359577
 20
2.496735573526537
 30
0.0
 11
18.46024006005492
 21
1.53401851020983
 31
0.0
  0
LINE
  5
2B7
  8
LAYER_1
 62
     1
 10
18.46024006005492
 20
1.53401851020983
 30
0.0
 11
16.80347116039361
 21
1.53401851020983
 31
0.0
  0
LINE
  5
2E3
  8
LAYER_1
 62
     1
 10
16.90495472174051
 20
5.280921924148979
 30
0.0
 11
18.45004634515832
 21
5.280921924148979
 31
0.0
  0
LINE
  5
2E7
  8
LAYER_1
 62
     1
 10
18.45004634515832
 20
5.280921924148979
 30
0.0
 11
17.64391158511425
 21
4.323636896596639
 31
0.0
  0
LINE
  5
2E8
  8
LAYER_1
 62
     1
 10
17.64391158511425
 20
4.323636896596639
 30
0.0
 11
16.90495472174051
 21
5.280921924148979
 31
0.0
  0
ARC
  5
417
  8
0
  6
BYBLOCK
 62
     1
 10
13.94798789142235
 20
8.276993723058556
 30
0.0
 40
7.876991318520673
 50
24.78627500103205
 51
95.04636892118649
  0
ARC
  5
418
  8
0
  6
BYBLOCK
 62
     1
 10
22.87408552786134
 20
12.53392164377002
 30
0.0
 40
2.015202620993441
 50
208.275354635122
 51
331.724645364878
  0
ARC
  5
41A
  8
0
  6
BYBLOCK
 62
     1
 10
28.93650610528104
 20
15.61801896039455
 30
0.0
 40
2.182621953608699
 50
350.4613476599894
 51
147.6270988787462
  0
ARC
  5
41C
  8
0
  6
BYBLOCK
 62
     1
 10
47.49895916255417
 20
4.03106482849488
 30
0.0
 40
24.06457922652194
 50
147.9907189504829
 51
161.7197097881592
  0
ARC
  5
420
  8
0
  6
BYBLOCK
 62
     1
 10
30.16128355761042
 20
15.7670459851771
 30
0.0
 40
1.058960708792612
 50
207.5461881340956
 51
331.1655736001061
  0
ARC
  5
423
  8
0
  6
BYBLOCK
 62
     1
 10
38.35323236712044
 20
12.49251234629907
 30
0.0
 40
9.546088406611979
 50
163.0389288010975
 51
197.1114107913932
  0
ARC
  5
426
  8
0
  6
BYBLOCK
 62
     1
 10
6.83318998098988
 20
13.38086765947447
 30
0.0
 40
6.983041001136554
 50
23.12568114314562
 51
93.21942570350814
  0
ARC
  5
428
  8
0
  6
BYBLOCK
 62
     1
 10
6.228079776847202
 20
18.5646637386181
 30
0.0
 40
1.800858166811731
 50
83.20917141653007
 51
227.876455371751
  0
LINE
  5
42A
  8
0
  6
BYBLOCK
 62
     1
 10
1.310539704323941
 20
0.1264714797281621
 30
0.0
 11
29.91816402668078
 21
0.1243485172134111
 31
0.0
  0
ARC
  5
42B
  8
0
  6
BYBLOCK
 62
     1
 10
29.86857464830735
 20
4.31993371537376
 30
0.0
 40
4.195878246740469
 50
270.6771712787465
 51
55.19613205697625
  0
ARC
  5
42E
  8
0
  6
BYBLOCK
 62
     1
 10
29.83130232163958
 20
4.402470628431065
 30
0.0
 40
2.946600240658241
 50
135.3837796804222
 51
48.67652230324687
  0
LINE
  5
433
  8
0
  6
BYBLOCK
 62
     1
 10
21.00239477189778
 20
1.456448171023812
 30
0.0
 11
26.58992764014104
 21
1.456448171023812
 31
0.0
  0
ARC
  5
43F
  8
0
  6
BYBLOCK
 62
     1
 10
2.026413533685203
 20
1.815638949783561
 30
0.0
 40
1.825841587225408
 50
92.80010274860152
 51
246.6058539527948
  0
ARC
  5
445
  8
0
  6
BYBLOCK
 62
     1
 10
3.005663960740095
 20
6.751758370207784
 30
0.0
 40
5.598452227341693
 50
288.7997259180202
 51
48.09112278622087
  0
ARC
  5
47A
  8
0
  6
BYBLOCK
 62
     1
 10
31.9940634227985
 20
7.2013438686031
 30
0.0
 40
0.6249158662703539
 50
64.46390841466575
 51
249.6718907101546
  0
ARC
  5
4C3
  8
0
  6
BYBLOCK
 62
     1
 10
25.62016783253679
 20
9.41069536761117
 30
0.0
 40
3.619853188857648
 50
305.7259399181435
 51
4.326238270089569
  0
ARC
  5
4D1
  8
0
  6
BYBLOCK
 62
     1
 10
1.918448115841944
 20
3.081258368056359
 30
0.0
 40
0.5583577912984336
 50
275.0509139725261
 51
88.07353586115872
  0
ARC
  5
4D2
  8
0
  6
BYBLOCK
 62
     1
 10
2.09258822884613
 20
1.990347538974526
 30
0.0
 40
0.5491331588905608
 50
103.1557139940122
 51
269.6421992607255
  0
LINE
  5
4D6
  8
0
  6
BYBLOCK
 62
     1
 10
4.809827707820885
 20
1.451979080883882
 30
0.0
 11
2.089159023853331
 21
1.441225087470088
 31
0.0
  0
ARC
  5
4E1
  8
0
  6
BYBLOCK
 62
     1
 10
2.975035103958695
 20
6.715893426846273
 30
0.0
 40
6.980561264957236
 50
310.8549182813147
 51
356.504234449924
  0
ARC
  5
4E8
  8
0
  6
BYBLOCK
 62
     1
 10
12.22370135616669
 20
15.80678638987312
 30
0.0
 40
7.342561418482373
 50
168.8317958056664
 51
221.7430730425671
  0
ARC
  5
4EC
  8
0
  6
BYBLOCK
 62
     1
 10
13.96059230351871
 20
13.42222380150457
 30
0.0
 40
8.185913213157724
 50
240.6041045616508
 51
276.0811714543222
  0
ARC
  5
4EF
  8
0
  6
BYBLOCK
 62
     1
 10
14.71043245410741
 20
3.602209390263844
 30
0.0
 40
1.684258249849241
 50
291.3980695930838
 51
86.00458570650086
  0
ARC
  5
4F1
  8
0
  6
BYBLOCK
 62
     1
 10
15.26059883785331
 20
2.244534792068075
 30
0.0
 40
0.2200949184161506
 50
151.257909420007
 51
286.9940085724941
  0
ARC
  5
4F5
  8
0
  6
BYBLOCK
 62
     1
 10
14.37165811343964
 20
2.526752086324812
 30
0.0
 40
0.7179656523279344
 50
345.7787220810857
 51
159.9164344384906
  0
ARC
  5
4F9
  8
0
  6
BYBLOCK
 62
     1
 10
14.82960431014812
 20
2.44648475675179
 30
0.0
 40
1.178475526305735
 50
163.899936781683
 51
238.9506508144917
  0
ARC
  5
4FE
  8
0
  6
BYBLOCK
 62
     1
 10
29.94088036880381
 20
4.27002801718767
 30
0.0
 40
4.375513197382896
 50
153.7093615185153
 51
220.0180223107388
  0
ARC
  5
4FF
  8
0
  6
BYBLOCK
 62
     1
 10
20.68993520780298
 20
21.68202860793504
 30
0.0
 40
16.36557356840687
 50
269.2874888239306
 51
288.9997432743336
  0
ARC
  5
500
  8
0
  6
BYBLOCK
 62
     1
 10
20.655855655301
 20
3.617618959480121
 30
0.0
 40
1.708523428714787
 50
95.69130123958527
 51
247.9511169740622
  0
ARC
  5
501
  8
0
  6
BYBLOCK
 62
     1
 10
20.07880774416275
 20
2.244534792068075
 30
0.0
 40
0.2200949184161506
 50
253.005991427506
 51
28.74209057999304
  0
ARC
  5
502
  8
0
  6
BYBLOCK
 62
     1
 10
20.96774846857641
 20
2.526752086324812
 30
0.0
 40
0.7179656523279344
 50
20.08356556150936
 51
194.2212779189143
  0
ARC
  5
503
  8
0
  6
BYBLOCK
 62
     1
 10
20.65326007554954
 20
2.439823305116093
 30
0.0
 40
1.043514106538666
 50
289.5467521690767
 51
18.63665749342988
  0
ENDSEC
  0
EOF
