999
"DXF R12 Output" (www.mydxf.blogspot.com)
 0 
SECTION
 2 
HEADER
 9 
$ACADVER
 1 
AC1009
 9 
$EXTMIN
 10 
 0 
 20 
 0 
 9 
$EXTMAX
 10 
 8.5 
 20 
 11 
 0 
ENDSEC
 0 
SECTION
 2 
ENTITIES
0
LINE
8
Calque 1
10
66.700372
20
16.147789
11
66.087182
21
16.236237
0
LINE
8
Calque 1
10
66.087182
20
16.236237
11
66.223766
21
21.261740
0
LINE
8
Calque 1
10
66.223766
20
21.261740
11
66.513233
21
31.588271
0
LINE
8
Calque 1
10
66.513233
20
31.588271
11
66.666110
21
36.889282
0
LINE
8
Calque 1
10
66.666110
20
36.889282
11
67.601871
21
38.380841
0
LINE
8
Calque 1
10
67.601871
20
38.380841
11
68.537633
21
39.872399
0
LINE
8
Calque 1
10
68.537633
20
39.872399
11
67.652990
21
40.642231
0
LINE
8
Calque 1
10
67.652990
20
40.642231
11
67.054348
21
41.241809
0
LINE
8
Calque 1
10
67.054348
20
41.241809
11
66.706843
21
41.785528
0
LINE
8
Calque 1
10
66.706843
20
41.785528
11
66.604852
21
42.286457
0
LINE
8
Calque 1
10
66.604852
20
42.286457
11
66.742753
21
42.757664
0
LINE
8
Calque 1
10
66.742753
20
42.757664
11
66.786803
21
43.017001
0
LINE
8
Calque 1
10
66.786803
20
43.017001
11
66.544638
21
43.345678
0
LINE
8
Calque 1
10
66.544638
20
43.345678
11
64.710843
21
44.673947
0
LINE
8
Calque 1
10
64.710843
20
44.673947
11
63.089336
21
45.863017
0
LINE
8
Calque 1
10
63.089336
20
45.863017
11
62.457680
21
46.536515
0
LINE
8
Calque 1
10
62.457680
20
46.536515
11
62.150786
21
47.913737
0
LINE
8
Calque 1
10
62.150786
20
47.913737
11
60.593328
21
53.027073
0
LINE
8
Calque 1
10
60.593328
20
53.027073
11
60.019686
21
54.497214
0
LINE
8
Calque 1
10
60.019686
20
54.497214
11
58.357008
21
53.623841
0
LINE
8
Calque 1
10
58.357008
20
53.623841
11
57.362570
21
52.962118
0
LINE
8
Calque 1
10
57.362570
20
52.962118
11
56.857159
21
52.218928
0
LINE
8
Calque 1
10
56.857159
20
52.218928
11
56.643316
21
50.800971
0
LINE
8
Calque 1
10
56.643316
20
50.800971
11
56.523582
21
48.114948
0
LINE
8
Calque 1
10
56.523582
20
48.114948
11
55.522520
21
28.525999
0
LINE
8
Calque 1
10
55.522520
20
28.525999
11
55.275867
21
24.320408
0
LINE
8
Calque 1
10
55.275867
20
24.320408
11
54.531037
21
24.185788
0
LINE
8
Calque 1
10
54.531037
20
24.185788
11
53.547629
21
24.291860
0
LINE
8
Calque 1
10
53.547629
20
24.291860
11
52.673470
21
24.947771
0
LINE
8
Calque 1
10
52.673470
20
24.947771
11
51.951214
21
26.105072
0
LINE
8
Calque 1
10
51.951214
20
26.105072
11
51.423514
21
27.715316
0
LINE
8
Calque 1
10
51.423514
20
27.715316
11
51.243559
21
29.266135
0
LINE
8
Calque 1
10
51.243559
20
29.266135
11
51.146751
21
32.084156
0
LINE
8
Calque 1
10
51.146751
20
32.084156
11
51.191880
21
42.190290
0
LINE
8
Calque 1
10
51.191880
20
42.190290
11
51.170005
21
46.008306
0
LINE
8
Calque 1
10
51.170005
20
46.008306
11
50.800087
21
48.011005
0
LINE
8
Calque 1
10
50.800087
20
48.011005
11
49.929838
21
50.252815
0
LINE
8
Calque 1
10
49.929838
20
50.252815
11
49.687129
21
50.863120
0
LINE
8
Calque 1
10
49.687129
20
50.863120
11
49.622951
21
52.041427
0
LINE
8
Calque 1
10
49.622951
20
52.041427
11
50.074136
21
58.663043
0
LINE
8
Calque 1
10
50.074136
20
58.663043
11
50.126054
21
60.299595
0
LINE
8
Calque 1
10
50.126054
20
60.299595
11
49.972471
21
60.633215
0
LINE
8
Calque 1
10
49.972471
20
60.633215
11
49.648248
21
60.912867
0
LINE
8
Calque 1
10
49.648248
20
60.912867
11
49.335404
21
61.191446
0
LINE
8
Calque 1
10
49.335404
20
61.191446
11
49.163889
21
61.524935
0
LINE
8
Calque 1
10
49.163889
20
61.524935
11
49.077025
21
62.957294
0
LINE
8
Calque 1
10
49.077025
20
62.957294
11
48.951178
21
64.844941
0
LINE
8
Calque 1
10
48.951178
20
64.844941
11
48.595352
21
67.097133
0
LINE
8
Calque 1
10
48.595352
20
67.097133
11
48.042118
21
69.545448
0
LINE
8
Calque 1
10
48.042118
20
69.545448
11
47.324050
21
72.021459
0
LINE
8
Calque 1
10
47.324050
20
72.021459
11
45.780238
21
76.948901
0
LINE
8
Calque 1
10
45.780238
20
76.948901
11
45.089727
21
79.578865
0
LINE
8
Calque 1
10
45.089727
20
79.578865
11
44.874850
21
80.277053
0
LINE
8
Calque 1
10
44.874850
20
80.277053
11
44.451874
21
80.440709
0
LINE
8
Calque 1
10
44.451874
20
80.440709
11
44.170057
21
80.376566
0
LINE
8
Calque 1
10
44.170057
20
80.376566
11
44.010064
21
79.953505
0
LINE
8
Calque 1
10
44.010064
20
79.953505
11
43.827996
21
76.646849
0
LINE
8
Calque 1
10
43.827996
20
76.646849
11
43.049868
21
59.690596
0
LINE
8
Calque 1
10
43.049868
20
59.690596
11
42.647413
21
54.981768
0
LINE
8
Calque 1
10
42.647413
20
54.981768
11
42.185692
21
52.031328
0
LINE
8
Calque 1
10
42.185692
20
52.031328
11
41.226693
21
49.038634
0
LINE
8
Calque 1
10
41.226693
20
49.038634
11
40.662980
21
47.875716
0
LINE
8
Calque 1
10
40.662980
20
47.875716
11
40.157025
21
47.206000
0
LINE
8
Calque 1
10
40.157025
20
47.206000
11
39.880540
21
46.729981
0
LINE
8
Calque 1
10
39.880540
20
46.729981
11
39.779163
21
45.854762
0
LINE
8
Calque 1
10
39.779163
20
45.854762
11
39.509392
21
42.146427
0
LINE
8
Calque 1
10
39.509392
20
42.146427
11
39.257351
21
39.504031
0
LINE
8
Calque 1
10
39.257351
20
39.504031
11
37.616796
21
40.512905
0
LINE
8
Calque 1
10
37.616796
20
40.512905
11
36.417047
21
41.328608
0
LINE
8
Calque 1
10
36.417047
20
41.328608
11
35.836304
21
41.873042
0
LINE
8
Calque 1
10
35.836304
20
41.873042
11
35.687584
21
42.553262
0
LINE
8
Calque 1
10
35.687584
20
42.553262
11
35.675125
21
43.467958
0
LINE
8
Calque 1
10
35.675125
20
43.467958
11
36.027392
21
45.856258
0
LINE
8
Calque 1
10
36.027392
20
45.856258
11
36.829900
21
48.748899
0
LINE
8
Calque 1
10
36.829900
20
48.748899
11
38.019445
21
51.856836
0
LINE
8
Calque 1
10
38.019445
20
51.856836
11
39.594095
21
56.103047
0
LINE
8
Calque 1
10
39.594095
20
56.103047
11
40.122901
21
58.048692
0
LINE
8
Calque 1
10
40.122901
20
58.048692
11
40.419443
21
59.680702
0
LINE
8
Calque 1
10
40.419443
20
59.680702
11
40.880546
21
72.125401
0
LINE
8
Calque 1
10
40.880546
20
72.125401
11
41.232119
21
83.004960
0
LINE
8
Calque 1
10
41.232119
20
83.004960
11
41.189695
21
83.409787
0
LINE
8
Calque 1
10
41.189695
20
83.409787
11
40.894468
21
83.851819
0
LINE
8
Calque 1
10
40.894468
20
83.851819
11
40.627143
21
84.311731
0
LINE
8
Calque 1
10
40.627143
20
84.311731
11
40.341705
21
85.289418
0
LINE
8
Calque 1
10
40.341705
20
85.289418
11
39.475323
21
89.810758
0
LINE
8
Calque 1
10
39.475323
20
89.810758
11
37.996760
21
97.193134
0
LINE
8
Calque 1
10
37.996760
20
97.193134
11
37.374354
21
99.523371
0
LINE
8
Calque 1
10
37.374354
20
99.523371
11
36.877035
21
100.747755
0
LINE
8
Calque 1
10
36.877035
20
100.747755
11
36.497546
21
101.124158
0
LINE
8
Calque 1
10
36.497546
20
101.124158
11
36.055723
21
101.147509
0
LINE
8
Calque 1
10
36.055723
20
101.147509
11
35.218209
21
101.023935
0
LINE
8
Calque 1
10
35.218209
20
101.023935
11
35.004422
21
100.908269
0
LINE
8
Calque 1
10
35.004422
20
100.908269
11
34.766764
21
100.521989
0
LINE
8
Calque 1
10
34.766764
20
100.521989
11
34.097725
21
98.682419
0
LINE
8
Calque 1
10
34.097725
20
98.682419
11
33.033499
21
94.711055
0
LINE
8
Calque 1
10
33.033499
20
94.711055
11
32.212445
21
90.109865
0
LINE
8
Calque 1
10
32.212445
20
90.109865
11
31.603829
21
84.662847
0
LINE
8
Calque 1
10
31.603829
20
84.662847
11
31.176920
21
78.154001
0
LINE
8
Calque 1
10
31.176920
20
78.154001
11
30.707719
21
68.452491
0
LINE
8
Calque 1
10
30.707719
20
68.452491
11
30.302042
21
62.980267
0
LINE
8
Calque 1
10
30.302042
20
62.980267
11
29.252228
21
62.550899
0
LINE
8
Calque 1
10
29.252228
20
62.550899
11
28.193471
21
62.444671
0
LINE
8
Calque 1
10
28.193471
20
62.444671
11
28.259862
21
63.816719
0
LINE
8
Calque 1
10
28.259862
20
63.816719
11
28.896654
21
68.799277
0
LINE
8
Calque 1
10
28.896654
20
68.799277
11
29.430627
21
73.268757
0
LINE
8
Calque 1
10
29.430627
20
73.268757
11
29.876527
21
77.426409
0
LINE
8
Calque 1
10
29.876527
20
77.426409
11
30.609012
21
85.473906
0
LINE
8
Calque 1
10
30.609012
20
85.473906
11
30.818170
21
92.530878
0
LINE
8
Calque 1
10
30.818170
20
92.530878
11
30.725607
21
98.392961
0
LINE
8
Calque 1
10
30.725607
20
98.392961
11
29.448938
21
98.567874
0
LINE
8
Calque 1
10
29.448938
20
98.567874
11
28.287156
21
98.630448
0
LINE
8
Calque 1
10
28.287156
20
98.630448
11
26.684279
21
95.616148
0
LINE
8
Calque 1
10
26.684279
20
95.616148
11
24.775001
21
91.788932
0
LINE
8
Calque 1
10
24.775001
20
91.788932
11
22.999583
21
88.878575
0
LINE
8
Calque 1
10
22.999583
20
88.878575
11
18.917788
21
82.706581
0
LINE
8
Calque 1
10
18.917788
20
82.706581
11
14.096290
21
75.068254
0
LINE
8
Calque 1
10
14.096290
20
75.068254
11
13.159485
21
73.541626
0
LINE
8
Calque 1
10
13.159485
20
73.541626
11
11.748679
21
73.685548
0
LINE
8
Calque 1
10
11.748679
20
73.685548
11
10.259697
21
73.901592
0
LINE
8
Calque 1
10
10.259697
20
73.901592
11
10.964656
21
75.448554
0
LINE
8
Calque 1
10
10.964656
20
75.448554
11
12.807916
21
78.677470
0
LINE
8
Calque 1
10
12.807916
20
78.677470
11
14.833851
21
81.976137
0
LINE
8
Calque 1
10
14.833851
20
81.976137
11
16.086832
21
83.732349
0
LINE
8
Calque 1
10
16.086832
20
83.732349
11
17.896816
21
86.482520
0
LINE
8
Calque 1
10
17.896816
20
86.482520
11
21.969220
21
94.168808
0
LINE
8
Calque 1
10
21.969220
20
94.168808
11
24.905520
21
100.125771
0
LINE
8
Calque 1
10
24.905520
20
100.125771
11
24.388184
21
100.190017
0
LINE
8
Calque 1
10
24.388184
20
100.190017
11
23.017120
21
100.030891
0
LINE
8
Calque 1
10
23.017120
20
100.030891
11
21.172944
21
99.843448
0
LINE
8
Calque 1
10
21.172944
20
99.843448
11
19.453630
21
99.958247
0
LINE
8
Calque 1
10
19.453630
20
99.958247
11
18.095214
21
100.203386
0
LINE
8
Calque 1
10
18.095214
20
100.203386
11
16.924926
21
100.558648
0
LINE
8
Calque 1
10
16.924926
20
100.558648
11
15.933857
21
101.032057
0
LINE
8
Calque 1
10
15.933857
20
101.032057
11
15.113097
21
101.631641
0
LINE
8
Calque 1
10
15.113097
20
101.631641
11
14.453735
21
102.365426
0
LINE
8
Calque 1
10
14.453735
20
102.365426
11
13.946863
21
103.241438
0
LINE
8
Calque 1
10
13.946863
20
103.241438
11
13.583569
21
104.267705
0
LINE
8
Calque 1
10
13.583569
20
104.267705
11
13.354944
21
105.452253
0
LINE
8
Calque 1
10
13.354944
20
105.452253
11
13.238972
21
106.144600
0
LINE
8
Calque 1
10
13.238972
20
106.144600
11
13.037581
21
106.635515
0
LINE
8
Calque 1
10
13.037581
20
106.635515
11
11.930345
21
107.729510
0
LINE
8
Calque 1
10
11.930345
20
107.729510
11
10.847099
21
108.785614
0
LINE
8
Calque 1
10
10.847099
20
108.785614
11
10.692425
21
109.199233
0
LINE
8
Calque 1
10
10.692425
20
109.199233
11
10.663935
21
109.746447
0
LINE
8
Calque 1
10
10.663935
20
109.746447
11
10.965383
21
111.595664
0
LINE
8
Calque 1
10
10.965383
20
111.595664
11
11.857007
21
113.717941
0
LINE
8
Calque 1
10
11.857007
20
113.717941
11
12.846421
21
115.959335
0
LINE
8
Calque 1
10
12.846421
20
115.959335
11
13.137690
21
117.117874
0
LINE
8
Calque 1
10
13.137690
20
117.117874
11
12.921185
21
118.438739
0
LINE
8
Calque 1
10
12.921185
20
118.438739
11
12.558593
21
119.536417
0
LINE
8
Calque 1
10
12.558593
20
119.536417
11
11.985010
21
120.711953
0
LINE
8
Calque 1
10
11.985010
20
120.711953
11
10.250951
21
123.214193
0
LINE
8
Calque 1
10
10.250951
20
123.214193
11
9.132947
21
124.823670
0
LINE
8
Calque 1
10
9.132947
20
124.823670
11
8.710924
21
125.346199
0
LINE
8
Calque 1
10
8.710924
20
125.346199
11
7.890328
21
125.512086
0
LINE
8
Calque 1
10
7.890328
20
125.512086
11
7.183087
21
125.627581
0
LINE
8
Calque 1
10
7.183087
20
125.627581
11
7.076572
21
125.877688
0
LINE
8
Calque 1
10
7.076572
20
125.877688
11
7.104059
21
126.262487
0
LINE
8
Calque 1
10
7.104059
20
126.262487
11
6.953375
21
126.763382
0
LINE
8
Calque 1
10
6.953375
20
126.763382
11
6.202097
21
127.916236
0
LINE
8
Calque 1
10
6.202097
20
127.916236
11
5.888332
21
128.317574
0
LINE
8
Calque 1
10
5.888332
20
128.317574
11
5.735934
21
128.731043
0
LINE
8
Calque 1
10
5.735934
20
128.731043
11
5.771745
21
130.433889
0
LINE
8
Calque 1
10
5.771745
20
130.433889
11
6.136241
21
135.601737
0
LINE
8
Calque 1
10
6.136241
20
135.601737
11
6.368428
21
138.896029
0
LINE
8
Calque 1
10
6.368428
20
138.896029
11
8.195729
21
140.988862
0
LINE
8
Calque 1
10
8.195729
20
140.988862
11
10.404336
21
143.799591
0
LINE
8
Calque 1
10
10.404336
20
143.799591
11
11.085202
21
144.954128
0
LINE
8
Calque 1
10
11.085202
20
144.954128
11
11.541045
21
146.027706
0
LINE
8
Calque 1
10
11.541045
20
146.027706
11
11.916002
21
146.767638
0
LINE
8
Calque 1
10
11.916002
20
146.767638
11
12.421519
21
147.378943
0
LINE
8
Calque 1
10
12.421519
20
147.378943
11
13.325265
21
148.479147
0
LINE
8
Calque 1
10
13.325265
20
148.479147
11
13.470699
21
148.844703
0
LINE
8
Calque 1
10
13.470699
20
148.844703
11
13.431341
21
149.244183
0
LINE
8
Calque 1
10
13.431341
20
149.244183
11
12.552476
21
150.921769
0
LINE
8
Calque 1
10
12.552476
20
150.921769
11
11.525178
21
152.516117
0
LINE
8
Calque 1
10
11.525178
20
152.516117
11
11.177610
21
152.741669
0
LINE
8
Calque 1
10
11.177610
20
152.741669
11
10.749265
21
152.783894
0
LINE
8
Calque 1
10
10.749265
20
152.783894
11
10.206504
21
152.872019
0
LINE
8
Calque 1
10
10.206504
20
152.872019
11
9.789532
21
153.166144
0
LINE
8
Calque 1
10
9.789532
20
153.166144
11
9.458559
21
153.710894
0
LINE
8
Calque 1
10
9.458559
20
153.710894
11
9.173796
21
154.550896
0
LINE
8
Calque 1
10
9.173796
20
154.550896
11
8.592106
21
155.846578
0
LINE
8
Calque 1
10
8.592106
20
155.846578
11
8.255195
21
156.181613
0
LINE
8
Calque 1
10
8.255195
20
156.181613
11
7.941492
21
156.234447
0
LINE
8
Calque 1
10
7.941492
20
156.234447
11
7.788483
21
156.325451
0
LINE
8
Calque 1
10
7.788483
20
156.325451
11
7.696670
21
156.852144
0
LINE
8
Calque 1
10
7.696670
20
156.852144
11
7.640161
21
159.899425
0
LINE
8
Calque 1
10
7.640161
20
159.899425
11
7.640161
21
163.675781
0
LINE
8
Calque 1
10
7.640161
20
163.675781
11
10.251989
21
168.468061
0
LINE
8
Calque 1
10
10.251989
20
168.468061
11
13.456357
21
174.037782
0
LINE
8
Calque 1
10
13.456357
20
174.037782
11
15.031884
21
175.644455
0
LINE
8
Calque 1
10
15.031884
20
175.644455
11
17.191268
21
177.151261
0
LINE
8
Calque 1
10
17.191268
20
177.151261
11
19.819434
21
178.489807
0
LINE
8
Calque 1
10
19.819434
20
178.489807
11
22.801305
21
179.591700
0
LINE
8
Calque 1
10
22.801305
20
179.591700
11
23.396860
21
179.866968
0
LINE
8
Calque 1
10
23.396860
20
179.866968
11
23.612680
21
180.188564
0
LINE
8
Calque 1
10
23.612680
20
180.188564
11
23.832791
21
184.540806
0
LINE
8
Calque 1
10
23.832791
20
184.540806
11
23.961252
21
188.100153
0
LINE
8
Calque 1
10
23.961252
20
188.100153
11
23.847331
21
188.733802
0
LINE
8
Calque 1
10
23.847331
20
188.733802
11
23.585186
21
189.152043
0
LINE
8
Calque 1
10
23.585186
20
189.152043
11
23.264831
21
189.868282
0
LINE
8
Calque 1
10
23.264831
20
189.868282
11
23.205288
21
190.711330
0
LINE
8
Calque 1
10
23.205288
20
190.711330
11
23.392601
21
191.502682
0
LINE
8
Calque 1
10
23.392601
20
191.502682
11
23.812815
21
192.063831
0
LINE
8
Calque 1
10
23.812815
20
192.063831
11
24.068869
21
192.340436
0
LINE
8
Calque 1
10
24.068869
20
192.340436
11
24.238741
21
192.877330
0
LINE
8
Calque 1
10
24.238741
20
192.877330
11
24.507528
21
195.718979
0
LINE
8
Calque 1
10
24.507528
20
195.718979
11
24.626771
21
203.793185
0
LINE
8
Calque 1
10
24.626771
20
203.793185
11
24.531473
21
207.806082
0
LINE
8
Calque 1
10
24.531473
20
207.806082
11
24.354459
21
209.816811
0
LINE
8
Calque 1
10
24.354459
20
209.816811
11
24.311082
21
210.107761
0
LINE
8
Calque 1
10
24.311082
20
210.107761
11
24.604259
21
210.126172
0
LINE
8
Calque 1
10
24.604259
20
210.126172
11
25.040717
21
209.733814
0
LINE
8
Calque 1
10
25.040717
20
209.733814
11
25.443487
21
208.732981
0
LINE
8
Calque 1
10
25.443487
20
208.732981
11
26.131234
21
204.962457
0
LINE
8
Calque 1
10
26.131234
20
204.962457
11
26.402076
21
200.997780
0
LINE
8
Calque 1
10
26.402076
20
200.997780
11
26.499009
21
194.227203
0
LINE
8
Calque 1
10
26.499009
20
194.227203
11
26.524149
21
186.298364
0
LINE
8
Calque 1
10
26.524149
20
186.298364
11
27.299744
21
186.679108
0
LINE
8
Calque 1
10
27.299744
20
186.679108
11
27.991831
21
187.196451
0
LINE
8
Calque 1
10
27.991831
20
187.196451
11
28.408955
21
188.163582
0
LINE
8
Calque 1
10
28.408955
20
188.163582
11
29.718319
21
192.489493
0
LINE
8
Calque 1
10
29.718319
20
192.489493
11
31.687193
21
199.387497
0
LINE
8
Calque 1
10
31.687193
20
199.387497
11
33.322675
21
205.944629
0
LINE
8
Calque 1
10
33.322675
20
205.944629
11
34.578270
21
211.958703
0
LINE
8
Calque 1
10
34.578270
20
211.958703
11
35.407479
21
217.227535
0
LINE
8
Calque 1
10
35.407479
20
217.227535
11
35.756486
21
220.033953
0
LINE
8
Calque 1
10
35.756486
20
220.033953
11
36.597011
21
220.761542
0
LINE
8
Calque 1
10
36.597011
20
220.761542
11
37.437531
21
221.489130
0
LINE
8
Calque 1
10
37.437531
20
221.489130
11
37.618899
21
224.026590
0
LINE
8
Calque 1
10
37.618899
20
224.026590
11
37.861784
21
226.262508
0
LINE
8
Calque 1
10
37.861784
20
226.262508
11
38.056237
21
226.790390
0
LINE
8
Calque 1
10
38.056237
20
226.790390
11
38.366948
21
227.212752
0
LINE
8
Calque 1
10
38.366948
20
227.212752
11
38.933625
21
228.067544
0
LINE
8
Calque 1
10
38.933625
20
228.067544
11
39.564960
21
232.607601
0
LINE
8
Calque 1
10
39.564960
20
232.607601
11
40.298703
21
236.697519
0
LINE
8
Calque 1
10
40.298703
20
236.697519
11
41.905555
21
236.237987
0
LINE
8
Calque 1
10
41.905555
20
236.237987
11
43.425926
21
235.695155
0
LINE
8
Calque 1
10
43.425926
20
235.695155
11
42.997363
21
234.761943
0
LINE
8
Calque 1
10
42.997363
20
234.761943
11
41.493920
21
230.831408
0
LINE
8
Calque 1
10
41.493920
20
230.831408
11
40.169222
21
225.901854
0
LINE
8
Calque 1
10
40.169222
20
225.901854
11
38.972639
21
219.750773
0
LINE
8
Calque 1
10
38.972639
20
219.750773
11
37.853541
21
212.155655
0
LINE
8
Calque 1
10
37.853541
20
212.155655
11
36.853242
21
205.174308
0
LINE
8
Calque 1
10
36.853242
20
205.174308
11
35.831191
21
199.330108
0
LINE
8
Calque 1
10
35.831191
20
199.330108
11
34.807318
21
194.724851
0
LINE
8
Calque 1
10
34.807318
20
194.724851
11
33.801555
21
191.460336
0
LINE
8
Calque 1
10
33.801555
20
191.460336
11
33.774733
21
190.784006
0
LINE
8
Calque 1
10
33.774733
20
190.784006
11
34.218824
21
189.645926
0
LINE
8
Calque 1
10
34.218824
20
189.645926
11
34.833103
21
187.954411
0
LINE
8
Calque 1
10
34.833103
20
187.954411
11
33.770624
21
184.363869
0
LINE
8
Calque 1
10
33.770624
20
184.363869
11
32.441467
21
180.245241
0
LINE
8
Calque 1
10
32.441467
20
180.245241
11
32.296574
21
179.272273
0
LINE
8
Calque 1
10
32.296574
20
179.272273
11
33.057409
21
179.472337
0
LINE
8
Calque 1
10
33.057409
20
179.472337
11
33.549978
21
179.835258
0
LINE
8
Calque 1
10
33.549978
20
179.835258
11
33.964407
21
180.386786
0
LINE
8
Calque 1
10
33.964407
20
180.386786
11
34.521504
21
181.991416
0
LINE
8
Calque 1
10
34.521504
20
181.991416
11
34.837644
21
182.804621
0
LINE
8
Calque 1
10
34.837644
20
182.804621
11
35.493940
21
183.578953
0
LINE
8
Calque 1
10
35.493940
20
183.578953
11
35.964159
21
184.084495
0
LINE
8
Calque 1
10
35.964159
20
184.084495
11
36.344122
21
184.760426
0
LINE
8
Calque 1
10
36.344122
20
184.760426
11
37.338570
21
187.772053
0
LINE
8
Calque 1
10
37.338570
20
187.772053
11
38.338887
21
190.819915
0
LINE
8
Calque 1
10
38.338887
20
190.819915
11
38.696955
21
191.337691
0
LINE
8
Calque 1
10
38.696955
20
191.337691
11
39.181597
21
191.650390
0
LINE
8
Calque 1
10
39.181597
20
191.650390
11
39.859118
21
192.157490
0
LINE
8
Calque 1
10
39.859118
20
192.157490
11
40.123948
21
192.862238
0
LINE
8
Calque 1
10
40.123948
20
192.862238
11
40.522790
21
194.632128
0
LINE
8
Calque 1
10
40.522790
20
194.632128
11
41.112895
21
196.191962
0
LINE
8
Calque 1
10
41.112895
20
196.191962
11
41.924432
21
197.605748
0
LINE
8
Calque 1
10
41.924432
20
197.605748
11
42.987570
21
198.937489
0
LINE
8
Calque 1
10
42.987570
20
198.937489
11
43.634547
21
199.794511
0
LINE
8
Calque 1
10
43.634547
20
199.794511
11
43.993681
21
200.545845
0
LINE
8
Calque 1
10
43.993681
20
200.545845
11
44.285003
21
201.199062
0
LINE
8
Calque 1
10
44.285003
20
201.199062
11
44.768939
21
201.820183
0
LINE
8
Calque 1
10
44.768939
20
201.820183
11
45.351769
21
202.690820
0
LINE
8
Calque 1
10
45.351769
20
202.690820
11
45.821538
21
204.366073
0
LINE
8
Calque 1
10
45.821538
20
204.366073
11
46.744159
21
208.253428
0
LINE
8
Calque 1
10
46.744159
20
208.253428
11
47.031210
21
208.751425
0
LINE
8
Calque 1
10
47.031210
20
208.751425
11
47.441680
21
208.965866
0
LINE
8
Calque 1
10
47.441680
20
208.965866
11
47.811880
21
209.177177
0
LINE
8
Calque 1
10
47.811880
20
209.177177
11
48.050965
21
209.498371
0
LINE
8
Calque 1
10
48.050965
20
209.498371
11
48.433194
21
211.115056
0
LINE
8
Calque 1
10
48.433194
20
211.115056
11
48.808489
21
212.727341
0
LINE
8
Calque 1
10
48.808489
20
212.727341
11
49.038319
21
212.973833
0
LINE
8
Calque 1
10
49.038319
20
212.973833
11
49.407479
21
213.070416
0
LINE
8
Calque 1
10
49.407479
20
213.070416
11
49.778297
21
213.157571
0
LINE
8
Calque 1
10
49.778297
20
213.157571
11
49.975524
21
213.366982
0
LINE
8
Calque 1
10
49.975524
20
213.366982
11
50.111392
21
214.794895
0
LINE
8
Calque 1
10
50.111392
20
214.794895
11
50.245938
21
216.198397
0
LINE
8
Calque 1
10
50.245938
20
216.198397
11
50.414691
21
216.460539
0
LINE
8
Calque 1
10
50.414691
20
216.460539
11
50.710420
21
216.609296
0
LINE
8
Calque 1
10
50.710420
20
216.609296
11
51.336485
21
217.068503
0
LINE
8
Calque 1
10
51.336485
20
217.068503
11
54.011251
21
223.766984
0
LINE
8
Calque 1
10
54.011251
20
223.766984
11
57.168700
21
230.532030
0
LINE
8
Calque 1
10
57.168700
20
230.532030
11
58.032754
21
232.818738
0
LINE
8
Calque 1
10
58.032754
20
232.818738
11
58.307732
21
233.960834
0
LINE
8
Calque 1
10
58.307732
20
233.960834
11
58.779492
21
235.166651
0
LINE
8
Calque 1
10
58.779492
20
235.166651
11
60.570494
21
238.327631
0
LINE
8
Calque 1
10
60.570494
20
238.327631
11
62.694979
21
241.696988
0
LINE
8
Calque 1
10
62.694979
20
241.696988
11
63.769885
21
243.233339
0
LINE
8
Calque 1
10
63.769885
20
243.233339
11
64.087488
21
243.509903
0
LINE
8
Calque 1
10
64.087488
20
243.509903
11
64.351189
21
243.563137
0
LINE
8
Calque 1
10
64.351189
20
243.563137
11
64.994872
21
243.312838
0
LINE
8
Calque 1
10
64.994872
20
243.312838
11
65.801185
21
242.872065
0
LINE
8
Calque 1
10
65.801185
20
242.872065
11
66.354064
21
242.253101
0
LINE
8
Calque 1
10
66.354064
20
242.253101
11
66.672133
21
241.425001
0
LINE
8
Calque 1
10
66.672133
20
241.425001
11
66.774018
21
240.356820
0
LINE
8
Calque 1
10
66.774018
20
240.356820
11
66.744040
21
239.602702
0
LINE
8
Calque 1
10
66.744040
20
239.602702
11
66.550542
21
238.977433
0
LINE
8
Calque 1
10
66.550542
20
238.977433
11
65.051604
21
236.847353
0
LINE
8
Calque 1
10
65.051604
20
236.847353
11
63.627211
21
234.826814
0
LINE
8
Calque 1
10
63.627211
20
234.826814
11
63.385426
21
234.246923
0
LINE
8
Calque 1
10
63.385426
20
234.246923
11
63.325067
21
233.714068
0
LINE
8
Calque 1
10
63.325067
20
233.714068
11
63.132251
21
232.522719
0
LINE
8
Calque 1
10
63.132251
20
232.522719
11
62.606513
21
230.816392
0
LINE
8
Calque 1
10
62.606513
20
230.816392
11
60.823145
21
226.615934
0
LINE
8
Calque 1
10
60.823145
20
226.615934
11
59.664007
21
224.258958
0
LINE
8
Calque 1
10
59.664007
20
224.258958
11
60.197574
21
222.994117
0
LINE
8
Calque 1
10
60.197574
20
222.994117
11
60.731143
21
221.686392
0
LINE
8
Calque 1
10
60.731143
20
221.686392
11
60.083692
21
221.385191
0
LINE
8
Calque 1
10
60.083692
20
221.385191
11
59.667468
21
221.167397
0
LINE
8
Calque 1
10
59.667468
20
221.167397
11
59.478180
21
220.812640
0
LINE
8
Calque 1
10
59.478180
20
220.812640
11
59.636807
21
218.890597
0
LINE
8
Calque 1
10
59.636807
20
218.890597
11
59.974853
21
215.926400
0
LINE
8
Calque 1
10
59.974853
20
215.926400
11
60.120880
21
214.313444
0
LINE
8
Calque 1
10
60.120880
20
214.313444
11
62.295715
21
215.406694
0
LINE
8
Calque 1
10
62.295715
20
215.406694
11
64.470551
21
216.499947
0
LINE
8
Calque 1
10
64.470551
20
216.499947
11
66.258973
21
219.410304
0
LINE
8
Calque 1
10
66.258973
20
219.410304
11
68.648671
21
223.176290
0
LINE
8
Calque 1
10
68.648671
20
223.176290
11
69.094333
21
223.545823
0
LINE
8
Calque 1
10
69.094333
20
223.545823
11
69.525569
21
223.516005
0
LINE
8
Calque 1
10
69.525569
20
223.516005
11
69.883888
21
223.489943
0
LINE
8
Calque 1
10
69.883888
20
223.489943
11
70.108038
21
223.586386
0
LINE
8
Calque 1
10
70.108038
20
223.586386
11
70.438504
21
224.432604
0
LINE
8
Calque 1
10
70.438504
20
224.432604
11
70.758323
21
225.415282
0
LINE
8
Calque 1
10
70.758323
20
225.415282
11
71.102615
21
226.007290
0
LINE
8
Calque 1
10
71.102615
20
226.007290
11
71.551166
21
226.297398
0
LINE
8
Calque 1
10
71.551166
20
226.297398
11
72.183760
21
226.374374
0
LINE
8
Calque 1
10
72.183760
20
226.374374
11
72.933353
21
226.279827
0
LINE
8
Calque 1
10
72.933353
20
226.279827
11
72.988097
21
225.628732
0
LINE
8
Calque 1
10
72.988097
20
225.628732
11
72.990840
21
225.192952
0
LINE
8
Calque 1
10
72.990840
20
225.192952
11
73.145117
21
224.820535
0
LINE
8
Calque 1
10
73.145117
20
224.820535
11
74.263696
21
223.739328
0
LINE
8
Calque 1
10
74.263696
20
223.739328
11
75.602589
21
222.595566
0
LINE
8
Calque 1
10
75.602589
20
222.595566
11
78.658085
21
228.590654
0
LINE
8
Calque 1
10
78.658085
20
228.590654
11
82.344562
21
235.978786
0
LINE
8
Calque 1
10
82.344562
20
235.978786
11
82.993275
21
237.639222
0
LINE
8
Calque 1
10
82.993275
20
237.639222
11
83.480261
21
239.361389
0
LINE
8
Calque 1
10
83.480261
20
239.361389
11
84.147287
21
241.850323
0
LINE
8
Calque 1
10
84.147287
20
241.850323
11
85.550096
21
242.192967
0
LINE
8
Calque 1
10
85.550096
20
242.192967
11
86.668780
21
242.404150
0
LINE
8
Calque 1
10
86.668780
20
242.404150
11
87.111465
21
242.302565
0
LINE
8
Calque 1
10
87.111465
20
242.302565
11
87.236698
21
241.514107
0
LINE
8
Calque 1
10
87.236698
20
241.514107
11
87.266507
21
239.959959
0
LINE
8
Calque 1
10
87.266507
20
239.959959
11
87.056423
21
236.347292
0
LINE
8
Calque 1
10
87.056423
20
236.347292
11
86.597741
21
233.672942
0
LINE
8
Calque 1
10
86.597741
20
233.672942
11
85.918648
21
231.175163
0
LINE
8
Calque 1
10
85.918648
20
231.175163
11
85.034276
21
228.900146
0
LINE
8
Calque 1
10
85.034276
20
228.900146
11
83.959756
21
226.894081
0
LINE
8
Calque 1
10
83.959756
20
226.894081
11
83.176666
21
225.425566
0
LINE
8
Calque 1
10
83.176666
20
225.425566
11
84.149263
21
224.502005
0
LINE
8
Calque 1
10
84.149263
20
224.502005
11
84.939670
21
223.810984
0
LINE
8
Calque 1
10
84.939670
20
223.810984
11
85.017912
21
223.164099
0
LINE
8
Calque 1
10
85.017912
20
223.164099
11
84.573595
21
220.137893
0
LINE
8
Calque 1
10
84.573595
20
220.137893
11
84.028669
21
216.482917
0
LINE
8
Calque 1
10
84.028669
20
216.482917
11
83.843172
21
215.228423
0
LINE
8
Calque 1
10
83.843172
20
215.228423
11
83.867373
21
214.585738
0
LINE
8
Calque 1
10
83.867373
20
214.585738
11
84.179696
21
214.350209
0
LINE
8
Calque 1
10
84.179696
20
214.350209
11
84.858564
21
214.317178
0
LINE
8
Calque 1
10
84.858564
20
214.317178
11
85.893566
21
214.317178
0
LINE
8
Calque 1
10
85.893566
20
214.317178
11
87.499929
21
216.344033
0
LINE
8
Calque 1
10
87.499929
20
216.344033
11
90.484607
21
219.968087
0
LINE
8
Calque 1
10
90.484607
20
219.968087
11
93.706563
21
223.625999
0
LINE
8
Calque 1
10
93.706563
20
223.625999
11
96.996102
21
227.131099
0
LINE
8
Calque 1
10
96.996102
20
227.131099
11
100.183532
21
230.296713
0
LINE
8
Calque 1
10
100.183532
20
230.296713
11
103.319213
21
233.283584
0
LINE
8
Calque 1
10
103.319213
20
233.283584
11
104.499362
21
233.149980
0
LINE
8
Calque 1
10
104.499362
20
233.149980
11
105.880941
21
232.896459
0
LINE
8
Calque 1
10
105.880941
20
232.896459
11
105.982039
21
232.661482
0
LINE
8
Calque 1
10
105.982039
20
232.661482
11
105.980779
21
231.961393
0
LINE
8
Calque 1
10
105.980779
20
231.961393
11
105.613581
21
228.141379
0
LINE
8
Calque 1
10
105.613581
20
228.141379
11
105.170924
21
223.983723
0
LINE
8
Calque 1
10
105.170924
20
223.983723
11
104.894110
21
222.106510
0
LINE
8
Calque 1
10
104.894110
20
222.106510
11
104.527169
21
221.275330
0
LINE
8
Calque 1
10
104.527169
20
221.275330
11
103.823064
21
220.094805
0
LINE
8
Calque 1
10
103.823064
20
220.094805
11
103.290674
21
218.110520
0
LINE
8
Calque 1
10
103.290674
20
218.110520
11
102.895398
21
215.137572
0
LINE
8
Calque 1
10
102.895398
20
215.137572
11
102.602631
21
210.991053
0
LINE
8
Calque 1
10
102.602631
20
210.991053
11
102.177867
21
203.403334
0
LINE
8
Calque 1
10
102.177867
20
203.403334
11
102.010916
21
200.700859
0
LINE
8
Calque 1
10
102.010916
20
200.700859
11
102.755776
21
199.619849
0
LINE
8
Calque 1
10
102.755776
20
199.619849
11
103.422998
21
198.699106
0
LINE
8
Calque 1
10
103.422998
20
198.699106
11
103.877222
21
198.262219
0
LINE
8
Calque 1
10
103.877222
20
198.262219
11
104.252428
21
198.234073
0
LINE
8
Calque 1
10
104.252428
20
198.234073
11
104.682595
21
198.539550
0
LINE
8
Calque 1
10
104.682595
20
198.539550
11
106.303844
21
200.592601
0
LINE
8
Calque 1
10
106.303844
20
200.592601
11
108.190453
21
203.715158
0
LINE
8
Calque 1
10
108.190453
20
203.715158
11
110.423267
21
207.511506
0
LINE
8
Calque 1
10
110.423267
20
207.511506
11
111.403520
21
208.856807
0
LINE
8
Calque 1
10
111.403520
20
208.856807
11
112.297266
21
209.839886
0
LINE
8
Calque 1
10
112.297266
20
209.839886
11
113.069354
21
210.679641
0
LINE
8
Calque 1
10
113.069354
20
210.679641
11
113.390488
21
211.250004
0
LINE
8
Calque 1
10
113.390488
20
211.250004
11
113.561973
21
211.886573
0
LINE
8
Calque 1
10
113.561973
20
211.886573
11
114.020503
21
212.796351
0
LINE
8
Calque 1
10
114.020503
20
212.796351
11
115.463159
21
214.852359
0
LINE
8
Calque 1
10
115.463159
20
214.852359
11
116.307264
21
216.053850
0
LINE
8
Calque 1
10
116.307264
20
216.053850
11
116.815672
21
217.305011
0
LINE
8
Calque 1
10
116.815672
20
217.305011
11
117.218133
21
218.394738
0
LINE
8
Calque 1
10
117.218133
20
218.394738
11
117.462302
21
218.574297
0
LINE
8
Calque 1
10
117.462302
20
218.574297
11
117.835053
21
218.641353
0
LINE
8
Calque 1
10
117.835053
20
218.641353
11
118.218641
21
218.705861
0
LINE
8
Calque 1
10
118.218641
20
218.705861
11
118.444858
21
218.905811
0
LINE
8
Calque 1
10
118.444858
20
218.905811
11
118.751686
21
220.304415
0
LINE
8
Calque 1
10
118.751686
20
220.304415
11
119.003157
21
222.356433
0
LINE
8
Calque 1
10
119.003157
20
222.356433
11
119.233636
21
222.874899
0
LINE
8
Calque 1
10
119.233636
20
222.874899
11
119.832857
21
223.499789
0
LINE
8
Calque 1
10
119.832857
20
223.499789
11
120.949446
21
224.711312
0
LINE
8
Calque 1
10
120.949446
20
224.711312
11
121.152253
21
225.802516
0
LINE
8
Calque 1
10
121.152253
20
225.802516
11
121.220605
21
227.675448
0
LINE
8
Calque 1
10
121.220605
20
227.675448
11
121.154192
21
229.703388
0
LINE
8
Calque 1
10
121.154192
20
229.703388
11
120.952700
21
231.259618
0
LINE
8
Calque 1
10
120.952700
20
231.259618
11
120.418420
21
233.845749
0
LINE
8
Calque 1
10
120.418420
20
233.845749
11
120.139477
21
236.170189
0
LINE
8
Calque 1
10
120.139477
20
236.170189
11
120.111036
21
238.303050
0
LINE
8
Calque 1
10
120.111036
20
238.303050
11
120.328261
21
240.314442
0
LINE
8
Calque 1
10
120.328261
20
240.314442
11
120.575705
21
241.757695
0
LINE
8
Calque 1
10
120.575705
20
241.757695
11
121.461301
21
241.754512
0
LINE
8
Calque 1
10
121.461301
20
241.754512
11
122.302812
21
241.701324
0
LINE
8
Calque 1
10
122.302812
20
241.701324
11
122.736721
21
241.432293
0
LINE
8
Calque 1
10
122.736721
20
241.432293
11
122.870382
21
240.771563
0
LINE
8
Calque 1
10
122.870382
20
240.771563
11
122.811145
21
239.543275
0
LINE
8
Calque 1
10
122.811145
20
239.543275
11
122.766566
21
237.431223
0
LINE
8
Calque 1
10
122.766566
20
237.431223
11
122.889987
21
234.953083
0
LINE
8
Calque 1
10
122.889987
20
234.953083
11
123.153099
21
232.472062
0
LINE
8
Calque 1
10
123.153099
20
232.472062
11
123.527591
21
230.351365
0
LINE
8
Calque 1
10
123.527591
20
230.351365
11
124.028760
21
228.638857
0
LINE
8
Calque 1
10
124.028760
20
228.638857
11
124.725611
21
227.734781
0
LINE
8
Calque 1
10
124.725611
20
227.734781
11
125.255742
21
227.126600
0
LINE
8
Calque 1
10
125.255742
20
227.126600
11
125.476240
21
226.621951
0
LINE
8
Calque 1
10
125.476240
20
226.621951
11
125.696845
21
226.059699
0
LINE
8
Calque 1
10
125.696845
20
226.059699
11
126.983251
21
224.505412
0
LINE
8
Calque 1
10
126.983251
20
224.505412
11
128.670346
21
221.772129
0
LINE
8
Calque 1
10
128.670346
20
221.772129
11
129.528526
21
219.968438
0
LINE
8
Calque 1
10
129.528526
20
219.968438
11
129.878997
21
218.526802
0
LINE
8
Calque 1
10
129.878997
20
218.526802
11
130.083729
21
217.443634
0
LINE
8
Calque 1
10
130.083729
20
217.443634
11
130.247554
21
217.267942
0
LINE
8
Calque 1
10
130.247554
20
217.267942
11
130.504703
21
217.227467
0
LINE
8
Calque 1
10
130.504703
20
217.227467
11
130.862252
21
217.012425
0
LINE
8
Calque 1
10
130.862252
20
217.012425
11
131.452519
21
216.156624
0
LINE
8
Calque 1
10
131.452519
20
216.156624
11
134.090938
21
211.258174
0
LINE
8
Calque 1
10
134.090938
20
211.258174
11
137.177407
21
205.073734
0
LINE
8
Calque 1
10
137.177407
20
205.073734
11
136.883408
21
203.983572
0
LINE
8
Calque 1
10
136.883408
20
203.983572
11
136.730226
21
203.059753
0
LINE
8
Calque 1
10
136.730226
20
203.059753
11
136.989524
21
201.962031
0
LINE
8
Calque 1
10
136.989524
20
201.962031
11
137.375409
21
201.045932
0
LINE
8
Calque 1
10
137.375409
20
201.045932
11
137.857932
21
200.279420
0
LINE
8
Calque 1
10
137.857932
20
200.279420
11
138.367575
21
199.753082
0
LINE
8
Calque 1
10
138.367575
20
199.753082
11
138.834820
21
199.557506
0
LINE
8
Calque 1
10
138.834820
20
199.557506
11
140.460411
21
200.285095
0
LINE
8
Calque 1
10
140.460411
20
200.285095
11
141.869916
21
201.012683
0
LINE
8
Calque 1
10
141.869916
20
201.012683
11
142.303373
21
202.519834
0
LINE
8
Calque 1
10
142.303373
20
202.519834
11
142.808292
21
204.689885
0
LINE
8
Calque 1
10
142.808292
20
204.689885
11
143.463973
21
206.546228
0
LINE
8
Calque 1
10
143.463973
20
206.546228
11
144.271513
21
208.091413
0
LINE
8
Calque 1
10
144.271513
20
208.091413
11
145.232010
21
209.327991
0
LINE
8
Calque 1
10
145.232010
20
209.327991
11
145.714937
21
209.951488
0
LINE
8
Calque 1
10
145.714937
20
209.951488
11
146.113822
21
211.031304
0
LINE
8
Calque 1
10
146.113822
20
211.031304
11
147.358952
21
217.123593
0
LINE
8
Calque 1
10
147.358952
20
217.123593
11
150.503952
21
235.313331
0
LINE
8
Calque 1
10
150.503952
20
235.313331
11
151.806015
21
247.578413
0
LINE
8
Calque 1
10
151.806015
20
247.578413
11
152.243375
21
252.359714
0
LINE
8
Calque 1
10
152.243375
20
252.359714
11
152.581283
21
256.257195
0
LINE
8
Calque 1
10
152.581283
20
256.257195
11
152.724804
21
258.179791
0
LINE
8
Calque 1
10
152.724804
20
258.179791
11
153.515791
21
258.408064
0
LINE
8
Calque 1
10
153.515791
20
258.408064
11
154.338974
21
258.577930
0
LINE
8
Calque 1
10
154.338974
20
258.577930
11
154.949207
21
258.524221
0
LINE
8
Calque 1
10
154.949207
20
258.524221
11
155.411446
21
258.225598
0
LINE
8
Calque 1
10
155.411446
20
258.225598
11
155.790643
21
257.660723
0
LINE
8
Calque 1
10
155.790643
20
257.660723
11
156.103761
21
256.475664
0
LINE
8
Calque 1
10
156.103761
20
256.475664
11
156.194226
21
254.669555
0
LINE
8
Calque 1
10
156.194226
20
254.669555
11
156.063245
21
252.364958
0
LINE
8
Calque 1
10
156.063245
20
252.364958
11
155.712027
21
249.684437
0
LINE
8
Calque 1
10
155.712027
20
249.684437
11
155.406437
21
247.432908
0
LINE
8
Calque 1
10
155.406437
20
247.432908
11
155.283483
21
245.418732
0
LINE
8
Calque 1
10
155.283483
20
245.418732
11
155.339560
21
243.425797
0
LINE
8
Calque 1
10
155.339560
20
243.425797
11
155.571060
21
241.237989
0
LINE
8
Calque 1
10
155.571060
20
241.237989
11
155.879549
21
238.951280
0
LINE
8
Calque 1
10
155.879549
20
238.951280
11
156.966279
21
238.004298
0
LINE
8
Calque 1
10
156.966279
20
238.004298
11
157.887454
21
237.073200
0
LINE
8
Calque 1
10
157.887454
20
237.073200
11
157.936136
21
236.726109
0
LINE
8
Calque 1
10
157.936136
20
236.726109
11
157.816389
21
236.237296
0
LINE
8
Calque 1
10
157.816389
20
236.237296
11
157.640540
21
234.730066
0
LINE
8
Calque 1
10
157.640540
20
234.730066
11
157.782244
21
232.761312
0
LINE
8
Calque 1
10
157.782244
20
232.761312
11
158.189989
21
230.502956
0
LINE
8
Calque 1
10
158.189989
20
230.502956
11
158.812265
21
228.126921
0
LINE
8
Calque 1
10
158.812265
20
228.126921
11
159.597558
21
225.805131
0
LINE
8
Calque 1
10
159.597558
20
225.805131
11
160.494357
21
223.709508
0
LINE
8
Calque 1
10
160.494357
20
223.709508
11
161.451151
21
222.011976
0
LINE
8
Calque 1
10
161.451151
20
222.011976
11
162.416428
21
220.884458
0
LINE
8
Calque 1
10
162.416428
20
220.884458
11
163.552832
21
220.140986
0
LINE
8
Calque 1
10
163.552832
20
220.140986
11
164.647025
21
220.846671
0
LINE
8
Calque 1
10
164.647025
20
220.846671
11
165.510292
21
221.549263
0
LINE
8
Calque 1
10
165.510292
20
221.549263
11
166.494940
21
226.280578
0
LINE
8
Calque 1
10
166.494940
20
226.280578
11
167.479585
21
231.011895
0
LINE
8
Calque 1
10
167.479585
20
231.011895
11
166.878937
21
231.343639
0
LINE
8
Calque 1
10
166.878937
20
231.343639
11
166.278292
21
231.675385
0
LINE
8
Calque 1
10
166.278292
20
231.675385
11
166.405131
21
233.546330
0
LINE
8
Calque 1
10
166.405131
20
233.546330
11
166.644951
21
235.329578
0
LINE
8
Calque 1
10
166.644951
20
235.329578
11
167.395336
21
236.716540
0
LINE
8
Calque 1
10
167.395336
20
236.716540
11
168.098829
21
237.634147
0
LINE
8
Calque 1
10
168.098829
20
237.634147
11
168.577819
21
238.015807
0
LINE
8
Calque 1
10
168.577819
20
238.015807
11
170.089235
21
237.681938
0
LINE
8
Calque 1
10
170.089235
20
237.681938
11
171.281536
21
237.348069
0
LINE
8
Calque 1
10
171.281536
20
237.348069
11
171.124141
21
235.447201
0
LINE
8
Calque 1
10
171.124141
20
235.447201
11
170.795800
21
231.155676
0
LINE
8
Calque 1
10
170.795800
20
231.155676
11
170.624856
21
228.765025
0
LINE
8
Calque 1
10
170.624856
20
228.765025
11
172.111393
21
227.371516
0
LINE
8
Calque 1
10
172.111393
20
227.371516
11
173.393256
21
226.038691
0
LINE
8
Calque 1
10
173.393256
20
226.038691
11
173.518694
21
225.613294
0
LINE
8
Calque 1
10
173.518694
20
225.613294
11
173.467847
21
225.063822
0
LINE
8
Calque 1
10
173.467847
20
225.063822
11
173.460384
21
223.701136
0
LINE
8
Calque 1
10
173.460384
20
223.701136
11
173.714018
21
221.903850
0
LINE
8
Calque 1
10
173.714018
20
221.903850
11
174.798310
21
217.661765
0
LINE
8
Calque 1
10
174.798310
20
217.661765
11
176.308177
21
213.650141
0
LINE
8
Calque 1
10
176.308177
20
213.650141
11
177.093782
21
212.140930
0
LINE
8
Calque 1
10
177.093782
20
212.140930
11
177.831075
21
211.181551
0
LINE
8
Calque 1
10
177.831075
20
211.181551
11
178.480164
21
210.837903
0
LINE
8
Calque 1
10
178.480164
20
210.837903
11
181.517885
21
221.956868
0
LINE
8
Calque 1
10
181.517885
20
221.956868
11
181.738564
21
222.516374
0
LINE
8
Calque 1
10
181.738564
20
222.516374
11
182.318302
21
222.629649
0
LINE
8
Calque 1
10
182.318302
20
222.629649
11
183.504109
21
222.494648
0
LINE
8
Calque 1
10
183.504109
20
222.494648
11
183.785878
21
222.392515
0
LINE
8
Calque 1
10
183.785878
20
222.392515
11
183.925201
21
222.202233
0
LINE
8
Calque 1
10
183.925201
20
222.202233
11
183.900707
21
221.129825
0
LINE
8
Calque 1
10
183.900707
20
221.129825
11
183.877884
21
219.986952
0
LINE
8
Calque 1
10
183.877884
20
219.986952
11
188.494803
21
233.064235
0
LINE
8
Calque 1
10
188.494803
20
233.064235
11
187.859385
21
233.234505
0
LINE
8
Calque 1
10
187.859385
20
233.234505
11
187.144008
21
233.375686
0
LINE
8
Calque 1
10
187.144008
20
233.375686
11
186.568599
21
233.777437
0
LINE
8
Calque 1
10
186.568599
20
233.777437
11
186.164209
21
234.407071
0
LINE
8
Calque 1
10
186.164209
20
234.407071
11
185.961892
21
235.231899
0
LINE
8
Calque 1
10
185.961892
20
235.231899
11
185.858398
21
236.269362
0
LINE
8
Calque 1
10
185.858398
20
236.269362
11
186.731111
21
236.648432
0
LINE
8
Calque 1
10
186.731111
20
236.648432
11
187.565390
21
236.901328
0
LINE
8
Calque 1
10
187.565390
20
236.901328
11
188.319085
21
236.889672
0
LINE
8
Calque 1
10
188.319085
20
236.889672
11
189.800693
21
236.604267
0
LINE
8
Calque 1
10
189.800693
20
236.604267
11
190.567042
21
236.456687
0
LINE
8
Calque 1
10
190.567042
20
236.456687
11
190.284219
21
234.303066
0
LINE
8
Calque 1
10
190.284219
20
234.303066
11
189.613274
21
230.410944
0
LINE
8
Calque 1
10
189.613274
20
230.410944
11
188.472552
21
225.311969
0
LINE
8
Calque 1
10
188.472552
20
225.311969
11
187.960275
21
223.568006
0
LINE
8
Calque 1
10
187.960275
20
223.568006
11
187.695998
21
223.253658
0
LINE
8
Calque 1
10
187.695998
20
223.253658
11
187.302750
21
223.074793
0
LINE
8
Calque 1
10
187.302750
20
223.074793
11
186.905858
21
222.907675
0
LINE
8
Calque 1
10
186.905858
20
222.907675
11
186.685978
21
222.640686
0
LINE
8
Calque 1
10
186.685978
20
222.640686
11
186.475601
21
221.079394
0
LINE
8
Calque 1
10
186.475601
20
221.079394
11
186.172433
21
219.225659
0
LINE
8
Calque 1
10
186.172433
20
219.225659
11
185.381925
21
217.080085
0
LINE
8
Calque 1
10
185.381925
20
217.080085
11
182.113453
21
208.426274
0
LINE
8
Calque 1
10
182.113453
20
208.426274
11
180.719342
21
204.229901
0
LINE
8
Calque 1
10
180.719342
20
204.229901
11
179.976193
21
201.532390
0
LINE
8
Calque 1
10
179.976193
20
201.532390
11
179.433965
21
196.127439
0
LINE
8
Calque 1
10
179.433965
20
196.127439
11
178.466138
21
182.926887
0
LINE
8
Calque 1
10
178.466138
20
182.926887
11
177.688524
21
171.434290
0
LINE
8
Calque 1
10
177.688524
20
171.434290
11
177.588726
21
168.411963
0
LINE
8
Calque 1
10
177.588726
20
168.411963
11
177.621719
21
167.794999
0
LINE
8
Calque 1
10
177.621719
20
167.794999
11
177.714027
21
167.855391
0
LINE
8
Calque 1
10
177.714027
20
167.855391
11
178.476975
21
170.869690
0
LINE
8
Calque 1
10
178.476975
20
170.869690
11
179.772223
21
175.130800
0
LINE
8
Calque 1
10
179.772223
20
175.130800
11
181.552613
21
179.352155
0
LINE
8
Calque 1
10
181.552613
20
179.352155
11
183.733864
21
183.358716
0
LINE
8
Calque 1
10
183.733864
20
183.358716
11
186.231699
21
186.975444
0
LINE
8
Calque 1
10
186.231699
20
186.975444
11
187.250465
21
188.434542
0
LINE
8
Calque 1
10
187.250465
20
188.434542
11
187.354668
21
188.892410
0
LINE
8
Calque 1
10
187.354668
20
188.892410
11
187.303297
21
189.431720
0
LINE
8
Calque 1
10
187.303297
20
189.431720
11
187.260206
21
190.410598
0
LINE
8
Calque 1
10
187.260206
20
190.410598
11
187.432464
21
191.286830
0
LINE
8
Calque 1
10
187.432464
20
191.286830
11
187.800291
21
192.002126
0
LINE
8
Calque 1
10
187.800291
20
192.002126
11
188.343907
21
192.498197
0
LINE
8
Calque 1
10
188.343907
20
192.498197
11
189.232837
21
192.873609
0
LINE
8
Calque 1
10
189.232837
20
192.873609
11
189.964782
21
192.526346
0
LINE
8
Calque 1
10
189.964782
20
192.526346
11
190.463582
21
192.156680
0
LINE
8
Calque 1
10
190.463582
20
192.156680
11
189.778705
21
189.152876
0
LINE
8
Calque 1
10
189.778705
20
189.152876
11
189.060033
21
186.427716
0
LINE
8
Calque 1
10
189.060033
20
186.427716
11
188.701841
21
185.841160
0
LINE
8
Calque 1
10
188.701841
20
185.841160
11
188.146862
21
185.306291
0
LINE
8
Calque 1
10
188.146862
20
185.306291
11
187.599914
21
184.796448
0
LINE
8
Calque 1
10
187.599914
20
184.796448
11
187.318728
21
184.386117
0
LINE
8
Calque 1
10
187.318728
20
184.386117
11
187.199902
21
183.003945
0
LINE
8
Calque 1
10
187.199902
20
183.003945
11
187.065025
21
181.575305
0
LINE
8
Calque 1
10
187.065025
20
181.575305
11
186.205887
21
180.312719
0
LINE
8
Calque 1
10
186.205887
20
180.312719
11
184.736061
21
178.089142
0
LINE
8
Calque 1
10
184.736061
20
178.089142
11
183.663240
21
175.505465
0
LINE
8
Calque 1
10
183.663240
20
175.505465
11
182.950494
21
172.444952
0
LINE
8
Calque 1
10
182.950494
20
172.444952
11
182.560891
21
168.790864
0
LINE
8
Calque 1
10
182.560891
20
168.790864
11
182.325713
21
165.984446
0
LINE
8
Calque 1
10
182.325713
20
165.984446
11
182.222027
21
165.360797
0
LINE
8
Calque 1
10
182.222027
20
165.360797
11
182.596022
21
165.984446
0
LINE
8
Calque 1
10
182.596022
20
165.984446
11
185.647988
21
172.013046
0
LINE
8
Calque 1
10
185.647988
20
172.013046
11
187.891566
21
176.731531
0
LINE
8
Calque 1
10
187.891566
20
176.731531
11
188.292789
21
177.881128
0
LINE
8
Calque 1
10
188.292789
20
177.881128
11
188.438731
21
178.769234
0
LINE
8
Calque 1
10
188.438731
20
178.769234
11
188.731191
21
180.399879
0
LINE
8
Calque 1
10
188.731191
20
180.399879
11
188.958555
21
180.740845
0
LINE
8
Calque 1
10
188.958555
20
180.740845
11
189.243877
21
180.775208
0
LINE
8
Calque 1
10
189.243877
20
180.775208
11
189.398953
21
180.825949
0
LINE
8
Calque 1
10
189.398953
20
180.825949
11
189.566310
21
181.105229
0
LINE
8
Calque 1
10
189.566310
20
181.105229
11
189.976433
21
182.436876
0
LINE
8
Calque 1
10
189.976433
20
182.436876
11
190.517104
21
184.068994
0
LINE
8
Calque 1
10
190.517104
20
184.068994
11
191.381857
21
185.229140
0
LINE
8
Calque 1
10
191.381857
20
185.229140
11
192.188090
21
186.229013
0
LINE
8
Calque 1
10
192.188090
20
186.229013
11
192.984796
21
187.501987
0
LINE
8
Calque 1
10
192.984796
20
187.501987
11
194.643494
21
191.034313
0
LINE
8
Calque 1
10
194.643494
20
191.034313
11
196.130106
21
194.062331
0
LINE
8
Calque 1
10
196.130106
20
194.062331
11
196.901863
21
195.180240
0
LINE
8
Calque 1
10
196.901863
20
195.180240
11
197.706536
21
196.056954
0
LINE
8
Calque 1
10
197.706536
20
196.056954
11
199.218611
21
197.072374
0
LINE
8
Calque 1
10
199.218611
20
197.072374
11
199.876290
21
197.351300
0
LINE
8
Calque 1
10
199.876290
20
197.351300
11
200.146584
21
197.312157
0
LINE
8
Calque 1
10
200.146584
20
197.312157
11
199.641119
21
195.590318
0
LINE
8
Calque 1
10
199.641119
20
195.590318
11
198.239418
21
192.304433
0
LINE
8
Calque 1
10
198.239418
20
192.304433
11
193.272735
21
182.195979
0
LINE
8
Calque 1
10
193.272735
20
182.195979
11
190.723242
21
177.134328
0
LINE
8
Calque 1
10
190.723242
20
177.134328
11
188.949517
21
173.238748
0
LINE
8
Calque 1
10
188.949517
20
173.238748
11
187.707603
21
169.926117
0
LINE
8
Calque 1
10
187.707603
20
169.926117
11
186.753545
21
166.613311
0
LINE
8
Calque 1
10
186.753545
20
166.613311
11
186.167676
21
163.795827
0
LINE
8
Calque 1
10
186.167676
20
163.795827
11
186.125680
21
163.029505
0
LINE
8
Calque 1
10
186.125680
20
163.029505
11
186.260049
21
162.762264
0
LINE
8
Calque 1
10
186.260049
20
162.762264
11
187.285178
21
163.309561
0
LINE
8
Calque 1
10
187.285178
20
163.309561
11
188.222732
21
164.032292
0
LINE
8
Calque 1
10
188.222732
20
164.032292
11
189.130437
21
164.979681
0
LINE
8
Calque 1
10
189.130437
20
164.979681
11
189.892488
21
166.014267
0
LINE
8
Calque 1
10
189.892488
20
166.014267
11
190.393077
21
166.998589
0
LINE
8
Calque 1
10
190.393077
20
166.998589
11
190.810974
21
167.835905
0
LINE
8
Calque 1
10
190.810974
20
167.835905
11
191.358495
21
168.215633
0
LINE
8
Calque 1
10
191.358495
20
168.215633
11
191.937618
21
168.607755
0
LINE
8
Calque 1
10
191.937618
20
168.607755
11
192.488109
21
169.292951
0
LINE
8
Calque 1
10
192.488109
20
169.292951
11
193.586389
21
170.653499
0
LINE
8
Calque 1
10
193.586389
20
170.653499
11
194.166523
21
171.023478
0
LINE
8
Calque 1
10
194.166523
20
171.023478
11
194.797683
21
171.211823
0
LINE
8
Calque 1
10
194.797683
20
171.211823
11
195.551211
21
171.329611
0
LINE
8
Calque 1
10
195.551211
20
171.329611
11
195.687549
21
170.220771
0
LINE
8
Calque 1
10
195.687549
20
170.220771
11
195.823888
21
169.111937
0
LINE
8
Calque 1
10
195.823888
20
169.111937
11
194.750227
21
168.125534
0
LINE
8
Calque 1
10
194.750227
20
168.125534
11
193.812109
21
167.151616
0
LINE
8
Calque 1
10
193.812109
20
167.151616
11
192.984536
21
166.070988
0
LINE
8
Calque 1
10
192.984536
20
166.070988
11
192.310621
21
164.946951
0
LINE
8
Calque 1
10
192.310621
20
164.946951
11
191.833477
21
163.842811
0
LINE
8
Calque 1
10
191.833477
20
163.842811
11
191.509357
21
163.102987
0
LINE
8
Calque 1
10
191.509357
20
163.102987
11
191.238477
21
162.821427
0
LINE
8
Calque 1
10
191.238477
20
162.821427
11
190.965037
21
162.672528
0
LINE
8
Calque 1
10
190.965037
20
162.672528
11
190.677356
21
162.208318
0
LINE
8
Calque 1
10
190.677356
20
162.208318
11
190.280499
21
160.800634
0
LINE
8
Calque 1
10
190.280499
20
160.800634
11
190.185921
21
159.955847
0
LINE
8
Calque 1
10
190.185921
20
159.955847
11
192.182050
21
158.708551
0
LINE
8
Calque 1
10
192.182050
20
158.708551
11
194.020565
21
157.395367
0
LINE
8
Calque 1
10
194.020565
20
157.395367
11
195.949444
21
155.754342
0
LINE
8
Calque 1
10
195.949444
20
155.754342
11
197.671408
21
154.057287
0
LINE
8
Calque 1
10
197.671408
20
154.057287
11
198.889183
21
152.576012
0
LINE
8
Calque 1
10
198.889183
20
152.576012
11
200.439304
21
149.908027
0
LINE
8
Calque 1
10
200.439304
20
149.908027
11
201.452799
21
147.230634
0
LINE
8
Calque 1
10
201.452799
20
147.230634
11
201.970014
21
144.398615
0
LINE
8
Calque 1
10
201.970014
20
144.398615
11
202.031295
21
141.266750
0
LINE
8
Calque 1
10
202.031295
20
141.266750
11
201.594684
21
137.090904
0
LINE
8
Calque 1
10
201.594684
20
137.090904
11
200.434070
21
131.859955
0
LINE
8
Calque 1
10
200.434070
20
131.859955
11
199.635666
21
128.709986
0
LINE
8
Calque 1
10
199.635666
20
128.709986
11
200.292454
21
127.989450
0
LINE
8
Calque 1
10
200.292454
20
127.989450
11
200.670130
21
127.540816
0
LINE
8
Calque 1
10
200.670130
20
127.540816
11
200.854046
21
127.101449
0
LINE
8
Calque 1
10
200.854046
20
127.101449
11
200.847960
21
125.214762
0
LINE
8
Calque 1
10
200.847960
20
125.214762
11
200.855756
21
123.254796
0
LINE
8
Calque 1
10
200.855756
20
123.254796
11
201.274372
21
121.649582
0
LINE
8
Calque 1
10
201.274372
20
121.649582
11
201.802060
21
120.138553
0
LINE
8
Calque 1
10
201.802060
20
120.138553
11
201.087141
21
119.334036
0
LINE
8
Calque 1
10
201.087141
20
119.334036
11
200.674566
21
118.823911
0
LINE
8
Calque 1
10
200.674566
20
118.823911
11
200.440359
21
118.266031
0
LINE
8
Calque 1
10
200.440359
20
118.266031
11
200.181097
21
115.699457
0
LINE
8
Calque 1
10
200.181097
20
115.699457
11
200.055563
21
113.919569
0
LINE
8
Calque 1
10
200.055563
20
113.919569
11
199.828364
21
112.952678
0
LINE
8
Calque 1
10
199.828364
20
112.952678
11
199.246141
21
112.288120
0
LINE
8
Calque 1
10
199.246141
20
112.288120
11
198.055535
21
111.415233
0
LINE
8
Calque 1
10
198.055535
20
111.415233
11
197.340144
21
110.895526
0
LINE
8
Calque 1
10
197.340144
20
110.895526
11
197.249833
21
107.777287
0
LINE
8
Calque 1
10
197.249833
20
107.777287
11
197.073849
21
104.963222
0
LINE
8
Calque 1
10
197.073849
20
104.963222
11
196.696483
21
102.586672
0
LINE
8
Calque 1
10
196.696483
20
102.586672
11
196.074455
21
100.452284
0
LINE
8
Calque 1
10
196.074455
20
100.452284
11
195.164484
21
98.364702
0
LINE
8
Calque 1
10
195.164484
20
98.364702
11
194.109177
21
96.490398
0
LINE
8
Calque 1
10
194.109177
20
96.490398
11
193.681366
21
96.080013
0
LINE
8
Calque 1
10
193.681366
20
96.080013
11
193.128048
21
95.776715
0
LINE
8
Calque 1
10
193.128048
20
95.776715
11
192.163692
21
95.325417
0
LINE
8
Calque 1
10
192.163692
20
95.325417
11
192.163692
21
93.359609
0
LINE
8
Calque 1
10
192.163692
20
93.359609
11
192.076101
21
91.595949
0
LINE
8
Calque 1
10
192.076101
20
91.595949
11
191.613166
21
90.698556
0
LINE
8
Calque 1
10
191.613166
20
90.698556
11
191.074781
21
90.186373
0
LINE
8
Calque 1
10
191.074781
20
90.186373
11
190.558225
21
90.003315
0
LINE
8
Calque 1
10
190.558225
20
90.003315
11
187.939515
21
89.402340
0
LINE
8
Calque 1
10
187.939515
20
89.402340
11
184.572583
21
88.194553
0
LINE
8
Calque 1
10
184.572583
20
88.194553
11
183.183179
21
87.484044
0
LINE
8
Calque 1
10
183.183179
20
87.484044
11
182.631179
21
86.899184
0
LINE
8
Calque 1
10
182.631179
20
86.899184
11
182.422649
21
83.435843
0
LINE
8
Calque 1
10
182.422649
20
83.435843
11
182.218835
21
75.763350
0
LINE
8
Calque 1
10
182.218835
20
75.763350
11
181.914524
21
64.734315
0
LINE
8
Calque 1
10
181.914524
20
64.734315
11
181.401675
21
58.613024
0
LINE
8
Calque 1
10
181.401675
20
58.613024
11
180.600305
21
51.500751
0
LINE
8
Calque 1
10
180.600305
20
51.500751
11
180.461006
21
50.105258
0
LINE
8
Calque 1
10
180.461006
20
50.105258
11
179.619354
21
50.518840
0
LINE
8
Calque 1
10
179.619354
20
50.518840
11
178.965281
21
50.942104
0
LINE
8
Calque 1
10
178.965281
20
50.942104
11
178.879201
21
51.394638
0
LINE
8
Calque 1
10
178.879201
20
51.394638
11
179.237338
21
58.355835
0
LINE
8
Calque 1
10
179.237338
20
58.355835
11
179.385882
21
64.917565
0
LINE
8
Calque 1
10
179.385882
20
64.917565
11
179.222459
21
71.660330
0
LINE
8
Calque 1
10
179.222459
20
71.660330
11
178.826841
21
78.956430
0
LINE
8
Calque 1
10
178.826841
20
78.956430
11
178.561645
21
79.953857
0
LINE
8
Calque 1
10
178.561645
20
79.953857
11
178.372198
21
80.099888
0
LINE
8
Calque 1
10
178.372198
20
80.099888
11
178.129613
21
80.128885
0
LINE
8
Calque 1
10
178.129613
20
80.128885
11
177.832625
21
80.094876
0
LINE
8
Calque 1
10
177.832625
20
80.094876
11
177.653634
21
79.925591
0
LINE
8
Calque 1
10
177.653634
20
79.925591
11
177.445261
21
78.777647
0
LINE
8
Calque 1
10
177.445261
20
78.777647
11
175.958729
21
66.096801
0
LINE
8
Calque 1
10
175.958729
20
66.096801
11
175.017046
21
59.028791
0
LINE
8
Calque 1
10
175.017046
20
59.028791
11
174.036118
21
51.389101
0
LINE
8
Calque 1
10
174.036118
20
51.389101
11
173.496574
21
46.962736
0
LINE
8
Calque 1
10
173.496574
20
46.962736
11
173.171795
21
43.376761
0
LINE
8
Calque 1
10
173.171795
20
43.376761
11
173.136943
21
42.753586
0
LINE
8
Calque 1
10
173.136943
20
42.753586
11
172.985283
21
42.465426
0
LINE
8
Calque 1
10
172.985283
20
42.465426
11
172.646158
21
42.471694
0
LINE
8
Calque 1
10
172.646158
20
42.471694
11
172.048915
21
42.731804
0
LINE
8
Calque 1
10
172.048915
20
42.731804
11
171.379103
21
43.065456
0
LINE
8
Calque 1
10
171.379103
20
43.065456
11
171.521628
21
46.733546
0
LINE
8
Calque 1
10
171.521628
20
46.733546
11
171.877694
21
53.831723
0
LINE
8
Calque 1
10
171.877694
20
53.831723
11
172.315838
21
61.107618
0
LINE
8
Calque 1
10
172.315838
20
61.107618
11
173.824570
21
82.471493
0
LINE
8
Calque 1
10
173.824570
20
82.471493
11
174.010749
21
85.400063
0
LINE
8
Calque 1
10
174.010749
20
85.400063
11
173.941019
21
86.318991
0
LINE
8
Calque 1
10
173.941019
20
86.318991
11
173.702961
21
86.970382
0
LINE
8
Calque 1
10
173.702961
20
86.970382
11
173.251738
21
87.426262
0
LINE
8
Calque 1
10
173.251738
20
87.426262
11
172.542514
21
87.758656
0
LINE
8
Calque 1
10
172.542514
20
87.758656
11
170.170718
21
88.341094
0
LINE
8
Calque 1
10
170.170718
20
88.341094
11
167.228794
21
88.914217
0
LINE
8
Calque 1
10
167.228794
20
88.914217
11
164.245736
21
79.817063
0
LINE
8
Calque 1
10
164.245736
20
79.817063
11
162.055783
21
72.220112
0
LINE
8
Calque 1
10
162.055783
20
72.220112
11
159.921639
21
63.896207
0
LINE
8
Calque 1
10
159.921639
20
63.896207
11
158.059516
21
55.737127
0
LINE
8
Calque 1
10
158.059516
20
55.737127
11
156.685623
21
48.634654
0
LINE
8
Calque 1
10
156.685623
20
48.634654
11
155.153558
21
38.760226
0
LINE
8
Calque 1
10
155.153558
20
38.760226
11
154.513839
21
33.667100
0
LINE
8
Calque 1
10
154.513839
20
33.667100
11
154.079496
21
29.509445
0
LINE
8
Calque 1
10
154.079496
20
29.509445
11
153.820963
21
26.837012
0
LINE
8
Calque 1
10
153.820963
20
26.837012
11
153.692425
21
25.931558
0
LINE
8
Calque 1
10
153.692425
20
25.931558
11
152.221212
21
26.011625
0
LINE
8
Calque 1
10
152.221212
20
26.011625
11
150.619790
21
26.217111
0
LINE
8
Calque 1
10
150.619790
20
26.217111
11
150.700418
21
27.666153
0
LINE
8
Calque 1
10
150.700418
20
27.666153
11
151.257878
21
31.172507
0
LINE
8
Calque 1
10
151.257878
20
31.172507
11
153.594171
21
45.021589
0
LINE
8
Calque 1
10
153.594171
20
45.021589
11
155.373626
21
53.312016
0
LINE
8
Calque 1
10
155.373626
20
53.312016
11
155.475751
21
53.828471
0
LINE
8
Calque 1
10
155.475751
20
53.828471
11
155.317160
21
53.596195
0
LINE
8
Calque 1
10
155.317160
20
53.596195
11
154.185422
21
50.817423
0
LINE
8
Calque 1
10
154.185422
20
50.817423
11
151.801398
21
44.901116
0
LINE
8
Calque 1
10
151.801398
20
44.901116
11
149.612802
21
39.889915
0
LINE
8
Calque 1
10
149.612802
20
39.889915
11
147.798440
21
36.173661
0
LINE
8
Calque 1
10
147.798440
20
36.173661
11
146.537116
21
34.142193
0
LINE
8
Calque 1
10
146.537116
20
34.142193
11
146.219766
21
33.709529
0
LINE
8
Calque 1
10
146.219766
20
33.709529
11
146.020982
21
33.148096
0
LINE
8
Calque 1
10
146.020982
20
33.148096
11
145.753353
21
30.626170
0
LINE
8
Calque 1
10
145.753353
20
30.626170
11
145.560140
21
28.635047
0
LINE
8
Calque 1
10
145.560140
20
28.635047
11
145.288708
21
27.477122
0
LINE
8
Calque 1
10
145.288708
20
27.477122
11
144.849633
21
26.938917
0
LINE
8
Calque 1
10
144.849633
20
26.938917
11
144.153486
21
26.806955
0
LINE
8
Calque 1
10
144.153486
20
26.806955
11
142.839183
21
27.018622
0
LINE
8
Calque 1
10
142.839183
20
27.018622
11
142.515634
21
27.162102
0
LINE
8
Calque 1
10
142.515634
20
27.162102
11
142.359723
21
27.364457
0
LINE
8
Calque 1
10
142.359723
20
27.364457
11
142.402758
21
28.421831
0
LINE
8
Calque 1
10
142.402758
20
28.421831
11
142.732884
21
30.652800
0
LINE
8
Calque 1
10
142.732884
20
30.652800
11
143.181942
21
33.281644
0
LINE
8
Calque 1
10
143.181942
20
33.281644
11
143.482834
21
34.600741
0
LINE
8
Calque 1
10
143.482834
20
34.600741
11
143.909847
21
35.076233
0
LINE
8
Calque 1
10
143.909847
20
35.076233
11
144.244280
21
35.429019
0
LINE
8
Calque 1
10
144.244280
20
35.429019
11
144.572131
21
36.204918
0
LINE
8
Calque 1
10
144.572131
20
36.204918
11
145.240282
21
39.124019
0
LINE
8
Calque 1
10
145.240282
20
39.124019
11
145.450966
21
39.756493
0
LINE
8
Calque 1
10
145.450966
20
39.756493
11
145.897687
21
39.903582
0
LINE
8
Calque 1
10
145.897687
20
39.903582
11
146.289501
21
40.023137
0
LINE
8
Calque 1
10
146.289501
20
40.023137
11
146.741687
21
40.655485
0
LINE
8
Calque 1
10
146.741687
20
40.655485
11
148.718431
21
45.100648
0
LINE
8
Calque 1
10
148.718431
20
45.100648
11
150.949165
21
50.801264
0
LINE
8
Calque 1
10
150.949165
20
50.801264
11
152.532388
21
55.332349
0
LINE
8
Calque 1
10
152.532388
20
55.332349
11
152.530924
21
55.700150
0
LINE
8
Calque 1
10
152.530924
20
55.700150
11
152.128207
21
56.151962
0
LINE
8
Calque 1
10
152.128207
20
56.151962
11
148.948752
21
58.265445
0
LINE
8
Calque 1
10
148.948752
20
58.265445
11
143.563212
21
61.577705
0
LINE
8
Calque 1
10
143.563212
20
61.577705
11
140.116027
21
63.392370
0
LINE
8
Calque 1
10
140.116027
20
63.392370
11
138.734595
21
63.912578
0
LINE
8
Calque 1
10
138.734595
20
63.912578
11
137.655845
21
63.753838
0
LINE
8
Calque 1
10
137.655845
20
63.753838
11
137.066955
21
63.565422
0
LINE
8
Calque 1
10
137.066955
20
63.565422
11
136.708164
21
63.326027
0
LINE
8
Calque 1
10
136.708164
20
63.326027
11
136.162875
21
62.131348
0
LINE
8
Calque 1
10
136.162875
20
62.131348
11
135.436548
21
60.358349
0
LINE
8
Calque 1
10
135.436548
20
60.358349
11
134.513451
21
58.633236
0
LINE
8
Calque 1
10
134.513451
20
58.633236
11
133.347971
21
56.880043
0
LINE
8
Calque 1
10
133.347971
20
56.880043
11
131.894493
21
55.022802
0
LINE
8
Calque 1
10
131.894493
20
55.022802
11
130.547940
21
53.407467
0
LINE
8
Calque 1
10
130.547940
20
53.407467
11
128.855295
21
53.457462
0
LINE
8
Calque 1
10
128.855295
20
53.457462
11
127.162647
21
53.507458
0
LINE
8
Calque 1
10
127.162647
20
53.507458
11
126.257620
21
51.954558
0
LINE
8
Calque 1
10
126.257620
20
51.954558
11
125.387568
21
50.650051
0
LINE
8
Calque 1
10
125.387568
20
50.650051
11
125.054693
21
50.419733
0
LINE
8
Calque 1
10
125.054693
20
50.419733
11
124.657033
21
50.336361
0
LINE
8
Calque 1
10
124.657033
20
50.336361
11
124.244710
21
50.240438
0
LINE
8
Calque 1
10
124.244710
20
50.240438
11
123.863930
21
49.943073
0
LINE
8
Calque 1
10
123.863930
20
49.943073
11
122.655632
21
48.153592
0
LINE
8
Calque 1
10
122.655632
20
48.153592
11
119.435499
21
42.287692
0
LINE
8
Calque 1
10
119.435499
20
42.287692
11
117.999245
21
39.317149
0
LINE
8
Calque 1
10
117.999245
20
39.317149
11
117.085443
21
37.126433
0
LINE
8
Calque 1
10
117.085443
20
37.126433
11
116.269666
21
35.114025
0
LINE
8
Calque 1
10
116.269666
20
35.114025
11
114.684147
21
34.635063
0
LINE
8
Calque 1
10
114.684147
20
34.635063
11
112.820766
21
34.290746
0
LINE
8
Calque 1
10
112.820766
20
34.290746
11
112.649984
21
34.639925
0
LINE
8
Calque 1
10
112.649984
20
34.639925
11
112.560753
21
36.131177
0
LINE
8
Calque 1
10
112.560753
20
36.131177
11
112.564387
21
45.202200
0
LINE
8
Calque 1
10
112.564387
20
45.202200
11
112.568338
21
54.250887
0
LINE
8
Calque 1
10
112.568338
20
54.250887
11
112.480135
21
55.719438
0
LINE
8
Calque 1
10
112.480135
20
55.719438
11
112.311403
21
56.023861
0
LINE
8
Calque 1
10
112.311403
20
56.023861
11
108.696469
21
55.082249
0
LINE
8
Calque 1
10
108.696469
20
55.082249
11
107.934502
21
54.793429
0
LINE
8
Calque 1
10
107.934502
20
54.793429
11
107.779247
21
54.263562
0
LINE
8
Calque 1
10
107.779247
20
54.263562
11
107.742102
21
53.882696
0
LINE
8
Calque 1
10
107.742102
20
53.882696
11
107.167627
21
53.497777
0
LINE
8
Calque 1
10
107.167627
20
53.497777
11
101.628462
21
51.440750
0
LINE
8
Calque 1
10
101.628462
20
51.440750
11
99.945765
21
50.754250
0
LINE
8
Calque 1
10
99.945765
20
50.754250
11
98.930751
21
50.196249
0
LINE
8
Calque 1
10
98.930751
20
50.196249
11
98.113280
21
49.779698
0
LINE
8
Calque 1
10
98.113280
20
49.779698
11
96.664673
21
49.476560
0
LINE
8
Calque 1
10
96.664673
20
49.476560
11
94.874976
21
49.134716
0
LINE
8
Calque 1
10
94.874976
20
49.134716
11
93.322471
21
48.677733
0
LINE
8
Calque 1
10
93.322471
20
48.677733
11
92.069704
21
48.128052
0
LINE
8
Calque 1
10
92.069704
20
48.128052
11
91.179221
21
47.508116
0
LINE
8
Calque 1
10
91.179221
20
47.508116
11
90.404371
21
46.779322
0
LINE
8
Calque 1
10
90.404371
20
46.779322
11
88.834330
21
46.906111
0
LINE
8
Calque 1
10
88.834330
20
46.906111
11
87.444960
21
46.939868
0
LINE
8
Calque 1
10
87.444960
20
46.939868
11
86.784234
21
46.598486
0
LINE
8
Calque 1
10
86.784234
20
46.598486
11
85.923938
21
46.013594
0
LINE
8
Calque 1
10
85.923938
20
46.013594
11
84.779599
21
45.506046
0
LINE
8
Calque 1
10
84.779599
20
45.506046
11
83.497830
21
45.129285
0
LINE
8
Calque 1
10
83.497830
20
45.129285
11
82.225247
21
44.936753
0
LINE
8
Calque 1
10
82.225247
20
44.936753
11
80.744116
21
44.704775
0
LINE
8
Calque 1
10
80.744116
20
44.704775
11
79.522845
21
43.805039
0
LINE
8
Calque 1
10
79.522845
20
43.805039
11
78.436684
21
42.978743
0
LINE
8
Calque 1
10
78.436684
20
42.978743
11
77.647873
21
42.856202
0
LINE
8
Calque 1
10
77.647873
20
42.856202
11
77.085233
21
42.841238
0
LINE
8
Calque 1
10
77.085233
20
42.841238
11
76.839549
21
42.614767
0
LINE
8
Calque 1
10
76.839549
20
42.614767
11
75.946294
21
40.319346
0
LINE
8
Calque 1
10
75.946294
20
40.319346
11
74.454722
21
36.325615
0
LINE
8
Calque 1
10
74.454722
20
36.325615
11
73.136456
21
32.313380
0
LINE
8
Calque 1
10
73.136456
20
32.313380
11
72.116916
21
28.692167
0
LINE
8
Calque 1
10
72.116916
20
28.692167
11
71.521523
21
25.871502
0
LINE
8
Calque 1
10
71.521523
20
25.871502
11
71.089294
21
24.094927
0
LINE
8
Calque 1
10
71.089294
20
24.094927
11
70.183829
21
22.025659
0
LINE
8
Calque 1
10
70.183829
20
22.025659
11
68.774696
21
18.631789
0
LINE
8
Calque 1
10
68.774696
20
18.631789
11
68.442047
21
17.331747
0
LINE
8
Calque 1
10
68.442047
20
17.331747
11
68.418989
21
16.489673
0
LINE
8
Calque 1
10
68.418989
20
16.489673
11
68.422378
21
16.084889
0
LINE
8
Calque 1
10
68.422378
20
16.084889
11
67.930454
21
16.028211
0
LINE
8
Calque 1
10
67.930454
20
16.028211
11
66.700372
21
16.147789
0
LINE
8
Calque 1
10
66.700372
20
16.147789
11
66.700372
21
16.147789
0
LINE
8
Calque 1
10
157.106792
20
59.887210
11
157.342715
21
62.158684
0
LINE
8
Calque 1
10
157.342715
20
62.158684
11
157.236000
21
62.767713
0
LINE
8
Calque 1
10
157.236000
20
62.767713
11
156.981409
21
62.978562
0
LINE
8
Calque 1
10
156.981409
20
62.978562
11
156.831443
21
62.627435
0
LINE
8
Calque 1
10
156.831443
20
62.627435
11
156.768171
21
61.783235
0
LINE
8
Calque 1
10
156.768171
20
61.783235
11
156.630139
21
59.132731
0
LINE
8
Calque 1
10
156.630139
20
59.132731
11
156.614817
21
57.782583
0
LINE
8
Calque 1
10
156.614817
20
57.782583
11
157.106792
21
59.887210
0
LINE
8
Calque 1
10
157.106792
20
59.887210
11
157.106792
21
59.887210
0
LINE
8
Calque 1
10
183.645734
20
95.150018
11
183.689211
21
95.246756
0
LINE
8
Calque 1
10
183.689211
20
95.246756
11
183.467382
21
95.352271
0
LINE
8
Calque 1
10
183.467382
20
95.352271
11
182.191144
21
95.601001
0
LINE
8
Calque 1
10
182.191144
20
95.601001
11
177.528515
21
96.527395
0
LINE
8
Calque 1
10
177.528515
20
96.527395
11
172.254573
21
97.921427
0
LINE
8
Calque 1
10
172.254573
20
97.921427
11
170.797810
21
98.353229
0
LINE
8
Calque 1
10
170.797810
20
98.353229
11
170.797810
21
99.150118
0
LINE
8
Calque 1
10
170.797810
20
99.150118
11
170.678292
21
99.867117
0
LINE
8
Calque 1
10
170.678292
20
99.867117
11
170.216181
21
100.355116
0
LINE
8
Calque 1
10
170.216181
20
100.355116
11
169.884960
21
100.611801
0
LINE
8
Calque 1
10
169.884960
20
100.611801
11
169.740219
21
100.879041
0
LINE
8
Calque 1
10
169.740219
20
100.879041
11
169.888795
21
102.087489
0
LINE
8
Calque 1
10
169.888795
20
102.087489
11
170.788307
21
105.397166
0
LINE
8
Calque 1
10
170.788307
20
105.397166
11
171.466827
21
107.157559
0
LINE
8
Calque 1
10
171.466827
20
107.157559
11
171.807471
21
107.544987
0
LINE
8
Calque 1
10
171.807471
20
107.544987
11
172.302689
21
107.853086
0
LINE
8
Calque 1
10
172.302689
20
107.853086
11
172.999818
21
108.348783
0
LINE
8
Calque 1
10
172.999818
20
108.348783
11
173.171795
21
108.921393
0
LINE
8
Calque 1
10
173.171795
20
108.921393
11
173.301933
21
109.433442
0
LINE
8
Calque 1
10
173.301933
20
109.433442
11
173.981110
21
109.583710
0
LINE
8
Calque 1
10
173.981110
20
109.583710
11
174.667586
21
109.740412
0
LINE
8
Calque 1
10
174.667586
20
109.740412
11
174.854658
21
110.271880
0
LINE
8
Calque 1
10
174.854658
20
110.271880
11
174.945169
21
110.643472
0
LINE
8
Calque 1
10
174.945169
20
110.643472
11
175.307571
21
110.923904
0
LINE
8
Calque 1
10
175.307571
20
110.923904
11
177.962995
21
111.736726
0
LINE
8
Calque 1
10
177.962995
20
111.736726
11
180.430771
21
112.496042
0
LINE
8
Calque 1
10
180.430771
20
112.496042
11
180.957728
21
112.760008
0
LINE
8
Calque 1
10
180.957728
20
112.760008
11
181.173112
21
113.010209
0
LINE
8
Calque 1
10
181.173112
20
113.010209
11
181.156617
21
113.282490
0
LINE
8
Calque 1
10
181.156617
20
113.282490
11
180.663773
21
113.584373
0
LINE
8
Calque 1
10
180.663773
20
113.584373
11
176.985690
21
114.824243
0
LINE
8
Calque 1
10
176.985690
20
114.824243
11
173.151661
21
116.134583
0
LINE
8
Calque 1
10
173.151661
20
116.134583
11
172.261709
21
116.594702
0
LINE
8
Calque 1
10
172.261709
20
116.594702
11
171.559079
21
117.136741
0
LINE
8
Calque 1
10
171.559079
20
117.136741
11
170.185235
21
118.067482
0
LINE
8
Calque 1
10
170.185235
20
118.067482
11
168.824583
21
118.430112
0
LINE
8
Calque 1
10
168.824583
20
118.430112
11
167.917253
21
118.858062
0
LINE
8
Calque 1
10
167.917253
20
118.858062
11
167.560255
21
119.521496
0
LINE
8
Calque 1
10
167.560255
20
119.521496
11
167.411902
21
119.923273
0
LINE
8
Calque 1
10
167.411902
20
119.923273
11
167.177271
21
120.201382
0
LINE
8
Calque 1
10
167.177271
20
120.201382
11
166.068759
21
120.682801
0
LINE
8
Calque 1
10
166.068759
20
120.682801
11
164.781605
21
121.115352
0
LINE
8
Calque 1
10
164.781605
20
121.115352
11
164.036169
21
119.539446
0
LINE
8
Calque 1
10
164.036169
20
119.539446
11
162.503001
21
115.633169
0
LINE
8
Calque 1
10
162.503001
20
115.633169
11
161.955167
21
113.682480
0
LINE
8
Calque 1
10
161.955167
20
113.682480
11
161.586647
21
111.838682
0
LINE
8
Calque 1
10
161.586647
20
111.838682
11
161.398944
21
109.312839
0
LINE
8
Calque 1
10
161.398944
20
109.312839
11
161.645642
21
106.888283
0
LINE
8
Calque 1
10
161.645642
20
106.888283
11
162.343271
21
104.480414
0
LINE
8
Calque 1
10
162.343271
20
104.480414
11
163.508363
21
102.004635
0
LINE
8
Calque 1
10
163.508363
20
102.004635
11
164.471067
21
100.624077
0
LINE
8
Calque 1
10
164.471067
20
100.624077
11
165.786766
21
99.220028
0
LINE
8
Calque 1
10
165.786766
20
99.220028
11
167.273617
21
97.965018
0
LINE
8
Calque 1
10
167.273617
20
97.965018
11
168.749780
21
97.031580
0
LINE
8
Calque 1
10
168.749780
20
97.031580
11
170.226003
21
96.412254
0
LINE
8
Calque 1
10
170.226003
20
96.412254
11
172.087841
21
95.818864
0
LINE
8
Calque 1
10
172.087841
20
95.818864
11
175.977417
21
94.989826
0
LINE
8
Calque 1
10
175.977417
20
94.989826
11
180.255255
21
94.892818
0
LINE
8
Calque 1
10
180.255255
20
94.892818
11
182.479059
21
94.985867
0
LINE
8
Calque 1
10
182.479059
20
94.985867
11
183.645734
21
95.150018
0
LINE
8
Calque 1
10
183.645734
20
95.150018
11
183.645734
21
95.150018
0
LINE
8
Calque 1
10
187.775997
20
99.180061
11
187.779127
21
101.003837
0
LINE
8
Calque 1
10
187.779127
20
101.003837
11
188.118539
21
103.284585
0
LINE
8
Calque 1
10
188.118539
20
103.284585
11
188.736129
21
105.735055
0
LINE
8
Calque 1
10
188.736129
20
105.735055
11
189.573792
21
108.067996
0
LINE
8
Calque 1
10
189.573792
20
108.067996
11
190.135445
21
109.696319
0
LINE
8
Calque 1
10
190.135445
20
109.696319
11
187.378251
21
110.241836
0
LINE
8
Calque 1
10
187.378251
20
110.241836
11
183.638921
21
110.722871
0
LINE
8
Calque 1
10
183.638921
20
110.722871
11
182.283472
21
110.716362
0
LINE
8
Calque 1
10
182.283472
20
110.716362
11
181.434198
21
110.394040
0
LINE
8
Calque 1
10
181.434198
20
110.394040
11
180.740200
21
109.974839
0
LINE
8
Calque 1
10
180.740200
20
109.974839
11
180.873756
21
108.597202
0
LINE
8
Calque 1
10
180.873756
20
108.597202
11
181.007312
21
107.219565
0
LINE
8
Calque 1
10
181.007312
20
107.219565
11
180.280801
21
107.290544
0
LINE
8
Calque 1
10
180.280801
20
107.290544
11
179.861050
21
107.309259
0
LINE
8
Calque 1
10
179.861050
20
107.309259
11
179.602692
21
107.199096
0
LINE
8
Calque 1
10
179.602692
20
107.199096
11
179.189634
21
106.218167
0
LINE
8
Calque 1
10
179.189634
20
106.218167
11
178.888752
21
104.928810
0
LINE
8
Calque 1
10
178.888752
20
104.928810
11
178.701735
21
103.393550
0
LINE
8
Calque 1
10
178.701735
20
103.393550
11
178.724854
21
100.293510
0
LINE
8
Calque 1
10
178.724854
20
100.293510
11
178.890947
21
98.838330
0
LINE
8
Calque 1
10
178.890947
20
98.838330
11
180.617484
21
98.680664
0
LINE
8
Calque 1
10
180.617484
20
98.680664
11
184.933821
21
98.346730
0
LINE
8
Calque 1
10
184.933821
20
98.346730
11
187.715550
21
98.140600
0
LINE
8
Calque 1
10
187.715550
20
98.140600
11
187.812474
21
98.433625
0
LINE
8
Calque 1
10
187.812474
20
98.433625
11
187.775997
21
99.180061
0
LINE
8
Calque 1
10
187.775997
20
99.180061
11
187.775997
21
99.180061
0
LINE
8
Calque 1
10
192.170200
20
100.467142
11
192.547162
21
101.877720
0
LINE
8
Calque 1
10
192.547162
20
101.877720
11
192.848092
21
104.337743
0
LINE
8
Calque 1
10
192.848092
20
104.337743
11
193.016463
21
106.925083
0
LINE
8
Calque 1
10
193.016463
20
106.925083
11
192.926336
21
107.368048
0
LINE
8
Calque 1
10
192.926336
20
107.368048
11
192.704562
21
107.594176
0
LINE
8
Calque 1
10
192.704562
20
107.594176
11
192.060895
21
107.881229
0
LINE
8
Calque 1
10
192.060895
20
107.881229
11
191.713165
21
106.739996
0
LINE
8
Calque 1
10
191.713165
20
106.739996
11
191.349469
21
104.172360
0
LINE
8
Calque 1
10
191.349469
20
104.172360
11
191.115281
21
101.462416
0
LINE
8
Calque 1
10
191.115281
20
101.462416
11
191.156071
21
99.894262
0
LINE
8
Calque 1
10
191.156071
20
99.894262
11
191.349143
21
99.613841
0
LINE
8
Calque 1
10
191.349143
20
99.613841
11
191.586562
21
99.618130
0
LINE
8
Calque 1
10
191.586562
20
99.618130
11
192.170200
21
100.467142
0
LINE
8
Calque 1
10
192.170200
20
100.467142
11
192.170200
21
100.467142
0
LINE
8
Calque 1
10
174.605321
20
100.522624
11
174.849591
21
100.642052
0
LINE
8
Calque 1
10
174.849591
20
100.642052
11
175.029050
21
100.900769
0
LINE
8
Calque 1
10
175.029050
20
100.900769
11
175.325555
21
102.130875
0
LINE
8
Calque 1
10
175.325555
20
102.130875
11
175.799841
21
105.379456
0
LINE
8
Calque 1
10
175.799841
20
105.379456
11
175.777059
21
106.702195
0
LINE
8
Calque 1
10
175.777059
20
106.702195
11
175.548795
21
106.792578
0
LINE
8
Calque 1
10
175.548795
20
106.792578
11
175.252260
21
106.716542
0
LINE
8
Calque 1
10
175.252260
20
106.716542
11
174.534134
21
106.149215
0
LINE
8
Calque 1
10
174.534134
20
106.149215
11
173.782183
21
105.168206
0
LINE
8
Calque 1
10
173.782183
20
105.168206
11
173.155909
21
103.941509
0
LINE
8
Calque 1
10
173.155909
20
103.941509
11
172.855223
21
102.994392
0
LINE
8
Calque 1
10
172.855223
20
102.994392
11
172.760152
21
102.188908
0
LINE
8
Calque 1
10
172.760152
20
102.188908
11
172.870848
21
101.510645
0
LINE
8
Calque 1
10
172.870848
20
101.510645
11
173.187462
21
100.945192
0
LINE
8
Calque 1
10
173.187462
20
100.945192
11
173.780487
21
100.445459
0
LINE
8
Calque 1
10
173.780487
20
100.445459
11
174.605321
21
100.522624
0
LINE
8
Calque 1
10
174.605321
20
100.522624
11
174.605321
21
100.522624
0
LINE
8
Calque 1
10
36.020096
20
109.048430
11
37.435826
21
109.318780
0
LINE
8
Calque 1
10
37.435826
20
109.318780
11
39.688984
21
109.517780
0
LINE
8
Calque 1
10
39.688984
20
109.517780
11
41.601085
21
109.665379
0
LINE
8
Calque 1
10
41.601085
20
109.665379
11
42.871922
21
109.923747
0
LINE
8
Calque 1
10
42.871922
20
109.923747
11
43.813322
21
110.395848
0
LINE
8
Calque 1
10
43.813322
20
110.395848
11
44.737110
21
111.184643
0
LINE
8
Calque 1
10
44.737110
20
111.184643
11
45.796472
21
112.508264
0
LINE
8
Calque 1
10
45.796472
20
112.508264
11
46.642245
21
114.256809
0
LINE
8
Calque 1
10
46.642245
20
114.256809
11
47.295950
21
116.487382
0
LINE
8
Calque 1
10
47.295950
20
116.487382
11
47.779105
21
119.257085
0
LINE
8
Calque 1
10
47.779105
20
119.257085
11
47.905870
21
120.904183
0
LINE
8
Calque 1
10
47.905870
20
120.904183
11
47.814279
21
122.485839
0
LINE
8
Calque 1
10
47.814279
20
122.485839
11
47.484362
21
124.156137
0
LINE
8
Calque 1
10
47.484362
20
124.156137
11
46.896147
21
126.069162
0
LINE
8
Calque 1
10
46.896147
20
126.069162
11
46.067417
21
128.107032
0
LINE
8
Calque 1
10
46.067417
20
128.107032
11
45.149238
21
129.689532
0
LINE
8
Calque 1
10
45.149238
20
129.689532
11
44.127322
21
130.836763
0
LINE
8
Calque 1
10
44.127322
20
130.836763
11
42.987381
21
131.568829
0
LINE
8
Calque 1
10
42.987381
20
131.568829
11
42.185249
21
131.922798
0
LINE
8
Calque 1
10
42.185249
20
131.922798
11
40.505484
21
131.121050
0
LINE
8
Calque 1
10
40.505484
20
131.121050
11
39.318310
21
130.606523
0
LINE
8
Calque 1
10
39.318310
20
130.606523
11
37.963663
21
130.280440
0
LINE
8
Calque 1
10
37.963663
20
130.280440
11
31.636041
21
129.691326
0
LINE
8
Calque 1
10
31.636041
20
129.691326
11
28.331070
21
129.435147
0
LINE
8
Calque 1
10
28.331070
20
129.435147
11
28.775999
21
129.006576
0
LINE
8
Calque 1
10
28.775999
20
129.006576
11
29.257576
21
128.694282
0
LINE
8
Calque 1
10
29.257576
20
128.694282
11
29.876013
21
128.816186
0
LINE
8
Calque 1
10
29.876013
20
128.816186
11
30.259573
21
128.928016
0
LINE
8
Calque 1
10
30.259573
20
128.928016
11
30.560915
21
128.893153
0
LINE
8
Calque 1
10
30.560915
20
128.893153
11
31.390782
21
128.186311
0
LINE
8
Calque 1
10
31.390782
20
128.186311
11
32.266313
21
127.058697
0
LINE
8
Calque 1
10
32.266313
20
127.058697
11
33.164103
21
125.566586
0
LINE
8
Calque 1
10
33.164103
20
125.566586
11
33.956037
21
123.770023
0
LINE
8
Calque 1
10
33.956037
20
123.770023
11
34.062746
21
121.720755
0
LINE
8
Calque 1
10
34.062746
20
121.720755
11
33.936188
21
119.708343
0
LINE
8
Calque 1
10
33.936188
20
119.708343
11
33.444397
21
117.963539
0
LINE
8
Calque 1
10
33.444397
20
117.963539
11
32.032081
21
114.807673
0
LINE
8
Calque 1
10
32.032081
20
114.807673
11
31.291960
21
113.506207
0
LINE
8
Calque 1
10
31.291960
20
113.506207
11
30.721529
21
112.756836
0
LINE
8
Calque 1
10
30.721529
20
112.756836
11
29.858472
21
112.414673
0
LINE
8
Calque 1
10
29.858472
20
112.414673
11
28.090330
21
112.116866
0
LINE
8
Calque 1
10
28.090330
20
112.116866
11
25.212080
21
111.681518
0
LINE
8
Calque 1
10
25.212080
20
111.681518
11
24.779324
21
111.477907
0
LINE
8
Calque 1
10
24.779324
20
111.477907
11
24.689702
21
111.194795
0
LINE
8
Calque 1
10
24.689702
20
111.194795
11
24.840985
21
110.864228
0
LINE
8
Calque 1
10
24.840985
20
110.864228
11
25.283198
21
110.658121
0
LINE
8
Calque 1
10
25.283198
20
110.658121
11
29.329769
21
109.638074
0
LINE
8
Calque 1
10
29.329769
20
109.638074
11
31.756319
21
109.075500
0
LINE
8
Calque 1
10
31.756319
20
109.075500
11
33.562653
21
108.800063
0
LINE
8
Calque 1
10
33.562653
20
108.800063
11
34.925127
21
108.796221
0
LINE
8
Calque 1
10
34.925127
20
108.796221
11
36.020096
21
109.048430
0
LINE
8
Calque 1
10
36.020096
20
109.048430
11
36.020096
21
109.048430
0
LINE
8
Calque 1
10
42.941658
20
114.444383
11
42.628843
21
115.145862
0
LINE
8
Calque 1
10
42.628843
20
115.145862
11
42.542276
21
116.379453
0
LINE
8
Calque 1
10
42.542276
20
116.379453
11
42.680644
21
118.070991
0
LINE
8
Calque 1
10
42.680644
20
118.070991
11
43.042634
21
120.146308
0
LINE
8
Calque 1
10
43.042634
20
120.146308
11
43.859134
21
123.350384
0
LINE
8
Calque 1
10
43.859134
20
123.350384
11
44.178927
21
123.643144
0
LINE
8
Calque 1
10
44.178927
20
123.643144
11
44.571339
21
123.337767
0
LINE
8
Calque 1
10
44.571339
20
123.337767
11
44.752039
21
122.915104
0
LINE
8
Calque 1
10
44.752039
20
122.915104
11
44.805665
21
122.045403
0
LINE
8
Calque 1
10
44.805665
20
122.045403
11
44.522619
21
117.963539
0
LINE
8
Calque 1
10
44.522619
20
117.963539
11
44.267349
21
115.756842
0
LINE
8
Calque 1
10
44.267349
20
115.756842
11
43.953147
21
114.511281
0
LINE
8
Calque 1
10
43.953147
20
114.511281
11
43.757830
21
114.213053
0
LINE
8
Calque 1
10
43.757830
20
114.213053
11
43.528440
21
114.112060
0
LINE
8
Calque 1
10
43.528440
20
114.112060
11
42.941658
21
114.444383
0
LINE
8
Calque 1
10
42.941658
20
114.444383
11
42.941658
21
114.444383
0
LINE
8
Calque 1
10
24.984892
20
114.524944
11
27.662422
21
115.248784
0
LINE
8
Calque 1
10
27.662422
20
115.248784
11
27.421187
21
116.927919
0
LINE
8
Calque 1
10
27.421187
20
116.927919
11
27.143162
21
118.738715
0
LINE
8
Calque 1
10
27.143162
20
118.738715
11
27.064369
21
120.703929
0
LINE
8
Calque 1
10
27.064369
20
120.703929
11
27.182519
21
122.599164
0
LINE
8
Calque 1
10
27.182519
20
122.599164
11
27.495324
21
124.200021
0
LINE
8
Calque 1
10
27.495324
20
124.200021
11
27.926957
21
125.691574
0
LINE
8
Calque 1
10
27.926957
20
125.691574
11
24.044296
21
126.991918
0
LINE
8
Calque 1
10
24.044296
20
126.991918
11
22.579659
21
127.277546
0
LINE
8
Calque 1
10
22.579659
20
127.277546
11
21.100228
21
127.009746
0
LINE
8
Calque 1
10
21.100228
20
127.009746
11
17.513787
21
126.166148
0
LINE
8
Calque 1
10
17.513787
20
126.166148
11
15.409572
21
125.694927
0
LINE
8
Calque 1
10
15.409572
20
125.694927
11
15.413320
21
123.284413
0
LINE
8
Calque 1
10
15.413320
20
123.284413
11
15.486763
21
121.350675
0
LINE
8
Calque 1
10
15.486763
20
121.350675
11
15.704957
21
119.677586
0
LINE
8
Calque 1
10
15.704957
20
119.677586
11
16.074378
21
118.230760
0
LINE
8
Calque 1
10
16.074378
20
118.230760
11
16.601501
21
116.975815
0
LINE
8
Calque 1
10
16.601501
20
116.975815
11
17.140844
21
116.045770
0
LINE
8
Calque 1
10
17.140844
20
116.045770
11
17.690937
21
115.367319
0
LINE
8
Calque 1
10
17.690937
20
115.367319
11
18.342529
21
114.850176
0
LINE
8
Calque 1
10
18.342529
20
114.850176
11
19.186369
21
114.404051
0
LINE
8
Calque 1
10
19.186369
20
114.404051
11
20.258615
21
114.041673
0
LINE
8
Calque 1
10
20.258615
20
114.041673
11
21.449152
21
113.938251
0
LINE
8
Calque 1
10
21.449152
20
113.938251
11
22.957928
21
114.097951
0
LINE
8
Calque 1
10
22.957928
20
114.097951
11
24.984892
21
114.524944
0
LINE
8
Calque 1
10
24.984892
20
114.524944
11
24.984892
21
114.524944
0
LINE
8
Calque 1
10
31.455622
20
119.970359
11
31.572793
21
122.906132
0
LINE
8
Calque 1
10
31.572793
20
122.906132
11
31.405956
21
123.407181
0
LINE
8
Calque 1
10
31.405956
20
123.407181
11
31.046152
21
123.646945
0
LINE
8
Calque 1
10
31.046152
20
123.646945
11
30.541222
21
123.834825
0
LINE
8
Calque 1
10
30.541222
20
123.834825
11
30.225437
21
123.800872
0
LINE
8
Calque 1
10
30.225437
20
123.800872
11
30.000913
21
123.480983
0
LINE
8
Calque 1
10
30.000913
20
123.480983
11
29.769765
21
122.811053
0
LINE
8
Calque 1
10
29.769765
20
122.811053
11
29.499008
21
121.748247
0
LINE
8
Calque 1
10
29.499008
20
121.748247
11
29.461448
21
120.831583
0
LINE
8
Calque 1
10
29.461448
20
120.831583
11
29.683072
21
119.783725
0
LINE
8
Calque 1
10
29.683072
20
119.783725
11
30.189864
21
118.327335
0
LINE
8
Calque 1
10
30.189864
20
118.327335
11
30.409735
21
118.143813
0
LINE
8
Calque 1
10
30.409735
20
118.143813
11
30.801397
21
118.067482
0
LINE
8
Calque 1
10
30.801397
20
118.067482
11
31.093001
21
118.107727
0
LINE
8
Calque 1
10
31.093001
20
118.107727
11
31.263169
21
118.333375
0
LINE
8
Calque 1
10
31.263169
20
118.333375
11
31.455622
21
119.970359
0
LINE
8
Calque 1
10
31.455622
20
119.970359
11
31.455622
21
119.970359
0
LINE
8
Calque 1
10
188.888068
20
118.244762
11
189.165972
21
118.396943
0
LINE
8
Calque 1
10
189.165972
20
118.396943
11
189.437488
21
118.737878
0
LINE
8
Calque 1
10
189.437488
20
118.737878
11
190.124630
21
120.250897
0
LINE
8
Calque 1
10
190.124630
20
120.250897
11
190.727056
21
122.102344
0
LINE
8
Calque 1
10
190.727056
20
122.102344
11
190.866779
21
123.888197
0
LINE
8
Calque 1
10
190.866779
20
123.888197
11
191.006268
21
126.354374
0
LINE
8
Calque 1
10
191.006268
20
126.354374
11
191.166479
21
126.995932
0
LINE
8
Calque 1
10
191.166479
20
126.995932
11
191.382616
21
127.214860
0
LINE
8
Calque 1
10
191.382616
20
127.214860
11
192.169063
21
128.722208
0
LINE
8
Calque 1
10
192.169063
20
128.722208
11
192.811143
21
130.567750
0
LINE
8
Calque 1
10
192.811143
20
130.567750
11
191.849080
21
130.939996
0
LINE
8
Calque 1
10
191.849080
20
130.939996
11
189.789658
21
131.271745
0
LINE
8
Calque 1
10
189.789658
20
131.271745
11
188.584474
21
131.274366
0
LINE
8
Calque 1
10
188.584474
20
131.274366
11
186.932653
21
131.087504
0
LINE
8
Calque 1
10
186.932653
20
131.087504
11
182.236110
21
130.137370
0
LINE
8
Calque 1
10
182.236110
20
130.137370
11
180.887254
21
129.829742
0
LINE
8
Calque 1
10
180.887254
20
129.829742
11
180.479494
21
129.696017
0
LINE
8
Calque 1
10
180.479494
20
129.696017
11
180.323265
21
129.511482
0
LINE
8
Calque 1
10
180.323265
20
129.511482
11
180.415235
21
129.253157
0
LINE
8
Calque 1
10
180.415235
20
129.253157
11
180.752067
21
128.898061
0
LINE
8
Calque 1
10
180.752067
20
128.898061
11
181.081781
21
128.450431
0
LINE
8
Calque 1
10
181.081781
20
128.450431
11
181.056715
21
127.902520
0
LINE
8
Calque 1
10
181.056715
20
127.902520
11
180.571225
21
124.403426
0
LINE
8
Calque 1
10
180.571225
20
124.403426
11
180.295914
21
120.414174
0
LINE
8
Calque 1
10
180.295914
20
120.414174
11
180.293758
21
118.707155
0
LINE
8
Calque 1
10
180.293758
20
118.707155
11
181.210980
21
118.480062
0
LINE
8
Calque 1
10
181.210980
20
118.480062
11
182.344018
21
118.176637
0
LINE
8
Calque 1
10
182.344018
20
118.176637
11
185.560198
21
118.107685
0
LINE
8
Calque 1
10
185.560198
20
118.107685
11
188.888068
21
118.244762
0
LINE
8
Calque 1
10
188.888068
20
118.244762
11
188.888068
21
118.244762
0
LINE
8
Calque 1
10
192.706583
20
119.473871
11
192.860383
21
119.856531
0
LINE
8
Calque 1
10
192.860383
20
119.856531
11
192.922398
21
120.562072
0
LINE
8
Calque 1
10
192.922398
20
120.562072
11
193.008948
21
121.362116
0
LINE
8
Calque 1
10
193.008948
20
121.362116
11
193.494138
21
121.561613
0
LINE
8
Calque 1
10
193.494138
20
121.561613
11
194.133771
21
121.868483
0
LINE
8
Calque 1
10
194.133771
20
121.868483
11
194.554553
21
122.722641
0
LINE
8
Calque 1
10
194.554553
20
122.722641
11
194.799401
21
124.279535
0
LINE
8
Calque 1
10
194.799401
20
124.279535
11
194.911229
21
126.694614
0
LINE
8
Calque 1
10
194.911229
20
126.694614
11
194.915448
21
129.402875
0
LINE
8
Calque 1
10
194.915448
20
129.402875
11
194.828681
21
129.735040
0
LINE
8
Calque 1
10
194.828681
20
129.735040
11
194.661787
21
129.631704
0
LINE
8
Calque 1
10
194.661787
20
129.631704
11
193.973383
21
128.040459
0
LINE
8
Calque 1
10
193.973383
20
128.040459
11
193.147782
21
125.246317
0
LINE
8
Calque 1
10
193.147782
20
125.246317
11
192.454660
21
122.273328
0
LINE
8
Calque 1
10
192.454660
20
122.273328
11
192.163692
21
120.145543
0
LINE
8
Calque 1
10
192.163692
20
120.145543
11
192.275715
21
119.390276
0
LINE
8
Calque 1
10
192.275715
20
119.390276
11
192.442406
21
119.338212
0
LINE
8
Calque 1
10
192.442406
20
119.338212
11
192.706583
21
119.473871
0
LINE
8
Calque 1
10
192.706583
20
119.473871
11
192.706583
21
119.473871
0
LINE
8
Calque 1
10
177.791940
20
119.886455
11
177.900155
21
122.433019
0
LINE
8
Calque 1
10
177.900155
20
122.433019
11
178.120446
21
125.123007
0
LINE
8
Calque 1
10
178.120446
20
125.123007
11
178.930537
21
127.758448
0
LINE
8
Calque 1
10
178.930537
20
127.758448
11
178.942290
21
127.961427
0
LINE
8
Calque 1
10
178.942290
20
127.961427
11
178.809763
21
128.045852
0
LINE
8
Calque 1
10
178.809763
20
128.045852
11
178.468091
21
127.742586
0
LINE
8
Calque 1
10
178.468091
20
127.742586
11
178.016737
21
126.964889
0
LINE
8
Calque 1
10
178.016737
20
126.964889
11
177.180308
21
124.778819
0
LINE
8
Calque 1
10
177.180308
20
124.778819
11
176.840684
21
122.174179
0
LINE
8
Calque 1
10
176.840684
20
122.174179
11
176.940386
21
120.855477
0
LINE
8
Calque 1
10
176.940386
20
120.855477
11
177.185826
21
119.905563
0
LINE
8
Calque 1
10
177.185826
20
119.905563
11
177.496509
21
119.518026
0
LINE
8
Calque 1
10
177.496509
20
119.518026
11
177.651162
21
119.595645
0
LINE
8
Calque 1
10
177.651162
20
119.595645
11
177.791940
21
119.886455
0
LINE
8
Calque 1
10
177.791940
20
119.886455
11
177.791940
21
119.886455
0
LINE
8
Calque 1
10
173.645525
20
123.114947
11
173.837153
21
125.074043
0
LINE
8
Calque 1
10
173.837153
20
125.074043
11
174.322963
21
126.469757
0
LINE
8
Calque 1
10
174.322963
20
126.469757
11
175.139620
21
127.732434
0
LINE
8
Calque 1
10
175.139620
20
127.732434
11
176.365768
21
129.052707
0
LINE
8
Calque 1
10
176.365768
20
129.052707
11
177.862981
21
130.300064
0
LINE
8
Calque 1
10
177.862981
20
130.300064
11
179.492834
21
131.343997
0
LINE
8
Calque 1
10
179.492834
20
131.343997
11
183.192268
21
133.097685
0
LINE
8
Calque 1
10
183.192268
20
133.097685
11
184.537559
21
133.560760
0
LINE
8
Calque 1
10
184.537559
20
133.560760
11
185.203595
21
133.611793
0
LINE
8
Calque 1
10
185.203595
20
133.611793
11
185.415126
21
133.575976
0
LINE
8
Calque 1
10
185.415126
20
133.575976
11
185.473365
21
134.003617
0
LINE
8
Calque 1
10
185.473365
20
134.003617
11
185.473365
21
134.607338
0
LINE
8
Calque 1
10
185.473365
20
134.607338
11
182.226328
21
135.393826
0
LINE
8
Calque 1
10
182.226328
20
135.393826
11
177.782398
21
136.544074
0
LINE
8
Calque 1
10
177.782398
20
136.544074
11
172.864173
21
138.036047
0
LINE
8
Calque 1
10
172.864173
20
138.036047
11
170.290470
21
138.849480
0
LINE
8
Calque 1
10
170.290470
20
138.849480
11
169.569816
21
138.320017
0
LINE
8
Calque 1
10
169.569816
20
138.320017
11
168.618762
21
137.268138
0
LINE
8
Calque 1
10
168.618762
20
137.268138
11
167.794368
21
135.619360
0
LINE
8
Calque 1
10
167.794368
20
135.619360
11
167.110066
21
133.408051
0
LINE
8
Calque 1
10
167.110066
20
133.408051
11
166.579288
21
130.668577
0
LINE
8
Calque 1
10
166.579288
20
130.668577
11
166.363872
21
128.931425
0
LINE
8
Calque 1
10
166.363872
20
128.931425
11
166.368125
21
127.729928
0
LINE
8
Calque 1
10
166.368125
20
127.729928
11
166.624367
21
126.799600
0
LINE
8
Calque 1
10
166.624367
20
126.799600
11
167.164916
21
125.875958
0
LINE
8
Calque 1
10
167.164916
20
125.875958
11
168.175729
21
124.555876
0
LINE
8
Calque 1
10
168.175729
20
124.555876
11
169.252409
21
123.443329
0
LINE
8
Calque 1
10
169.252409
20
123.443329
11
170.404811
21
122.529353
0
LINE
8
Calque 1
10
170.404811
20
122.529353
11
171.642794
21
121.804987
0
LINE
8
Calque 1
10
171.642794
20
121.804987
11
173.413279
21
120.988231
0
LINE
8
Calque 1
10
173.413279
20
120.988231
11
173.645525
21
123.114947
0
LINE
8
Calque 1
10
173.645525
20
123.114947
11
173.645525
21
123.114947
0
LINE
8
Calque 1
10
126.033979
20
129.805479
11
128.154588
21
130.487172
0
LINE
8
Calque 1
10
128.154588
20
130.487172
11
130.577958
21
131.625627
0
LINE
8
Calque 1
10
130.577958
20
131.625627
11
133.245281
21
133.189623
0
LINE
8
Calque 1
10
133.245281
20
133.189623
11
136.097747
21
135.147940
0
LINE
8
Calque 1
10
136.097747
20
135.147940
11
142.584452
21
140.786475
0
LINE
8
Calque 1
10
142.584452
20
140.786475
11
147.005973
21
144.846383
0
LINE
8
Calque 1
10
147.005973
20
144.846383
11
149.201167
21
147.016298
0
LINE
8
Calque 1
10
149.201167
20
147.016298
11
150.163625
21
148.421023
0
LINE
8
Calque 1
10
150.163625
20
148.421023
11
150.886939
21
150.185361
0
LINE
8
Calque 1
10
150.886939
20
150.185361
11
152.860417
21
155.425045
0
LINE
8
Calque 1
10
152.860417
20
155.425045
11
154.935794
21
161.566187
0
LINE
8
Calque 1
10
154.935794
20
161.566187
11
157.015199
21
168.305367
0
LINE
8
Calque 1
10
157.015199
20
168.305367
11
159.000757
21
175.339167
0
LINE
8
Calque 1
10
159.000757
20
175.339167
11
160.205628
21
180.181711
0
LINE
8
Calque 1
10
160.205628
20
180.181711
11
160.517642
21
183.394625
0
LINE
8
Calque 1
10
160.517642
20
183.394625
11
160.555887
21
185.714740
0
LINE
8
Calque 1
10
160.555887
20
185.714740
11
160.480606
21
186.140484
0
LINE
8
Calque 1
10
160.480606
20
186.140484
11
160.330868
21
186.253011
0
LINE
8
Calque 1
10
160.330868
20
186.253011
11
159.082361
21
185.873436
0
LINE
8
Calque 1
10
159.082361
20
185.873436
11
156.812033
21
184.871390
0
LINE
8
Calque 1
10
156.812033
20
184.871390
11
150.942647
21
181.819955
0
LINE
8
Calque 1
10
150.942647
20
181.819955
11
145.763039
21
178.927857
0
LINE
8
Calque 1
10
145.763039
20
178.927857
11
142.246694
21
176.916028
0
LINE
8
Calque 1
10
142.246694
20
176.916028
11
142.378436
21
176.350431
0
LINE
8
Calque 1
10
142.378436
20
176.350431
11
142.935556
21
175.215859
0
LINE
8
Calque 1
10
142.935556
20
175.215859
11
144.285269
21
172.447694
0
LINE
8
Calque 1
10
144.285269
20
172.447694
11
145.187332
21
169.703590
0
LINE
8
Calque 1
10
145.187332
20
169.703590
11
145.691254
21
166.784119
0
LINE
8
Calque 1
10
145.691254
20
166.784119
11
145.846543
21
163.489853
0
LINE
8
Calque 1
10
145.846543
20
163.489853
11
145.788031
21
161.113328
0
LINE
8
Calque 1
10
145.788031
20
161.113328
11
145.568829
21
159.309154
0
LINE
8
Calque 1
10
145.568829
20
159.309154
11
145.117497
21
157.715308
0
LINE
8
Calque 1
10
145.117497
20
157.715308
11
144.362596
21
155.969768
0
LINE
8
Calque 1
10
144.362596
20
155.969768
11
142.948182
21
153.528426
0
LINE
8
Calque 1
10
142.948182
20
153.528426
11
140.823569
21
151.085024
0
LINE
8
Calque 1
10
140.823569
20
151.085024
11
137.806117
21
148.342024
0
LINE
8
Calque 1
10
137.806117
20
148.342024
11
134.509915
21
146.026462
0
LINE
8
Calque 1
10
134.509915
20
146.026462
11
131.019296
21
144.189934
0
LINE
8
Calque 1
10
131.019296
20
144.189934
11
127.418595
21
142.884032
0
LINE
8
Calque 1
10
127.418595
20
142.884032
11
125.234777
21
142.406480
0
LINE
8
Calque 1
10
125.234777
20
142.406480
11
122.562710
21
142.297589
0
LINE
8
Calque 1
10
122.562710
20
142.297589
11
120.482251
21
142.368743
0
LINE
8
Calque 1
10
120.482251
20
142.368743
11
118.796892
21
142.622184
0
LINE
8
Calque 1
10
118.796892
20
142.622184
11
117.334427
21
143.097797
0
LINE
8
Calque 1
10
117.334427
20
143.097797
11
115.922648
21
143.835466
0
LINE
8
Calque 1
10
115.922648
20
143.835466
11
114.561886
21
144.809712
0
LINE
8
Calque 1
10
114.561886
20
144.809712
11
113.288759
21
146.012613
0
LINE
8
Calque 1
10
113.288759
20
146.012613
11
112.108604
21
147.435187
0
LINE
8
Calque 1
10
112.108604
20
147.435187
11
111.026755
21
149.068450
0
LINE
8
Calque 1
10
111.026755
20
149.068450
11
110.048549
21
150.903422
0
LINE
8
Calque 1
10
110.048549
20
150.903422
11
109.179319
21
152.931119
0
LINE
8
Calque 1
10
109.179319
20
152.931119
11
108.424402
21
155.142559
0
LINE
8
Calque 1
10
108.424402
20
155.142559
11
107.789133
21
157.528761
0
LINE
8
Calque 1
10
107.789133
20
157.528761
11
107.294437
21
159.348775
0
LINE
8
Calque 1
10
107.294437
20
159.348775
11
106.590126
21
158.345797
0
LINE
8
Calque 1
10
106.590126
20
158.345797
11
104.666670
21
155.214494
0
LINE
8
Calque 1
10
104.666670
20
155.214494
11
102.618546
21
152.412443
0
LINE
8
Calque 1
10
102.618546
20
152.412443
11
100.608926
21
150.143559
0
LINE
8
Calque 1
10
100.608926
20
150.143559
11
98.800979
21
148.611752
0
LINE
8
Calque 1
10
98.800979
20
148.611752
11
96.794919
21
147.507734
0
LINE
8
Calque 1
10
96.794919
20
147.507734
11
94.591985
21
146.773631
0
LINE
8
Calque 1
10
94.591985
20
146.773631
11
92.017118
21
146.367672
0
LINE
8
Calque 1
10
92.017118
20
146.367672
11
88.895261
21
146.248085
0
LINE
8
Calque 1
10
88.895261
20
146.248085
11
86.487295
21
146.304519
0
LINE
8
Calque 1
10
86.487295
20
146.304519
11
84.675545
21
146.501467
0
LINE
8
Calque 1
10
84.675545
20
146.501467
11
83.090434
21
146.904170
0
LINE
8
Calque 1
10
83.090434
20
146.904170
11
81.362386
21
147.577871
0
LINE
8
Calque 1
10
81.362386
20
147.577871
11
79.854550
21
148.330615
0
LINE
8
Calque 1
10
79.854550
20
148.330615
11
78.349169
21
149.279355
0
LINE
8
Calque 1
10
78.349169
20
149.279355
11
76.860838
21
150.410087
0
LINE
8
Calque 1
10
76.860838
20
150.410087
11
75.404150
21
151.708806
0
LINE
8
Calque 1
10
75.404150
20
151.708806
11
72.644078
21
154.754185
0
LINE
8
Calque 1
10
72.644078
20
154.754185
11
70.185703
21
158.303458
0
LINE
8
Calque 1
10
70.185703
20
158.303458
11
69.618635
21
159.287904
0
LINE
8
Calque 1
10
69.618635
20
159.287904
11
69.290553
21
160.083693
0
LINE
8
Calque 1
10
69.290553
20
160.083693
11
68.926608
21
162.537649
0
LINE
8
Calque 1
10
68.926608
20
162.537649
11
68.807152
21
166.101477
0
LINE
8
Calque 1
10
68.807152
20
166.101477
11
69.222390
21
169.330853
0
LINE
8
Calque 1
10
69.222390
20
169.330853
11
69.634719
21
170.838957
0
LINE
8
Calque 1
10
69.634719
20
170.838957
11
70.185759
21
172.286051
0
LINE
8
Calque 1
10
70.185759
20
172.286051
11
71.710694
21
175.027346
0
LINE
8
Calque 1
10
71.710694
20
175.027346
11
72.936940
21
176.565608
0
LINE
8
Calque 1
10
72.936940
20
176.565608
11
74.564831
21
178.227209
0
LINE
8
Calque 1
10
74.564831
20
178.227209
11
76.439418
21
179.866134
0
LINE
8
Calque 1
10
76.439418
20
179.866134
11
78.405750
21
181.336367
0
LINE
8
Calque 1
10
78.405750
20
181.336367
11
80.865260
21
183.013899
0
LINE
8
Calque 1
10
80.865260
20
183.013899
11
79.108579
21
184.608943
0
LINE
8
Calque 1
10
79.108579
20
184.608943
11
74.770578
21
188.285607
0
LINE
8
Calque 1
10
74.770578
20
188.285607
11
69.877497
21
192.037367
0
LINE
8
Calque 1
10
69.877497
20
192.037367
11
67.856042
21
193.613986
0
LINE
8
Calque 1
10
67.856042
20
193.613986
11
66.991738
21
194.563891
0
LINE
8
Calque 1
10
66.991738
20
194.563891
11
66.635063
21
195.074689
0
LINE
8
Calque 1
10
66.635063
20
195.074689
11
65.987848
21
195.191968
0
LINE
8
Calque 1
10
65.987848
20
195.191968
11
65.466346
21
195.131839
0
LINE
8
Calque 1
10
65.466346
20
195.131839
11
65.114417
21
194.799647
0
LINE
8
Calque 1
10
65.114417
20
194.799647
11
64.399620
21
192.408253
0
LINE
8
Calque 1
10
64.399620
20
192.408253
11
63.503158
21
188.141548
0
LINE
8
Calque 1
10
63.503158
20
188.141548
11
62.818299
21
183.517510
0
LINE
8
Calque 1
10
62.818299
20
183.517510
11
62.350073
21
178.577851
0
LINE
8
Calque 1
10
62.350073
20
178.577851
11
62.103508
21
173.364284
0
LINE
8
Calque 1
10
62.103508
20
173.364284
11
62.169865
21
166.377534
0
LINE
8
Calque 1
10
62.169865
20
166.377534
11
62.409703
21
163.436340
0
LINE
8
Calque 1
10
62.409703
20
163.436340
11
62.796240
21
160.815517
0
LINE
8
Calque 1
10
62.796240
20
160.815517
11
63.336167
21
158.479255
0
LINE
8
Calque 1
10
63.336167
20
158.479255
11
64.036178
21
156.391742
0
LINE
8
Calque 1
10
64.036178
20
156.391742
11
64.902965
21
154.517165
0
LINE
8
Calque 1
10
64.902965
20
154.517165
11
65.943223
21
152.819714
0
LINE
8
Calque 1
10
65.943223
20
152.819714
11
67.459951
21
150.777391
0
LINE
8
Calque 1
10
67.459951
20
150.777391
11
69.204076
21
148.687899
0
LINE
8
Calque 1
10
69.204076
20
148.687899
11
73.572254
21
144.142509
0
LINE
8
Calque 1
10
73.572254
20
144.142509
11
77.706354
21
140.424655
0
LINE
8
Calque 1
10
77.706354
20
140.424655
11
79.486622
21
139.107392
0
LINE
8
Calque 1
10
79.486622
20
139.107392
11
81.163027
21
138.105889
0
LINE
8
Calque 1
10
81.163027
20
138.105889
11
82.801063
21
137.386132
0
LINE
8
Calque 1
10
82.801063
20
137.386132
11
84.466225
21
136.914110
0
LINE
8
Calque 1
10
84.466225
20
136.914110
11
86.224006
21
136.655809
0
LINE
8
Calque 1
10
86.224006
20
136.655809
11
88.139902
21
136.577218
0
LINE
8
Calque 1
10
88.139902
20
136.577218
11
91.651743
21
136.841202
0
LINE
8
Calque 1
10
91.651743
20
136.841202
11
95.046044
21
137.367553
0
LINE
8
Calque 1
10
95.046044
20
137.367553
11
96.569931
21
137.843348
0
LINE
8
Calque 1
10
96.569931
20
137.843348
11
98.079127
21
138.516060
0
LINE
8
Calque 1
10
98.079127
20
138.516060
11
99.486975
21
139.341193
0
LINE
8
Calque 1
10
99.486975
20
139.341193
11
100.706820
21
140.274250
0
LINE
8
Calque 1
10
100.706820
20
140.274250
11
101.440662
21
140.700866
0
LINE
8
Calque 1
10
101.440662
20
140.700866
11
102.753930
21
140.745412
0
LINE
8
Calque 1
10
102.753930
20
140.745412
11
104.211964
21
140.694496
0
LINE
8
Calque 1
10
104.211964
20
140.694496
11
107.237214
21
137.852208
0
LINE
8
Calque 1
10
107.237214
20
137.852208
11
109.629848
21
135.717786
0
LINE
8
Calque 1
10
109.629848
20
135.717786
11
111.886433
21
133.941586
0
LINE
8
Calque 1
10
111.886433
20
133.941586
11
114.031156
21
132.505957
0
LINE
8
Calque 1
10
114.031156
20
132.505957
11
116.088202
21
131.393250
0
LINE
8
Calque 1
10
116.088202
20
131.393250
11
118.813901
21
130.293631
0
LINE
8
Calque 1
10
118.813901
20
130.293631
11
121.159902
21
129.643760
0
LINE
8
Calque 1
10
121.159902
20
129.643760
11
123.599848
21
129.546269
0
LINE
8
Calque 1
10
123.599848
20
129.546269
11
126.033979
21
129.805479
0
LINE
8
Calque 1
10
126.033979
20
129.805479
11
126.033979
21
129.805479
0
LINE
8
Calque 1
10
37.693826
20
133.779199
11
40.445492
21
134.490216
0
LINE
8
Calque 1
10
40.445492
20
134.490216
11
40.749524
21
134.576612
0
LINE
8
Calque 1
10
40.749524
20
134.576612
11
40.875980
21
134.784334
0
LINE
8
Calque 1
10
40.875980
20
134.784334
11
41.186784
21
135.227082
0
LINE
8
Calque 1
10
41.186784
20
135.227082
11
41.935927
21
135.813364
0
LINE
8
Calque 1
10
41.935927
20
135.813364
11
42.848506
21
136.356361
0
LINE
8
Calque 1
10
42.848506
20
136.356361
11
43.649621
21
136.669254
0
LINE
8
Calque 1
10
43.649621
20
136.669254
11
44.445415
21
137.010885
0
LINE
8
Calque 1
10
44.445415
20
137.010885
11
45.216033
21
137.646190
0
LINE
8
Calque 1
10
45.216033
20
137.646190
11
45.862641
21
138.473191
0
LINE
8
Calque 1
10
45.862641
20
138.473191
11
46.286403
21
139.389907
0
LINE
8
Calque 1
10
46.286403
20
139.389907
11
46.512170
21
140.811641
0
LINE
8
Calque 1
10
46.512170
20
140.811641
11
46.568029
21
142.740272
0
LINE
8
Calque 1
10
46.568029
20
142.740272
11
46.459216
21
144.783097
0
LINE
8
Calque 1
10
46.459216
20
144.783097
11
46.190967
21
146.547412
0
LINE
8
Calque 1
10
46.190967
20
146.547412
11
45.746069
21
148.076648
0
LINE
8
Calque 1
10
45.746069
20
148.076648
11
45.155117
21
149.386814
0
LINE
8
Calque 1
10
45.155117
20
149.386814
11
44.377532
21
150.551290
0
LINE
8
Calque 1
10
44.377532
20
150.551290
11
43.372732
21
151.643457
0
LINE
8
Calque 1
10
43.372732
20
151.643457
11
42.305411
21
152.526880
0
LINE
8
Calque 1
10
42.305411
20
152.526880
11
41.119354
21
153.266835
0
LINE
8
Calque 1
10
41.119354
20
153.266835
11
39.844545
21
153.855614
0
LINE
8
Calque 1
10
39.844545
20
153.855614
11
38.510967
21
154.285506
0
LINE
8
Calque 1
10
38.510967
20
154.285506
11
37.148604
21
154.548803
0
LINE
8
Calque 1
10
37.148604
20
154.548803
11
35.787439
21
154.637794
0
LINE
8
Calque 1
10
35.787439
20
154.637794
11
34.457455
21
154.544771
0
LINE
8
Calque 1
10
34.457455
20
154.544771
11
33.188636
21
154.262025
0
LINE
8
Calque 1
10
33.188636
20
154.262025
11
30.024816
21
153.109002
0
LINE
8
Calque 1
10
30.024816
20
153.109002
11
26.955783
21
151.787819
0
LINE
8
Calque 1
10
26.955783
20
151.787819
11
24.042250
21
150.701794
0
LINE
8
Calque 1
10
24.042250
20
150.701794
11
22.552343
21
150.167546
0
LINE
8
Calque 1
10
22.552343
20
150.167546
11
22.250191
21
149.945441
0
LINE
8
Calque 1
10
22.250191
20
149.945441
11
22.138842
21
149.698311
0
LINE
8
Calque 1
10
22.138842
20
149.698311
11
22.142525
21
149.445665
0
LINE
8
Calque 1
10
22.142525
20
149.445665
11
22.365508
21
149.311806
0
LINE
8
Calque 1
10
22.365508
20
149.311806
11
24.141957
21
149.249888
0
LINE
8
Calque 1
10
24.141957
20
149.249888
11
25.751855
21
149.172617
0
LINE
8
Calque 1
10
25.751855
20
149.172617
11
27.203387
21
148.912178
0
LINE
8
Calque 1
10
27.203387
20
148.912178
11
28.663950
21
148.425632
0
LINE
8
Calque 1
10
28.663950
20
148.425632
11
30.300947
21
147.670039
0
LINE
8
Calque 1
10
30.300947
20
147.670039
11
33.092661
21
145.961292
0
LINE
8
Calque 1
10
33.092661
20
145.961292
11
34.224693
21
145.112381
0
LINE
8
Calque 1
10
34.224693
20
145.112381
11
34.759750
21
144.560751
0
LINE
8
Calque 1
10
34.759750
20
144.560751
11
34.165966
21
141.011956
0
LINE
8
Calque 1
10
34.165966
20
141.011956
11
33.447397
21
137.776380
0
LINE
8
Calque 1
10
33.447397
20
137.776380
11
31.931977
21
137.016799
0
LINE
8
Calque 1
10
31.931977
20
137.016799
11
30.507879
21
136.141445
0
LINE
8
Calque 1
10
30.507879
20
136.141445
11
29.225711
21
135.086159
0
LINE
8
Calque 1
10
29.225711
20
135.086159
11
27.603234
21
133.758157
0
LINE
8
Calque 1
10
27.603234
20
133.758157
11
27.415768
21
133.594015
0
LINE
8
Calque 1
10
27.415768
20
133.594015
11
28.034868
21
133.406101
0
LINE
8
Calque 1
10
28.034868
20
133.406101
11
31.015607
21
133.039149
0
LINE
8
Calque 1
10
31.015607
20
133.039149
11
34.077743
21
132.975267
0
LINE
8
Calque 1
10
34.077743
20
132.975267
11
35.674115
21
133.249748
0
LINE
8
Calque 1
10
35.674115
20
133.249748
11
37.693826
21
133.779199
0
LINE
8
Calque 1
10
37.693826
20
133.779199
11
37.693826
21
133.779199
0
LINE
8
Calque 1
10
38.706481
20
139.802840
11
38.427633
21
140.151275
0
LINE
8
Calque 1
10
38.427633
20
140.151275
11
38.260222
21
140.597560
0
LINE
8
Calque 1
10
38.260222
20
140.597560
11
38.106460
21
142.463154
0
LINE
8
Calque 1
10
38.106460
20
142.463154
11
38.155972
21
144.728244
0
LINE
8
Calque 1
10
38.155972
20
144.728244
11
38.587053
21
147.388753
0
LINE
8
Calque 1
10
38.587053
20
147.388753
11
39.149455
21
150.653097
0
LINE
8
Calque 1
10
39.149455
20
150.653097
11
39.266826
21
151.024654
0
LINE
8
Calque 1
10
39.266826
20
151.024654
11
39.720289
21
151.120832
0
LINE
8
Calque 1
10
39.720289
20
151.120832
11
40.291131
21
151.120832
0
LINE
8
Calque 1
10
40.291131
20
151.120832
11
40.146845
21
149.613683
0
LINE
8
Calque 1
10
40.146845
20
149.613683
11
39.832783
21
144.476798
0
LINE
8
Calque 1
10
39.832783
20
144.476798
11
39.898767
21
142.754027
0
LINE
8
Calque 1
10
39.898767
20
142.754027
11
40.113071
21
141.509844
0
LINE
8
Calque 1
10
40.113071
20
141.509844
11
40.362758
21
140.347923
0
LINE
8
Calque 1
10
40.362758
20
140.347923
11
40.244759
21
139.716492
0
LINE
8
Calque 1
10
40.244759
20
139.716492
11
39.954041
21
139.388236
0
LINE
8
Calque 1
10
39.954041
20
139.388236
11
39.588867
21
139.293876
0
LINE
8
Calque 1
10
39.588867
20
139.293876
11
39.167070
21
139.432412
0
LINE
8
Calque 1
10
39.167070
20
139.432412
11
38.706481
21
139.802840
0
LINE
8
Calque 1
10
38.706481
20
139.802840
11
38.706481
21
139.802840
0
LINE
8
Calque 1
10
22.062526
20
135.961612
11
25.915026
21
136.607210
0
LINE
8
Calque 1
10
25.915026
20
136.607210
11
27.653433
21
137.067811
0
LINE
8
Calque 1
10
27.653433
20
137.067811
11
27.441527
21
137.860875
0
LINE
8
Calque 1
10
27.441527
20
137.860875
11
26.806577
21
139.515938
0
LINE
8
Calque 1
10
26.806577
20
139.515938
11
26.309841
21
141.283200
0
LINE
8
Calque 1
10
26.309841
20
141.283200
11
26.297690
21
141.877293
0
LINE
8
Calque 1
10
26.297690
20
141.877293
11
26.497298
21
142.529174
0
LINE
8
Calque 1
10
26.497298
20
142.529174
11
27.539709
21
144.023942
0
LINE
8
Calque 1
10
27.539709
20
144.023942
11
28.388880
21
145.291137
0
LINE
8
Calque 1
10
28.388880
20
145.291137
11
28.474200
21
145.808962
0
LINE
8
Calque 1
10
28.474200
20
145.808962
11
28.340169
21
146.268749
0
LINE
8
Calque 1
10
28.340169
20
146.268749
11
27.923643
21
146.690870
0
LINE
8
Calque 1
10
27.923643
20
146.690870
11
27.237903
21
147.044852
0
LINE
8
Calque 1
10
27.237903
20
147.044852
11
26.391915
21
147.288199
0
LINE
8
Calque 1
10
26.391915
20
147.288199
11
25.494648
21
147.378419
0
LINE
8
Calque 1
10
25.494648
20
147.378419
11
23.762934
21
147.143942
0
LINE
8
Calque 1
10
23.762934
20
147.143942
11
21.354136
21
146.475978
0
LINE
8
Calque 1
10
21.354136
20
146.475978
11
18.426292
21
145.425418
0
LINE
8
Calque 1
10
18.426292
20
145.425418
11
15.137439
21
144.043156
0
LINE
8
Calque 1
10
15.137439
20
144.043156
11
14.575704
21
143.556609
0
LINE
8
Calque 1
10
14.575704
20
143.556609
11
14.112309
21
142.437399
0
LINE
8
Calque 1
10
14.112309
20
142.437399
11
13.683035
21
140.524847
0
LINE
8
Calque 1
10
13.683035
20
140.524847
11
13.919495
21
139.607617
0
LINE
8
Calque 1
10
13.919495
20
139.607617
11
14.511838
21
138.385060
0
LINE
8
Calque 1
10
14.511838
20
138.385060
11
15.284510
21
137.170597
0
LINE
8
Calque 1
10
15.284510
20
137.170597
11
16.061960
21
136.277653
0
LINE
8
Calque 1
10
16.061960
20
136.277653
11
16.835616
21
135.752672
0
LINE
8
Calque 1
10
16.835616
20
135.752672
11
17.835365
21
135.538606
0
LINE
8
Calque 1
10
17.835365
20
135.538606
11
19.448553
21
135.615053
0
LINE
8
Calque 1
10
19.448553
20
135.615053
11
22.062526
21
135.961612
0
LINE
8
Calque 1
10
22.062526
20
135.961612
11
22.062526
21
135.961612
0
LINE
8
Calque 1
10
191.969475
20
138.589017
11
192.447237
21
138.966612
0
LINE
8
Calque 1
10
192.447237
20
138.966612
11
192.654716
21
139.824538
0
LINE
8
Calque 1
10
192.654716
20
139.824538
11
193.334527
21
143.013406
0
LINE
8
Calque 1
10
193.334527
20
143.013406
11
193.987827
21
145.073373
0
LINE
8
Calque 1
10
193.987827
20
145.073373
11
194.440159
21
145.683771
0
LINE
8
Calque 1
10
194.440159
20
145.683771
11
195.202169
21
146.427363
0
LINE
8
Calque 1
10
195.202169
20
146.427363
11
196.299662
21
147.584214
0
LINE
8
Calque 1
10
196.299662
20
147.584214
11
196.419172
21
147.954171
0
LINE
8
Calque 1
10
196.419172
20
147.954171
11
196.372452
21
148.385847
0
LINE
8
Calque 1
10
196.372452
20
148.385847
11
196.068213
21
149.164877
0
LINE
8
Calque 1
10
196.068213
20
149.164877
11
195.438782
21
149.781499
0
LINE
8
Calque 1
10
195.438782
20
149.781499
11
194.394680
21
150.296203
0
LINE
8
Calque 1
10
194.394680
20
150.296203
11
192.846427
21
150.769477
0
LINE
8
Calque 1
10
192.846427
20
150.769477
11
190.273130
21
151.328714
0
LINE
8
Calque 1
10
190.273130
20
151.328714
11
189.854930
21
151.201425
0
LINE
8
Calque 1
10
189.854930
20
151.201425
11
189.404163
21
150.823604
0
LINE
8
Calque 1
10
189.404163
20
150.823604
11
188.427464
21
149.340636
0
LINE
8
Calque 1
10
188.427464
20
149.340636
11
187.784546
21
148.373679
0
LINE
8
Calque 1
10
187.784546
20
148.373679
11
187.006346
21
147.526989
0
LINE
8
Calque 1
10
187.006346
20
147.526989
11
186.175831
21
146.575746
0
LINE
8
Calque 1
10
186.175831
20
146.575746
11
185.407131
21
145.357411
0
LINE
8
Calque 1
10
185.407131
20
145.357411
11
184.088016
21
142.568120
0
LINE
8
Calque 1
10
184.088016
20
142.568120
11
183.551520
21
141.077325
0
LINE
8
Calque 1
10
183.551520
20
141.077325
11
189.400033
21
138.859939
0
LINE
8
Calque 1
10
189.400033
20
138.859939
11
190.534824
21
138.432541
0
LINE
8
Calque 1
10
190.534824
20
138.432541
11
190.716910
21
138.256550
0
LINE
8
Calque 1
10
190.716910
20
138.256550
11
190.712293
21
138.063087
0
LINE
8
Calque 1
10
190.712293
20
138.063087
11
190.665777
21
137.818445
0
LINE
8
Calque 1
10
190.665777
20
137.818445
11
190.994055
21
138.035997
0
LINE
8
Calque 1
10
190.994055
20
138.035997
11
191.969475
21
138.589017
0
LINE
8
Calque 1
10
191.969475
20
138.589017
11
191.969475
21
138.589017
0
LINE
8
Calque 1
10
195.502516
20
141.912567
11
195.633478
21
142.909466
0
LINE
8
Calque 1
10
195.633478
20
142.909466
11
195.195506
21
142.143377
0
LINE
8
Calque 1
10
195.195506
20
142.143377
11
194.538905
21
141.247132
0
LINE
8
Calque 1
10
194.538905
20
141.247132
11
194.430723
21
140.718203
0
LINE
8
Calque 1
10
194.430723
20
140.718203
11
194.686806
21
139.687284
0
LINE
8
Calque 1
10
194.686806
20
139.687284
11
194.758364
21
139.609875
0
LINE
8
Calque 1
10
194.758364
20
139.609875
11
194.854235
21
139.676686
0
LINE
8
Calque 1
10
194.854235
20
139.676686
11
195.087667
21
140.157711
0
LINE
8
Calque 1
10
195.087667
20
140.157711
11
195.502516
21
141.912567
0
LINE
8
Calque 1
10
195.502516
20
141.912567
11
195.502516
21
141.912567
0
LINE
8
Calque 1
10
31.099850
20
143.580261
11
30.705728
21
143.798827
0
LINE
8
Calque 1
10
30.705728
20
143.798827
11
30.125035
21
143.652975
0
LINE
8
Calque 1
10
30.125035
20
143.652975
11
29.594760
21
143.292307
0
LINE
8
Calque 1
10
29.594760
20
143.292307
11
29.357862
21
142.634652
0
LINE
8
Calque 1
10
29.357862
20
142.634652
11
29.245697
21
141.005070
0
LINE
8
Calque 1
10
29.245697
20
141.005070
11
29.359387
21
140.446927
0
LINE
8
Calque 1
10
29.359387
20
140.446927
11
29.586270
21
140.059750
0
LINE
8
Calque 1
10
29.586270
20
140.059750
11
29.806389
21
139.881932
0
LINE
8
Calque 1
10
29.806389
20
139.881932
11
30.004444
21
139.980486
0
LINE
8
Calque 1
10
30.004444
20
139.980486
11
30.694712
21
141.462854
0
LINE
8
Calque 1
10
30.694712
20
141.462854
11
31.266339
21
143.020662
0
LINE
8
Calque 1
10
31.266339
20
143.020662
11
31.261565
21
143.353144
0
LINE
8
Calque 1
10
31.261565
20
143.353144
11
31.099850
21
143.580261
0
LINE
8
Calque 1
10
31.099850
20
143.580261
11
31.099850
21
143.580261
0
LINE
8
Calque 1
10
180.316674
20
139.947138
11
180.386894
21
142.909466
0
LINE
8
Calque 1
10
180.386894
20
142.909466
11
180.576814
21
145.389427
0
LINE
8
Calque 1
10
180.576814
20
145.389427
11
180.823443
21
146.411098
0
LINE
8
Calque 1
10
180.823443
20
146.411098
11
181.213206
21
147.371987
0
LINE
8
Calque 1
10
181.213206
20
147.371987
11
182.548199
21
149.365686
0
LINE
8
Calque 1
10
182.548199
20
149.365686
11
184.833920
21
151.879061
0
LINE
8
Calque 1
10
184.833920
20
151.879061
11
186.891424
21
153.866704
0
LINE
8
Calque 1
10
186.891424
20
153.866704
11
187.493804
21
154.162768
0
LINE
8
Calque 1
10
187.493804
20
154.162768
11
188.227073
21
154.288435
0
LINE
8
Calque 1
10
188.227073
20
154.288435
11
189.611102
21
154.607529
0
LINE
8
Calque 1
10
189.611102
20
154.607529
11
189.613281
21
155.027552
0
LINE
8
Calque 1
10
189.613281
20
155.027552
11
189.376820
21
155.804581
0
LINE
8
Calque 1
10
189.376820
20
155.804581
11
188.935845
21
156.610452
0
LINE
8
Calque 1
10
188.935845
20
156.610452
11
188.276321
21
157.384190
0
LINE
8
Calque 1
10
188.276321
20
157.384190
11
186.422526
21
158.765746
0
LINE
8
Calque 1
10
186.422526
20
158.765746
11
184.057227
21
159.810215
0
LINE
8
Calque 1
10
184.057227
20
159.810215
11
181.422221
21
160.378565
0
LINE
8
Calque 1
10
181.422221
20
160.378565
11
180.227278
21
160.390083
0
LINE
8
Calque 1
10
180.227278
20
160.390083
11
179.214673
21
159.877750
0
LINE
8
Calque 1
10
179.214673
20
159.877750
11
178.325282
21
159.193149
0
LINE
8
Calque 1
10
178.325282
20
159.193149
11
177.336572
21
158.207231
0
LINE
8
Calque 1
10
177.336572
20
158.207231
11
174.738242
21
154.977943
0
LINE
8
Calque 1
10
174.738242
20
154.977943
11
173.346848
21
152.998031
0
LINE
8
Calque 1
10
173.346848
20
152.998031
11
172.387030
21
151.318963
0
LINE
8
Calque 1
10
172.387030
20
151.318963
11
171.779344
21
149.777518
0
LINE
8
Calque 1
10
171.779344
20
149.777518
11
171.444347
21
148.210475
0
LINE
8
Calque 1
10
171.444347
20
148.210475
11
170.999367
21
145.445797
0
LINE
8
Calque 1
10
170.999367
20
145.445797
11
170.817320
21
144.371509
0
LINE
8
Calque 1
10
170.817320
20
144.371509
11
170.870103
21
143.702353
0
LINE
8
Calque 1
10
170.870103
20
143.702353
11
171.237848
21
143.218662
0
LINE
8
Calque 1
10
171.237848
20
143.218662
11
172.000683
21
142.700769
0
LINE
8
Calque 1
10
172.000683
20
142.700769
11
175.779115
21
140.639519
0
LINE
8
Calque 1
10
175.779115
20
140.639519
11
177.206217
21
140.118833
0
LINE
8
Calque 1
10
177.206217
20
140.118833
11
178.449156
21
139.883979
0
LINE
8
Calque 1
10
178.449156
20
139.883979
11
180.131895
21
139.717770
0
LINE
8
Calque 1
10
180.131895
20
139.717770
11
180.316674
21
139.947138
0
LINE
8
Calque 1
10
180.316674
20
139.947138
11
180.316674
21
139.947138
0
LINE
8
Calque 1
10
15.409572
20
150.081419
11
15.536364
21
150.228236
0
LINE
8
Calque 1
10
15.536364
20
150.228236
11
15.841206
21
150.289301
0
LINE
8
Calque 1
10
15.841206
20
150.289301
11
16.257702
21
150.472502
0
LINE
8
Calque 1
10
16.257702
20
150.472502
11
16.010959
21
150.836431
0
LINE
8
Calque 1
10
16.010959
20
150.836431
11
14.773164
21
151.134980
0
LINE
8
Calque 1
10
14.773164
20
151.134980
11
14.159667
21
151.147387
0
LINE
8
Calque 1
10
14.159667
20
151.147387
11
13.895907
21
151.035903
0
LINE
8
Calque 1
10
13.895907
20
151.035903
11
13.762825
21
150.341272
0
LINE
8
Calque 1
10
13.762825
20
150.341272
11
13.791148
21
149.946300
0
LINE
8
Calque 1
10
13.791148
20
149.946300
11
14.521134
21
149.873537
0
LINE
8
Calque 1
10
14.521134
20
149.873537
11
15.148593
21
149.934601
0
LINE
8
Calque 1
10
15.148593
20
149.934601
11
15.409572
21
150.081419
0
LINE
8
Calque 1
10
15.409572
20
150.081419
11
15.409572
21
150.081419
0
LINE
8
Calque 1
10
36.045781
20
157.886424
11
38.339618
21
158.448717
0
LINE
8
Calque 1
10
38.339618
20
158.448717
11
40.238240
21
159.295029
0
LINE
8
Calque 1
10
40.238240
20
159.295029
11
41.721857
21
160.413860
0
LINE
8
Calque 1
10
41.721857
20
160.413860
11
42.770682
21
161.793714
0
LINE
8
Calque 1
10
42.770682
20
161.793714
11
43.099567
21
162.459650
0
LINE
8
Calque 1
10
43.099567
20
162.459650
11
43.273888
21
163.139435
0
LINE
8
Calque 1
10
43.273888
20
163.139435
11
43.348182
21
165.880504
0
LINE
8
Calque 1
10
43.348182
20
165.880504
11
43.293144
21
167.949960
0
LINE
8
Calque 1
10
43.293144
20
167.949960
11
43.089370
21
169.393032
0
LINE
8
Calque 1
10
43.089370
20
169.393032
11
42.654815
21
170.543009
0
LINE
8
Calque 1
10
42.654815
20
170.543009
11
41.907432
21
171.733180
0
LINE
8
Calque 1
10
41.907432
20
171.733180
11
40.840388
21
172.818924
0
LINE
8
Calque 1
10
40.840388
20
172.818924
11
39.091864
21
173.862422
0
LINE
8
Calque 1
10
39.091864
20
173.862422
11
36.416022
21
174.983974
0
LINE
8
Calque 1
10
36.416022
20
174.983974
11
32.567025
21
176.303882
0
LINE
8
Calque 1
10
32.567025
20
176.303882
11
29.761404
21
177.088743
0
LINE
8
Calque 1
10
29.761404
20
177.088743
11
26.955783
21
177.210112
0
LINE
8
Calque 1
10
26.955783
20
177.210112
11
24.292457
21
177.112100
0
LINE
8
Calque 1
10
24.292457
20
177.112100
11
23.482882
21
176.882231
0
LINE
8
Calque 1
10
23.482882
20
176.882231
11
22.467882
21
176.436363
0
LINE
8
Calque 1
10
22.467882
20
176.436363
11
20.900106
21
175.562997
0
LINE
8
Calque 1
10
20.900106
20
175.562997
11
19.534840
21
174.513447
0
LINE
8
Calque 1
10
19.534840
20
174.513447
11
18.455146
21
173.645973
0
LINE
8
Calque 1
10
18.455146
20
173.645973
11
17.731203
21
173.364284
0
LINE
8
Calque 1
10
17.731203
20
173.364284
11
17.250840
21
173.232560
0
LINE
8
Calque 1
10
17.250840
20
173.232560
11
16.959026
21
172.758307
0
LINE
8
Calque 1
10
16.959026
20
172.758307
11
16.813701
21
172.081067
0
LINE
8
Calque 1
10
16.813701
20
172.081067
11
21.705916
21
172.267802
0
LINE
8
Calque 1
10
21.705916
20
172.267802
11
25.749925
21
172.424895
0
LINE
8
Calque 1
10
25.749925
20
172.424895
11
28.388824
21
172.350309
0
LINE
8
Calque 1
10
28.388824
20
172.350309
11
29.993380
21
172.007582
0
LINE
8
Calque 1
10
29.993380
20
172.007582
11
30.934358
21
171.360252
0
LINE
8
Calque 1
10
30.934358
20
171.360252
11
31.203507
21
170.996277
0
LINE
8
Calque 1
10
31.203507
20
170.996277
11
31.339935
21
170.492414
0
LINE
8
Calque 1
10
31.339935
20
170.492414
11
31.346213
21
167.987414
0
LINE
8
Calque 1
10
31.346213
20
167.987414
11
31.175325
21
165.313202
0
LINE
8
Calque 1
10
31.175325
20
165.313202
11
30.927124
21
164.506380
0
LINE
8
Calque 1
10
30.927124
20
164.506380
11
30.467049
21
163.528848
0
LINE
8
Calque 1
10
30.467049
20
163.528848
11
29.463799
21
161.890448
0
LINE
8
Calque 1
10
29.463799
20
161.890448
11
27.937253
21
160.214213
0
LINE
8
Calque 1
10
27.937253
20
160.214213
11
26.260432
21
158.482260
0
LINE
8
Calque 1
10
26.260432
20
158.482260
11
27.926957
21
158.024352
0
LINE
8
Calque 1
10
27.926957
20
158.024352
11
29.681455
21
157.719421
0
LINE
8
Calque 1
10
29.681455
20
157.719421
11
31.755863
21
157.592471
0
LINE
8
Calque 1
10
31.755863
20
157.592471
11
33.945525
21
157.646980
0
LINE
8
Calque 1
10
33.945525
20
157.646980
11
36.045781
21
157.886424
0
LINE
8
Calque 1
10
36.045781
20
157.886424
11
36.045781
21
157.886424
0
LINE
8
Calque 1
10
136.449827
20
161.839917
11
137.119943
21
162.902855
0
LINE
8
Calque 1
10
137.119943
20
162.902855
11
137.620712
21
164.194796
0
LINE
8
Calque 1
10
137.620712
20
164.194796
11
137.957892
21
165.735210
0
LINE
8
Calque 1
10
137.957892
20
165.735210
11
138.137245
21
167.543566
0
LINE
8
Calque 1
10
138.137245
20
167.543566
11
138.169992
21
169.438660
0
LINE
8
Calque 1
10
138.169992
20
169.438660
11
137.943140
21
170.622050
0
LINE
8
Calque 1
10
137.943140
20
170.622050
11
137.338186
21
171.368698
0
LINE
8
Calque 1
10
137.338186
20
171.368698
11
136.236628
21
171.953565
0
LINE
8
Calque 1
10
136.236628
20
171.953565
11
134.803351
21
172.568019
0
LINE
8
Calque 1
10
134.803351
20
172.568019
11
133.453364
21
171.326761
0
LINE
8
Calque 1
10
133.453364
20
171.326761
11
132.434580
21
170.277652
0
LINE
8
Calque 1
10
132.434580
20
170.277652
11
132.225057
21
169.698036
0
LINE
8
Calque 1
10
132.225057
20
169.698036
11
133.292407
21
165.669096
0
LINE
8
Calque 1
10
133.292407
20
165.669096
11
133.803557
21
161.681706
0
LINE
8
Calque 1
10
133.803557
20
161.681706
11
133.927825
21
160.081441
0
LINE
8
Calque 1
10
133.927825
20
160.081441
11
134.827687
21
160.504941
0
LINE
8
Calque 1
10
134.827687
20
160.504941
11
135.675383
21
161.071784
0
LINE
8
Calque 1
10
135.675383
20
161.071784
11
136.449827
21
161.839917
0
LINE
8
Calque 1
10
136.449827
20
161.839917
11
136.449827
21
161.839917
0
LINE
8
Calque 1
10
21.927412
20
160.692506
11
24.365976
21
161.246646
0
LINE
8
Calque 1
10
24.365976
20
161.246646
11
25.660879
21
161.583829
0
LINE
8
Calque 1
10
25.660879
20
161.583829
11
25.627560
21
165.343257
0
LINE
8
Calque 1
10
25.627560
20
165.343257
11
25.538438
21
168.537420
0
LINE
8
Calque 1
10
25.538438
20
168.537420
11
25.414575
21
169.032807
0
LINE
8
Calque 1
10
25.414575
20
169.032807
11
25.195927
21
169.164854
0
LINE
8
Calque 1
10
25.195927
20
169.164854
11
22.939924
21
169.631804
0
LINE
8
Calque 1
10
22.939924
20
169.631804
11
21.082239
21
170.036587
0
LINE
8
Calque 1
10
21.082239
20
170.036587
11
18.096757
21
169.505386
0
LINE
8
Calque 1
10
18.096757
20
169.505386
11
14.913857
21
168.856656
0
LINE
8
Calque 1
10
14.913857
20
168.856656
11
14.818237
21
168.342901
0
LINE
8
Calque 1
10
14.818237
20
168.342901
11
14.854452
21
167.226984
0
LINE
8
Calque 1
10
14.854452
20
167.226984
11
15.225758
21
164.529266
0
LINE
8
Calque 1
10
15.225758
20
164.529266
11
15.569340
21
163.407309
0
LINE
8
Calque 1
10
15.569340
20
163.407309
11
16.057336
21
162.467033
0
LINE
8
Calque 1
10
16.057336
20
162.467033
11
16.688127
21
161.709362
0
LINE
8
Calque 1
10
16.688127
20
161.709362
11
17.460098
21
161.135223
0
LINE
8
Calque 1
10
17.460098
20
161.135223
11
18.371629
21
160.745542
0
LINE
8
Calque 1
10
18.371629
20
160.745542
11
19.421103
21
160.541245
0
LINE
8
Calque 1
10
19.421103
20
160.541245
11
20.606904
21
160.523258
0
LINE
8
Calque 1
10
20.606904
20
160.523258
11
21.927412
21
160.692506
0
LINE
8
Calque 1
10
21.927412
20
160.692506
11
21.927412
21
160.692506
0
LINE
8
Calque 1
10
80.144431
20
166.075082
11
81.329744
21
167.462831
0
LINE
8
Calque 1
10
81.329744
20
167.462831
11
82.616873
21
168.712220
0
LINE
8
Calque 1
10
82.616873
20
168.712220
11
83.883286
21
169.715171
0
LINE
8
Calque 1
10
83.883286
20
169.715171
11
85.006448
21
170.363604
0
LINE
8
Calque 1
10
85.006448
20
170.363604
11
86.256357
21
170.738983
0
LINE
8
Calque 1
10
86.256357
20
170.738983
11
87.767214
21
170.971956
0
LINE
8
Calque 1
10
87.767214
20
170.971956
11
89.271924
21
171.189360
0
LINE
8
Calque 1
10
89.271924
20
171.189360
11
89.552442
21
171.423430
0
LINE
8
Calque 1
10
89.552442
20
171.423430
11
89.763521
21
171.848736
0
LINE
8
Calque 1
10
89.763521
20
171.848736
11
90.080380
21
172.714049
0
LINE
8
Calque 1
10
90.080380
20
172.714049
11
88.523535
21
174.403697
0
LINE
8
Calque 1
10
88.523535
20
174.403697
11
87.413333
21
175.633555
0
LINE
8
Calque 1
10
87.413333
20
175.633555
11
87.028254
21
176.326612
0
LINE
8
Calque 1
10
87.028254
20
176.326612
11
86.941910
21
176.595779
0
LINE
8
Calque 1
10
86.941910
20
176.595779
11
86.595673
21
176.668804
0
LINE
8
Calque 1
10
86.595673
20
176.668804
11
85.338137
21
176.316358
0
LINE
8
Calque 1
10
85.338137
20
176.316358
11
83.684877
21
175.449128
0
LINE
8
Calque 1
10
83.684877
20
175.449128
11
82.065125
21
174.246970
0
LINE
8
Calque 1
10
82.065125
20
174.246970
11
80.758576
21
172.692858
0
LINE
8
Calque 1
10
80.758576
20
172.692858
11
79.746258
21
170.708658
0
LINE
8
Calque 1
10
79.746258
20
170.708658
11
79.092035
21
168.456702
0
LINE
8
Calque 1
10
79.092035
20
168.456702
11
78.859769
21
166.099319
0
LINE
8
Calque 1
10
78.859769
20
166.099319
11
78.947250
21
164.633209
0
LINE
8
Calque 1
10
78.947250
20
164.633209
11
80.144431
21
166.075082
0
LINE
8
Calque 1
10
80.144431
20
166.075082
11
80.144431
21
166.075082
0
LINE
8
Calque 1
10
28.662359
20
167.121822
11
28.600323
21
167.874738
0
LINE
8
Calque 1
10
28.600323
20
167.874738
11
28.304640
21
168.124506
0
LINE
8
Calque 1
10
28.304640
20
168.124506
11
28.104163
21
168.109970
0
LINE
8
Calque 1
10
28.104163
20
168.109970
11
27.992488
21
167.898726
0
LINE
8
Calque 1
10
27.992488
20
167.898726
11
27.944562
21
166.467424
0
LINE
8
Calque 1
10
27.944562
20
166.467424
11
27.962170
21
164.737151
0
LINE
8
Calque 1
10
27.962170
20
164.737151
11
28.302286
21
165.464740
0
LINE
8
Calque 1
10
28.302286
20
165.464740
11
28.662359
21
167.121822
0
LINE
8
Calque 1
10
28.662359
20
167.121822
11
28.662359
21
167.121822
 0 
ENDSEC
 0 
EOF
