999
"DXF R12 Output" (www.mydxf.blogspot.com)
 0 
SECTION
 2 
HEADER
 9 
$ACADVER
 1 
AC1009
 9 
$EXTMIN
 10 
 0 
 20 
 0 
 9 
$EXTMAX
 10 
 8.5 
 20 
 11 
 0 
ENDSEC
 0 
SECTION
 2 
ENTITIES
0
LINE
8
Layer 1
10
1.289382
20
70.800268
11
1.289382
21
70.800268
0
LINE
8
Layer 1
10
1.289382
20
70.800268
11
1.289382
21
70.800268
0
LINE
8
Layer 1
10
296.776027
20
1.916094
11
299.925306
21
2.938564
0
LINE
8
Layer 1
10
299.925306
20
2.938564
11
302.907898
21
4.280862
0
LINE
8
Layer 1
10
302.907898
20
4.280862
11
303.524273
21
4.745420
0
LINE
8
Layer 1
10
303.524273
20
4.745420
11
303.889033
21
5.292121
0
LINE
8
Layer 1
10
303.889033
20
5.292121
11
303.988410
21
5.887103
0
LINE
8
Layer 1
10
303.988410
20
5.887103
11
303.808638
21
6.496504
0
LINE
8
Layer 1
10
303.808638
20
6.496504
11
303.329612
21
7.086822
0
LINE
8
Layer 1
10
303.329612
20
7.086822
11
302.657887
21
7.293916
0
LINE
8
Layer 1
10
302.657887
20
7.293916
11
301.684829
21
7.119979
0
LINE
8
Layer 1
10
301.684829
20
7.119979
11
300.301801
21
6.567201
0
LINE
8
Layer 1
10
300.301801
20
6.567201
11
297.967542
21
5.618772
0
LINE
8
Layer 1
10
297.967542
20
5.618772
11
295.762239
21
5.023802
0
LINE
8
Layer 1
10
295.762239
20
5.023802
11
293.340141
21
4.714735
0
LINE
8
Layer 1
10
293.340141
20
4.714735
11
290.355500
21
4.624016
0
LINE
8
Layer 1
10
290.355500
20
4.624016
11
286.333833
21
4.619162
0
LINE
8
Layer 1
10
286.333833
20
4.619162
11
286.333833
21
6.281197
0
LINE
8
Layer 1
10
286.333833
20
6.281197
11
286.986557
21
18.063439
0
LINE
8
Layer 1
10
286.986557
20
18.063439
11
290.284944
21
18.429594
0
LINE
8
Layer 1
10
290.284944
20
18.429594
11
296.100534
21
19.228857
0
LINE
8
Layer 1
10
296.100534
20
19.228857
11
302.141635
21
20.485324
0
LINE
8
Layer 1
10
302.141635
20
20.485324
11
308.231990
21
22.134962
0
LINE
8
Layer 1
10
308.231990
20
22.134962
11
314.195340
21
24.113739
0
LINE
8
Layer 1
10
314.195340
20
24.113739
11
319.855427
21
26.357623
0
LINE
8
Layer 1
10
319.855427
20
26.357623
11
325.035994
21
28.802582
0
LINE
8
Layer 1
10
325.035994
20
28.802582
11
329.560781
21
31.384584
0
LINE
8
Layer 1
10
329.560781
20
31.384584
11
333.253532
21
34.039596
0
LINE
8
Layer 1
10
333.253532
20
34.039596
11
334.146148
21
34.913279
0
LINE
8
Layer 1
10
334.146148
20
34.913279
11
334.409373
21
35.451494
0
LINE
8
Layer 1
10
334.409373
20
35.451494
11
334.361233
21
35.611883
0
LINE
8
Layer 1
10
334.361233
20
35.611883
11
334.505328
21
35.577179
0
LINE
8
Layer 1
10
334.505328
20
35.577179
11
334.762503
21
35.612682
0
LINE
8
Layer 1
10
334.762503
20
35.612682
11
335.114406
21
35.910889
0
LINE
8
Layer 1
10
335.114406
20
35.910889
11
335.921202
21
37.001506
0
LINE
8
Layer 1
10
335.921202
20
37.001506
11
336.563331
21
38.261205
0
LINE
8
Layer 1
10
336.563331
20
38.261205
11
336.709402
21
38.770765
0
LINE
8
Layer 1
10
336.709402
20
38.770765
11
336.678411
21
39.102163
0
LINE
8
Layer 1
10
336.678411
20
39.102163
11
336.622767
21
39.278033
0
LINE
8
Layer 1
10
336.622767
20
39.278033
11
336.789861
21
39.229521
0
LINE
8
Layer 1
10
336.789861
20
39.229521
11
336.941826
21
39.246475
0
LINE
8
Layer 1
10
336.941826
20
39.246475
11
337.079617
21
39.465232
0
LINE
8
Layer 1
10
337.079617
20
39.465232
11
337.290269
21
40.349787
0
LINE
8
Layer 1
10
337.290269
20
40.349787
11
337.376990
21
41.566449
0
LINE
8
Layer 1
10
337.376990
20
41.566449
11
337.294954
21
42.798481
0
LINE
8
Layer 1
10
337.294954
20
42.798481
11
336.870792
21
44.466870
0
LINE
8
Layer 1
10
336.870792
20
44.466870
11
336.126381
21
46.051644
0
LINE
8
Layer 1
10
336.126381
20
46.051644
11
335.022809
21
47.619168
0
LINE
8
Layer 1
10
335.022809
20
47.619168
11
333.521163
21
49.235812
0
LINE
8
Layer 1
10
333.521163
20
49.235812
11
331.026346
21
51.502486
0
LINE
8
Layer 1
10
331.026346
20
51.502486
11
328.021738
21
53.974231
0
LINE
8
Layer 1
10
328.021738
20
53.974231
11
320.922957
21
59.226189
0
LINE
8
Layer 1
10
320.922957
20
59.226189
11
313.104440
21
64.378198
0
LINE
8
Layer 1
10
313.104440
20
64.378198
11
305.445809
21
68.816770
0
LINE
8
Layer 1
10
305.445809
20
68.816770
11
302.302626
21
70.361073
0
LINE
8
Layer 1
10
302.302626
20
70.361073
11
298.877778
21
71.866266
0
LINE
8
Layer 1
10
298.877778
20
71.866266
11
296.054318
21
72.964428
0
LINE
8
Layer 1
10
296.054318
20
72.964428
11
294.715297
21
73.287633
0
LINE
8
Layer 1
10
294.715297
20
73.287633
11
294.566601
21
73.247792
0
LINE
8
Layer 1
10
294.566601
20
73.247792
11
294.608278
21
73.398713
0
LINE
8
Layer 1
10
294.608278
20
73.398713
11
294.489628
21
73.604092
0
LINE
8
Layer 1
10
294.489628
20
73.604092
11
293.991087
21
73.948033
0
LINE
8
Layer 1
10
293.991087
20
73.948033
11
291.973134
21
74.994971
0
LINE
8
Layer 1
10
291.973134
20
74.994971
11
284.685345
21
78.128664
0
LINE
8
Layer 1
10
284.685345
20
78.128664
11
278.128953
21
80.561753
0
LINE
8
Layer 1
10
278.128953
20
80.561753
11
271.017030
21
82.852140
0
LINE
8
Layer 1
10
271.017030
20
82.852140
11
263.728955
21
84.885901
0
LINE
8
Layer 1
10
263.728955
20
84.885901
11
256.644109
21
86.549114
0
LINE
8
Layer 1
10
256.644109
20
86.549114
11
254.077819
21
87.201353
0
LINE
8
Layer 1
10
254.077819
20
87.201353
11
252.585900
21
87.793443
0
LINE
8
Layer 1
10
252.585900
20
87.793443
11
251.457940
21
89.170553
0
LINE
8
Layer 1
10
251.457940
20
89.170553
11
249.808032
21
91.707863
0
LINE
8
Layer 1
10
249.808032
20
91.707863
11
247.786432
21
95.071379
0
LINE
8
Layer 1
10
247.786432
20
95.071379
11
245.964019
21
95.671476
0
LINE
8
Layer 1
10
245.964019
20
95.671476
11
239.802089
21
97.364810
0
LINE
8
Layer 1
10
239.802089
20
97.364810
11
235.462578
21
98.458045
0
LINE
8
Layer 1
10
235.462578
20
98.458045
11
235.628101
21
100.822207
0
LINE
8
Layer 1
10
235.628101
20
100.822207
11
235.875393
21
103.260734
0
LINE
8
Layer 1
10
235.875393
20
103.260734
11
237.435274
21
103.189340
0
LINE
8
Layer 1
10
237.435274
20
103.189340
11
238.670092
21
102.966104
0
LINE
8
Layer 1
10
238.670092
20
102.966104
11
238.802413
21
102.747275
0
LINE
8
Layer 1
10
238.802413
20
102.747275
11
238.745234
21
102.373591
0
LINE
8
Layer 1
10
238.745234
20
102.373591
11
238.719602
21
101.842035
0
LINE
8
Layer 1
10
238.719602
20
101.842035
11
239.098703
21
101.703601
0
LINE
8
Layer 1
10
239.098703
20
101.703601
11
265.446521
21
100.424432
0
LINE
8
Layer 1
10
265.446521
20
100.424432
11
290.597352
21
99.038566
0
LINE
8
Layer 1
10
290.597352
20
99.038566
11
313.642192
21
97.319987
0
LINE
8
Layer 1
10
313.642192
20
97.319987
11
336.572747
21
95.494712
0
LINE
8
Layer 1
10
336.572747
20
95.494712
11
337.016492
21
95.671739
0
LINE
8
Layer 1
10
337.016492
20
95.671739
11
337.133805
21
96.341379
0
LINE
8
Layer 1
10
337.133805
20
96.341379
11
337.022073
21
96.996559
0
LINE
8
Layer 1
10
337.022073
20
96.996559
11
336.639916
21
97.188311
0
LINE
8
Layer 1
10
336.639916
20
97.188311
11
313.568249
21
99.302079
0
LINE
8
Layer 1
10
313.568249
20
99.302079
11
290.373628
21
101.640890
0
LINE
8
Layer 1
10
290.373628
20
101.640890
11
265.308269
21
104.662986
0
LINE
8
Layer 1
10
265.308269
20
104.662986
11
239.414380
21
107.911440
0
LINE
8
Layer 1
10
239.414380
20
107.911440
11
239.264891
21
107.724899
0
LINE
8
Layer 1
10
239.264891
20
107.724899
11
239.202714
21
107.274930
0
LINE
8
Layer 1
10
239.202714
20
107.274930
11
239.202714
21
106.637370
0
LINE
8
Layer 1
10
239.202714
20
106.637370
11
234.193269
21
107.063263
0
LINE
8
Layer 1
10
234.193269
20
107.063263
11
229.183825
21
107.489157
0
LINE
8
Layer 1
10
229.183825
20
107.489157
11
229.096418
21
108.544400
0
LINE
8
Layer 1
10
229.096418
20
108.544400
11
229.009008
21
109.599645
0
LINE
8
Layer 1
10
229.009008
20
109.599645
11
230.225306
21
109.449974
0
LINE
8
Layer 1
10
230.225306
20
109.449974
11
239.719943
21
108.590802
0
LINE
8
Layer 1
10
239.719943
20
108.590802
11
247.093122
21
108.090146
0
LINE
8
Layer 1
10
247.093122
20
108.090146
11
245.042176
21
110.321971
0
LINE
8
Layer 1
10
245.042176
20
110.321971
11
243.624489
21
111.577779
0
LINE
8
Layer 1
10
243.624489
20
111.577779
11
242.169024
21
112.643588
0
LINE
8
Layer 1
10
242.169024
20
112.643588
11
240.670512
21
113.521404
0
LINE
8
Layer 1
10
240.670512
20
113.521404
11
239.123687
21
114.213237
0
LINE
8
Layer 1
10
239.123687
20
114.213237
11
237.523281
21
114.721093
0
LINE
8
Layer 1
10
237.523281
20
114.721093
11
235.864026
21
115.046980
0
LINE
8
Layer 1
10
235.864026
20
115.046980
11
234.140655
21
115.192908
0
LINE
8
Layer 1
10
234.140655
20
115.192908
11
232.347900
21
115.160883
0
LINE
8
Layer 1
10
232.347900
20
115.160883
11
229.615815
21
114.810048
0
LINE
8
Layer 1
10
229.615815
20
114.810048
11
227.165876
21
114.109582
0
LINE
8
Layer 1
10
227.165876
20
114.109582
11
224.873724
21
113.012341
0
LINE
8
Layer 1
10
224.873724
20
113.012341
11
222.615004
21
111.471182
0
LINE
8
Layer 1
10
222.615004
20
111.471182
11
221.126180
21
110.311379
0
LINE
8
Layer 1
10
221.126180
20
110.311379
11
222.756115
21
110.121189
0
LINE
8
Layer 1
10
222.756115
20
110.121189
11
226.573269
21
109.744332
0
LINE
8
Layer 1
10
226.573269
20
109.744332
11
228.246240
21
109.512799
0
LINE
8
Layer 1
10
228.246240
20
109.512799
11
228.635998
21
109.362271
0
LINE
8
Layer 1
10
228.635998
20
109.362271
11
228.760491
21
109.180173
0
LINE
8
Layer 1
10
228.760491
20
109.180173
11
228.664159
21
109.004005
0
LINE
8
Layer 1
10
228.664159
20
109.004005
11
228.333095
21
108.910134
0
LINE
8
Layer 1
10
228.333095
20
108.910134
11
226.714380
21
108.939604
0
LINE
8
Layer 1
10
226.714380
20
108.939604
11
199.691602
21
110.316837
0
LINE
8
Layer 1
10
199.691602
20
110.316837
11
184.477455
21
111.108145
0
LINE
8
Layer 1
10
184.477455
20
111.108145
11
170.552200
21
112.006946
0
LINE
8
Layer 1
10
170.552200
20
112.006946
11
119.399380
21
116.075684
0
LINE
8
Layer 1
10
119.399380
20
116.075684
11
62.884380
21
120.739068
0
LINE
8
Layer 1
10
62.884380
20
120.739068
11
61.905898
21
120.766096
0
LINE
8
Layer 1
10
61.905898
20
120.766096
11
61.730314
21
120.636772
0
LINE
8
Layer 1
10
61.730314
20
120.636772
11
61.684936
21
120.389208
0
LINE
8
Layer 1
10
61.684936
20
120.389208
11
61.996362
21
120.209071
0
LINE
8
Layer 1
10
61.996362
20
120.209071
11
63.261061
21
119.974219
0
LINE
8
Layer 1
10
63.261061
20
119.974219
11
70.632797
21
119.138402
0
LINE
8
Layer 1
10
70.632797
20
119.138402
11
118.623269
21
114.588489
0
LINE
8
Layer 1
10
118.623269
20
114.588489
11
171.461943
21
109.550498
0
LINE
8
Layer 1
10
171.461943
20
109.550498
11
185.914009
21
107.951053
0
LINE
8
Layer 1
10
185.914009
20
107.951053
11
202.019936
21
105.969133
0
LINE
8
Layer 1
10
202.019936
20
105.969133
11
228.478269
21
102.655788
0
LINE
8
Layer 1
10
228.478269
20
102.655788
11
228.478269
21
103.344940
0
LINE
8
Layer 1
10
228.478269
20
103.344940
11
228.507754
21
103.730468
0
LINE
8
Layer 1
10
228.507754
20
103.730468
11
228.679941
21
103.913217
0
LINE
8
Layer 1
10
228.679941
20
103.913217
11
229.954819
21
103.838225
0
LINE
8
Layer 1
10
229.954819
20
103.838225
11
231.518542
21
103.555182
0
LINE
8
Layer 1
10
231.518542
20
103.555182
11
231.562114
21
102.857154
0
LINE
8
Layer 1
10
231.562114
20
102.857154
11
231.405740
21
101.553496
0
LINE
8
Layer 1
10
231.405740
20
101.553496
11
231.153316
21
100.295311
0
LINE
8
Layer 1
10
231.153316
20
100.295311
11
230.908741
21
99.733701
0
LINE
8
Layer 1
10
230.908741
20
99.733701
11
227.913825
21
100.481336
0
LINE
8
Layer 1
10
227.913825
20
100.481336
11
226.231795
21
100.897854
0
LINE
8
Layer 1
10
226.231795
20
100.897854
11
224.424481
21
101.134590
0
LINE
8
Layer 1
10
224.424481
20
101.134590
11
216.907158
21
101.345678
0
LINE
8
Layer 1
10
216.907158
20
101.345678
11
207.170491
21
101.290984
0
LINE
8
Layer 1
10
207.170491
20
101.290984
11
205.759380
21
101.113926
0
LINE
8
Layer 1
10
205.759380
20
101.113926
11
202.654936
21
96.410901
0
LINE
8
Layer 1
10
202.654936
20
96.410901
11
200.251309
21
92.937317
0
LINE
8
Layer 1
10
200.251309
20
92.937317
11
198.831807
21
91.190177
0
LINE
8
Layer 1
10
198.831807
20
91.190177
11
197.603401
21
90.730088
0
LINE
8
Layer 1
10
197.603401
20
90.730088
11
195.304029
21
90.391042
0
LINE
8
Layer 1
10
195.304029
20
90.391042
11
190.445623
21
89.822084
0
LINE
8
Layer 1
10
190.445623
20
89.822084
11
185.653792
21
89.089547
0
LINE
8
Layer 1
10
185.653792
20
89.089547
11
180.868867
21
88.178704
0
LINE
8
Layer 1
10
180.868867
20
88.178704
11
176.031178
21
87.074829
0
LINE
8
Layer 1
10
176.031178
20
87.074829
11
171.081055
21
85.763198
0
LINE
8
Layer 1
10
171.081055
20
85.763198
11
165.958827
21
84.229083
0
LINE
8
Layer 1
10
165.958827
20
84.229083
11
154.959380
21
80.434502
0
LINE
8
Layer 1
10
154.959380
20
80.434502
11
153.760129
21
80.034772
0
LINE
8
Layer 1
10
153.760129
20
80.034772
11
152.582074
21
79.813958
0
LINE
8
Layer 1
10
152.582074
20
79.813958
11
148.397714
21
79.696220
0
LINE
8
Layer 1
10
148.397714
20
79.696220
11
145.030173
21
79.616860
0
LINE
8
Layer 1
10
145.030173
20
79.616860
11
143.811602
21
79.408045
0
LINE
8
Layer 1
10
143.811602
20
79.408045
11
134.165459
21
79.199226
0
LINE
8
Layer 1
10
134.165459
20
79.199226
11
105.499936
21
79.135137
0
LINE
8
Layer 1
10
105.499936
20
79.135137
11
67.188269
21
79.144453
0
LINE
8
Layer 1
10
67.188269
20
79.144453
11
50.396047
21
105.989106
0
LINE
8
Layer 1
10
50.396047
20
105.989106
11
32.721392
21
133.998415
0
LINE
8
Layer 1
10
32.721392
20
133.998415
11
31.828143
21
134.996400
0
LINE
8
Layer 1
10
31.828143
20
134.996400
11
30.761135
21
135.887092
0
LINE
8
Layer 1
10
30.761135
20
135.887092
11
29.584092
21
136.624262
0
LINE
8
Layer 1
10
29.584092
20
136.624262
11
28.360740
21
137.161683
0
LINE
8
Layer 1
10
28.360740
20
137.161683
11
23.896249
21
137.734466
0
LINE
8
Layer 1
10
23.896249
20
137.734466
11
15.006316
21
138.653036
0
LINE
8
Layer 1
10
15.006316
20
138.653036
11
6.271065
21
139.467136
0
LINE
8
Layer 1
10
6.271065
20
139.467136
11
2.270624
21
139.726510
0
LINE
8
Layer 1
10
2.270624
20
139.726510
11
8.428844
21
120.330269
0
LINE
8
Layer 1
10
8.428844
20
120.330269
11
12.343770
21
108.013544
0
LINE
8
Layer 1
10
12.343770
20
108.013544
11
14.240476
21
101.376557
0
LINE
8
Layer 1
10
14.240476
20
101.376557
11
14.593913
21
99.495290
0
LINE
8
Layer 1
10
14.593913
20
99.495290
11
14.637095
21
98.202747
0
LINE
8
Layer 1
10
14.637095
20
98.202747
11
14.434788
21
97.221858
0
LINE
8
Layer 1
10
14.434788
20
97.221858
11
14.051760
21
96.275553
0
LINE
8
Layer 1
10
14.051760
20
96.275553
11
12.060422
21
93.193996
0
LINE
8
Layer 1
10
12.060422
20
93.193996
11
8.078498
21
87.606703
0
LINE
8
Layer 1
10
8.078498
20
87.606703
11
4.185377
21
82.190692
0
LINE
8
Layer 1
10
4.185377
20
82.190692
11
2.407543
21
79.520940
0
LINE
8
Layer 1
10
2.407543
20
79.520940
11
2.187150
21
78.120370
0
LINE
8
Layer 1
10
2.187150
20
78.120370
11
2.140898
21
76.024569
0
LINE
8
Layer 1
10
2.140898
20
76.024569
11
2.257060
21
73.935491
0
LINE
8
Layer 1
10
2.257060
20
73.935491
11
2.523910
21
72.555092
0
LINE
8
Layer 1
10
2.523910
20
72.555092
11
3.344636
21
71.456846
0
LINE
8
Layer 1
10
3.344636
20
71.456846
11
5.068382
21
69.587087
0
LINE
8
Layer 1
10
5.068382
20
69.587087
11
9.826649
21
64.982908
0
LINE
8
Layer 1
10
9.826649
20
64.982908
11
10.476252
21
64.256281
0
LINE
8
Layer 1
10
10.476252
20
64.256281
11
11.119443
21
62.943897
0
LINE
8
Layer 1
10
11.119443
20
62.943897
11
13.552148
21
55.638327
0
LINE
8
Layer 1
10
13.552148
20
55.638327
11
16.504651
21
46.716479
0
LINE
8
Layer 1
10
16.504651
20
46.716479
11
17.051112
21
46.002805
0
LINE
8
Layer 1
10
17.051112
20
46.002805
11
17.882277
21
45.244264
0
LINE
8
Layer 1
10
17.882277
20
45.244264
11
18.818510
21
44.584962
0
LINE
8
Layer 1
10
18.818510
20
44.584962
11
19.680176
21
44.169005
0
LINE
8
Layer 1
10
19.680176
20
44.169005
11
28.509215
21
42.123147
0
LINE
8
Layer 1
10
28.509215
20
42.123147
11
36.718432
21
40.461379
0
LINE
8
Layer 1
10
36.718432
20
40.461379
11
37.379623
21
40.512693
0
LINE
8
Layer 1
10
37.379623
20
40.512693
11
38.009851
21
40.708504
0
LINE
8
Layer 1
10
38.009851
20
40.708504
11
38.671441
21
41.111615
0
LINE
8
Layer 1
10
38.671441
20
41.111615
11
39.426719
21
41.784829
0
LINE
8
Layer 1
10
39.426719
20
41.784829
11
41.467639
21
44.192776
0
LINE
8
Layer 1
10
41.467639
20
44.192776
11
44.631218
21
48.434769
0
LINE
8
Layer 1
10
44.631218
20
48.434769
11
49.641927
21
55.293861
0
LINE
8
Layer 1
10
49.641927
20
55.293861
11
51.218431
21
55.809882
0
LINE
8
Layer 1
10
51.218431
20
55.809882
11
58.528060
21
58.652990
0
LINE
8
Layer 1
10
58.528060
20
58.652990
11
66.549990
21
62.117851
0
LINE
8
Layer 1
10
66.549990
20
62.117851
11
68.943480
21
63.184431
0
LINE
8
Layer 1
10
68.943480
20
63.184431
11
70.027729
21
63.539325
0
LINE
8
Layer 1
10
70.027729
20
63.539325
11
69.509129
21
61.870078
0
LINE
8
Layer 1
10
69.509129
20
61.870078
11
68.048957
21
58.070107
0
LINE
8
Layer 1
10
68.048957
20
58.070107
11
65.918269
21
52.392645
0
LINE
8
Layer 1
10
65.918269
20
52.392645
11
66.257463
21
52.206443
0
LINE
8
Layer 1
10
66.257463
20
52.206443
11
67.164330
21
52.080164
0
LINE
8
Layer 1
10
67.164330
20
52.080164
11
70.016803
21
52.000654
0
LINE
8
Layer 1
10
70.016803
20
52.000654
11
73.147120
21
52.140678
0
LINE
8
Layer 1
10
73.147120
20
52.140678
11
75.226717
21
52.486797
0
LINE
8
Layer 1
10
75.226717
20
52.486797
11
75.985251
21
52.945765
0
LINE
8
Layer 1
10
75.985251
20
52.945765
11
77.063266
21
53.898605
0
LINE
8
Layer 1
10
77.063266
20
53.898605
11
80.758690
21
57.849019
0
LINE
8
Layer 1
10
80.758690
20
57.849019
11
85.155236
21
62.756934
0
LINE
8
Layer 1
10
85.155236
20
62.756934
11
87.178419
21
62.759000
0
LINE
8
Layer 1
10
87.178419
20
62.759000
11
117.209078
21
61.713447
0
LINE
8
Layer 1
10
117.209078
20
61.713447
11
143.810174
21
60.517213
0
LINE
8
Layer 1
10
143.810174
20
60.517213
11
144.532324
21
60.308976
0
LINE
8
Layer 1
10
144.532324
20
60.308976
11
146.068398
21
60.110082
0
LINE
8
Layer 1
10
146.068398
20
60.110082
11
147.857519
21
59.866681
0
LINE
8
Layer 1
10
147.857519
20
59.866681
11
149.404193
21
59.184681
0
LINE
8
Layer 1
10
149.404193
20
59.184681
11
151.536701
21
57.540365
0
LINE
8
Layer 1
10
151.536701
20
57.540365
11
155.083324
21
54.410017
0
LINE
8
Layer 1
10
155.083324
20
54.410017
11
162.537065
21
48.141094
0
LINE
8
Layer 1
10
162.537065
20
48.141094
11
171.046047
21
41.321344
0
LINE
8
Layer 1
10
171.046047
20
41.321344
11
176.802562
21
36.983325
0
LINE
8
Layer 1
10
176.802562
20
36.983325
11
181.923662
21
33.348656
0
LINE
8
Layer 1
10
181.923662
20
33.348656
11
186.703931
21
30.215997
0
LINE
8
Layer 1
10
186.703931
20
30.215997
11
191.437951
21
27.384008
0
LINE
8
Layer 1
10
191.437951
20
27.384008
11
198.205635
21
23.740930
0
LINE
8
Layer 1
10
198.205635
20
23.740930
11
204.073733
21
21.088439
0
LINE
8
Layer 1
10
204.073733
20
21.088439
11
206.740857
21
20.105629
0
LINE
8
Layer 1
10
206.740857
20
20.105629
11
209.267586
21
19.336825
0
LINE
8
Layer 1
10
209.267586
20
19.336825
11
211.682090
21
18.770812
0
LINE
8
Layer 1
10
211.682090
20
18.770812
11
214.012534
21
18.396376
0
LINE
8
Layer 1
10
214.012534
20
18.396376
11
216.659731
21
18.071059
0
LINE
8
Layer 1
10
216.659731
20
18.071059
11
216.467518
21
13.391221
0
LINE
8
Layer 1
10
216.467518
20
13.391221
11
216.097344
21
8.531383
0
LINE
8
Layer 1
10
216.097344
20
8.531383
11
213.500427
21
8.532180
0
LINE
8
Layer 1
10
213.500427
20
8.532180
11
207.506683
21
8.786935
0
LINE
8
Layer 1
10
207.506683
20
8.786935
11
200.523719
21
9.074435
0
LINE
8
Layer 1
10
200.523719
20
9.074435
11
199.211127
21
9.016091
0
LINE
8
Layer 1
10
199.211127
20
9.016091
11
198.717527
21
8.825825
0
LINE
8
Layer 1
10
198.717527
20
8.825825
11
198.322018
21
8.272647
0
LINE
8
Layer 1
10
198.322018
20
8.272647
11
198.150657
21
7.699981
0
LINE
8
Layer 1
10
198.150657
20
7.699981
11
198.206384
21
7.136729
0
LINE
8
Layer 1
10
198.206384
20
7.136729
11
198.492144
21
6.611792
0
LINE
8
Layer 1
10
198.492144
20
6.611792
11
198.755541
21
6.400956
0
LINE
8
Layer 1
10
198.755541
20
6.400956
11
199.515397
21
6.212593
0
LINE
8
Layer 1
10
199.515397
20
6.212593
11
204.611959
21
5.765394
0
LINE
8
Layer 1
10
204.611959
20
5.765394
11
243.724788
21
3.623849
0
LINE
8
Layer 1
10
243.724788
20
3.623849
11
276.830559
21
1.954836
0
LINE
8
Layer 1
10
276.830559
20
1.954836
11
291.696027
21
1.373409
0
LINE
8
Layer 1
10
291.696027
20
1.373409
11
294.527069
21
1.578786
0
LINE
8
Layer 1
10
294.527069
20
1.578786
11
296.776027
21
1.916094
0
LINE
8
Layer 1
10
296.776027
20
1.916094
11
296.776027
21
1.916094
0
LINE
8
Layer 1
10
244.000491
20
3.909966
11
199.479936
21
6.293925
0
LINE
8
Layer 1
10
199.479936
20
6.293925
11
199.409380
21
7.582495
0
LINE
8
Layer 1
10
199.409380
20
7.582495
11
199.409380
21
8.852495
0
LINE
8
Layer 1
10
199.409380
20
8.852495
11
200.608825
21
8.846258
0
LINE
8
Layer 1
10
200.608825
20
8.846258
11
209.598144
21
8.407632
0
LINE
8
Layer 1
10
209.598144
20
8.407632
11
216.691326
21
7.842535
0
LINE
8
Layer 1
10
216.691326
20
7.842535
11
216.894561
21
7.763739
0
LINE
8
Layer 1
10
216.894561
20
7.763739
11
216.766047
21
7.950287
0
LINE
8
Layer 1
10
216.766047
20
7.950287
11
216.629045
21
9.711248
0
LINE
8
Layer 1
10
216.629045
20
9.711248
11
216.782630
21
14.376572
0
LINE
8
Layer 1
10
216.782630
20
14.376572
11
217.119828
21
19.547225
0
LINE
8
Layer 1
10
217.119828
20
19.547225
11
217.320392
21
20.487086
0
LINE
8
Layer 1
10
217.320392
20
20.487086
11
217.612682
21
20.881823
0
LINE
8
Layer 1
10
217.612682
20
20.881823
11
218.088735
21
21.162978
0
LINE
8
Layer 1
10
218.088735
20
21.162978
11
218.503644
21
21.248271
0
LINE
8
Layer 1
10
218.503644
20
21.248271
11
218.891374
21
21.136581
0
LINE
8
Layer 1
10
218.891374
20
21.136581
11
219.285888
21
20.826789
0
LINE
8
Layer 1
10
219.285888
20
20.826789
11
219.584800
21
20.421442
0
LINE
8
Layer 1
10
219.584800
20
20.421442
11
219.698235
21
19.532740
0
LINE
8
Layer 1
10
219.698235
20
19.532740
11
219.419701
21
13.518250
0
LINE
8
Layer 1
10
219.419701
20
13.518250
11
219.105632
21
9.535681
0
LINE
8
Layer 1
10
219.105632
20
9.535681
11
218.784701
21
7.723607
0
LINE
8
Layer 1
10
218.784701
20
7.723607
11
218.601675
21
7.440040
0
LINE
8
Layer 1
10
218.601675
20
7.440040
11
218.882714
21
7.612298
0
LINE
8
Layer 1
10
218.882714
20
7.612298
11
221.785424
21
7.612697
0
LINE
8
Layer 1
10
221.785424
20
7.612697
11
229.085844
21
7.344721
0
LINE
8
Layer 1
10
229.085844
20
7.344721
11
251.031972
21
6.303764
0
LINE
8
Layer 1
10
251.031972
20
6.303764
11
273.025417
21
5.089669
0
LINE
8
Layer 1
10
273.025417
20
5.089669
11
280.384983
21
4.605271
0
LINE
8
Layer 1
10
280.384983
20
4.605271
11
283.370500
21
4.302678
0
LINE
8
Layer 1
10
283.370500
20
4.302678
11
283.775552
21
4.097227
0
LINE
8
Layer 1
10
283.775552
20
4.097227
11
283.580106
21
4.393554
0
LINE
8
Layer 1
10
283.580106
20
4.393554
11
283.422125
21
4.934728
0
LINE
8
Layer 1
10
283.422125
20
4.934728
11
283.377509
21
6.246935
0
LINE
8
Layer 1
10
283.377509
20
6.246935
11
283.637172
21
12.423989
0
LINE
8
Layer 1
10
283.637172
20
12.423989
11
284.229754
21
20.495743
0
LINE
8
Layer 1
10
284.229754
20
20.495743
11
284.516963
21
20.894668
0
LINE
8
Layer 1
10
284.516963
20
20.894668
11
284.963570
21
21.124117
0
LINE
8
Layer 1
10
284.963570
20
21.124117
11
285.496067
21
21.163882
0
LINE
8
Layer 1
10
285.496067
20
21.163882
11
286.040943
21
20.993752
0
LINE
8
Layer 1
10
286.040943
20
20.993752
11
286.436200
21
20.639312
0
LINE
8
Layer 1
10
286.436200
20
20.639312
11
286.594296
21
19.539507
0
LINE
8
Layer 1
10
286.594296
20
19.539507
11
286.294802
21
11.533607
0
LINE
8
Layer 1
10
286.294802
20
11.533607
11
285.943135
21
6.019492
0
LINE
8
Layer 1
10
285.943135
20
6.019492
11
285.755175
21
4.776206
0
LINE
8
Layer 1
10
285.755175
20
4.776206
11
285.522698
21
4.195829
0
LINE
8
Layer 1
10
285.522698
20
4.195829
11
285.294649
21
3.865512
0
LINE
8
Layer 1
10
285.294649
20
3.865512
11
285.480534
21
3.984162
0
LINE
8
Layer 1
10
285.480534
20
3.984162
11
286.790102
21
4.254810
0
LINE
8
Layer 1
10
286.790102
20
4.254810
11
290.129722
21
4.341794
0
LINE
8
Layer 1
10
290.129722
20
4.341794
11
293.227802
21
4.428891
0
LINE
8
Layer 1
10
293.227802
20
4.428891
11
295.694816
21
4.727373
0
LINE
8
Layer 1
10
295.694816
20
4.727373
11
297.891950
21
5.305097
0
LINE
8
Layer 1
10
297.891950
20
5.305097
11
300.180389
21
6.229917
0
LINE
8
Layer 1
10
300.180389
20
6.229917
11
302.032529
21
7.075822
0
LINE
8
Layer 1
10
302.032529
20
7.075822
11
302.672383
21
5.964092
0
LINE
8
Layer 1
10
302.672383
20
5.964092
11
303.205473
21
4.745654
0
LINE
8
Layer 1
10
303.205473
20
4.745654
11
300.920884
21
3.646427
0
LINE
8
Layer 1
10
300.920884
20
3.646427
11
298.787572
21
2.790407
0
LINE
8
Layer 1
10
298.787572
20
2.790407
11
296.662256
21
2.199893
0
LINE
8
Layer 1
10
296.662256
20
2.199893
11
294.360040
21
1.834990
0
LINE
8
Layer 1
10
294.360040
20
1.834990
11
291.696027
21
1.655801
0
LINE
8
Layer 1
10
291.696027
20
1.655801
11
276.945614
21
2.236074
0
LINE
8
Layer 1
10
276.945614
20
2.236074
11
244.000491
21
3.909966
0
LINE
8
Layer 1
10
244.000491
20
3.909966
11
244.000491
21
3.909966
0
LINE
8
Layer 1
10
249.927158
20
6.600588
11
219.492954
21
8.257204
0
LINE
8
Layer 1
10
219.492954
20
8.257204
11
219.572022
21
11.694988
0
LINE
8
Layer 1
10
219.572022
20
11.694988
11
219.899377
21
16.684162
0
LINE
8
Layer 1
10
219.899377
20
16.684162
11
220.052217
21
18.165829
0
LINE
8
Layer 1
10
220.052217
20
18.165829
11
251.822382
21
18.165829
0
LINE
8
Layer 1
10
251.822382
20
18.165829
11
283.592552
21
18.165829
0
LINE
8
Layer 1
10
283.592552
20
18.165829
11
283.404733
21
13.438607
0
LINE
8
Layer 1
10
283.404733
20
13.438607
11
283.045577
21
6.806384
0
LINE
8
Layer 1
10
283.045577
20
6.806384
11
282.874240
21
4.901384
0
LINE
8
Layer 1
10
282.874240
20
4.901384
11
281.570136
21
4.938101
0
LINE
8
Layer 1
10
281.570136
20
4.938101
11
249.927158
21
6.600588
0
LINE
8
Layer 1
10
249.927158
20
6.600588
11
249.927158
21
6.600588
0
LINE
8
Layer 1
10
302.868104
20
6.065156
11
302.562133
21
6.715096
0
LINE
8
Layer 1
10
302.562133
20
6.715096
11
302.532344
21
7.082906
0
LINE
8
Layer 1
10
302.532344
20
7.082906
11
302.832494
21
7.052087
0
LINE
8
Layer 1
10
302.832494
20
7.052087
11
303.268313
21
6.726307
0
LINE
8
Layer 1
10
303.268313
20
6.726307
11
303.660958
21
6.273618
0
LINE
8
Layer 1
10
303.660958
20
6.273618
11
303.831583
21
5.862069
0
LINE
8
Layer 1
10
303.831583
20
5.862069
11
303.750028
21
5.470256
0
LINE
8
Layer 1
10
303.750028
20
5.470256
11
303.533814
21
5.379497
0
LINE
8
Layer 1
10
303.533814
20
5.379497
11
303.225614
21
5.580796
0
LINE
8
Layer 1
10
303.225614
20
5.580796
11
302.868104
21
6.065156
0
LINE
8
Layer 1
10
302.868104
20
6.065156
11
302.868104
21
6.065156
0
LINE
8
Layer 1
10
198.631251
20
6.787899
11
198.422862
21
7.441533
0
LINE
8
Layer 1
10
198.422862
20
7.441533
11
198.613056
21
8.199010
0
LINE
8
Layer 1
10
198.613056
20
8.199010
11
198.913654
21
8.788519
0
LINE
8
Layer 1
10
198.913654
20
8.788519
11
199.055550
21
8.362473
0
LINE
8
Layer 1
10
199.055550
20
8.362473
11
199.073745
21
6.951362
0
LINE
8
Layer 1
10
199.073745
20
6.951362
11
198.948528
21
6.352222
0
LINE
8
Layer 1
10
198.948528
20
6.352222
11
198.631251
21
6.787899
0
LINE
8
Layer 1
10
198.631251
20
6.787899
11
198.631251
21
6.787899
0
LINE
8
Layer 1
10
213.097158
20
18.760894
11
209.908370
21
19.462746
0
LINE
8
Layer 1
10
209.908370
20
19.462746
11
206.038668
21
20.690973
0
LINE
8
Layer 1
10
206.038668
20
20.690973
11
201.890893
21
22.302873
0
LINE
8
Layer 1
10
201.890893
20
22.302873
11
197.867888
21
24.155741
0
LINE
8
Layer 1
10
197.867888
20
24.155741
11
192.520664
21
27.045490
0
LINE
8
Layer 1
10
192.520664
20
27.045490
11
188.826047
21
29.226575
0
LINE
8
Layer 1
10
188.826047
20
29.226575
11
189.085129
21
29.340294
0
LINE
8
Layer 1
10
189.085129
20
29.340294
11
190.153107
21
29.394557
0
LINE
8
Layer 1
10
190.153107
20
29.394557
11
194.752714
21
29.325333
0
LINE
8
Layer 1
10
194.752714
20
29.325333
11
200.133307
21
29.249501
0
LINE
8
Layer 1
10
200.133307
20
29.249501
11
201.231891
21
29.378967
0
LINE
8
Layer 1
10
201.231891
20
29.378967
11
201.929320
21
29.649866
0
LINE
8
Layer 1
10
201.929320
20
29.649866
11
203.172143
21
30.623187
0
LINE
8
Layer 1
10
203.172143
20
30.623187
11
203.928348
21
31.910026
0
LINE
8
Layer 1
10
203.928348
20
31.910026
11
204.155002
21
33.389547
0
LINE
8
Layer 1
10
204.155002
20
33.389547
11
203.809171
21
34.940915
0
LINE
8
Layer 1
10
203.809171
20
34.940915
11
203.445212
21
35.669993
0
LINE
8
Layer 1
10
203.445212
20
35.669993
11
203.210628
21
35.890033
0
LINE
8
Layer 1
10
203.210628
20
35.890033
11
203.494815
21
34.929479
0
LINE
8
Layer 1
10
203.494815
20
34.929479
11
203.796642
21
34.126526
0
LINE
8
Layer 1
10
203.796642
20
34.126526
11
203.923197
21
33.344843
0
LINE
8
Layer 1
10
203.923197
20
33.344843
11
203.790107
21
32.548953
0
LINE
8
Layer 1
10
203.790107
20
32.548953
11
203.467203
21
31.640270
0
LINE
8
Layer 1
10
203.467203
20
31.640270
11
203.073439
21
30.893563
0
LINE
8
Layer 1
10
203.073439
20
30.893563
11
202.727772
21
30.583601
0
LINE
8
Layer 1
10
202.727772
20
30.583601
11
202.683122
21
30.767853
0
LINE
8
Layer 1
10
202.683122
20
30.767853
11
202.921156
21
31.210843
0
LINE
8
Layer 1
10
202.921156
20
31.210843
11
203.222795
21
32.106412
0
LINE
8
Layer 1
10
203.222795
20
32.106412
11
203.357063
21
33.393344
0
LINE
8
Layer 1
10
203.357063
20
33.393344
11
203.307845
21
34.599353
0
LINE
8
Layer 1
10
203.307845
20
34.599353
11
203.059030
21
35.252158
0
LINE
8
Layer 1
10
203.059030
20
35.252158
11
202.891080
21
35.500905
0
LINE
8
Layer 1
10
202.891080
20
35.500905
11
202.910621
21
35.837323
0
LINE
8
Layer 1
10
202.910621
20
35.837323
11
202.383608
21
36.796594
0
LINE
8
Layer 1
10
202.383608
20
36.796594
11
200.496570
21
39.283750
0
LINE
8
Layer 1
10
200.496570
20
39.283750
11
192.012158
21
49.639917
0
LINE
8
Layer 1
10
192.012158
20
49.639917
11
189.374797
21
52.409798
0
LINE
8
Layer 1
10
189.374797
20
52.409798
11
188.080811
21
53.289900
0
LINE
8
Layer 1
10
188.080811
20
53.289900
11
186.560632
21
54.081034
0
LINE
8
Layer 1
10
186.560632
20
54.081034
11
184.969792
21
54.712099
0
LINE
8
Layer 1
10
184.969792
20
54.712099
11
183.463825
21
55.111991
0
LINE
8
Layer 1
10
183.463825
20
55.111991
11
168.430980
21
56.526149
0
LINE
8
Layer 1
10
168.430980
20
56.526149
11
153.137514
21
57.676934
0
LINE
8
Layer 1
10
153.137514
20
57.676934
11
151.827534
21
57.818929
0
LINE
8
Layer 1
10
151.827534
20
57.818929
11
150.928279
21
58.382490
0
LINE
8
Layer 1
10
150.928279
20
58.382490
11
150.167371
21
59.088045
0
LINE
8
Layer 1
10
150.167371
20
59.088045
11
167.521153
21
59.087343
0
LINE
8
Layer 1
10
167.521153
20
59.087343
11
184.874936
21
59.086637
0
LINE
8
Layer 1
10
184.874936
20
59.086637
11
200.437561
21
40.107898
0
LINE
8
Layer 1
10
200.437561
20
40.107898
11
213.294958
21
24.271371
0
LINE
8
Layer 1
10
213.294958
20
24.271371
11
215.311478
21
21.532433
0
LINE
8
Layer 1
10
215.311478
20
21.532433
11
215.617157
21
20.945005
0
LINE
8
Layer 1
10
215.617157
20
20.945005
11
215.607005
21
20.683590
0
LINE
8
Layer 1
10
215.607005
20
20.683590
11
215.329321
21
20.106011
0
LINE
8
Layer 1
10
215.329321
20
20.106011
11
215.213825
21
19.343034
0
LINE
8
Layer 1
10
215.213825
20
19.343034
11
215.151648
21
18.721069
0
LINE
8
Layer 1
10
215.151648
20
18.721069
11
215.002158
21
18.482454
0
LINE
8
Layer 1
10
215.002158
20
18.482454
11
213.097158
21
18.760894
0
LINE
8
Layer 1
10
213.097158
20
18.760894
11
213.097158
21
18.760894
0
LINE
8
Layer 1
10
215.496047
20
19.410739
11
215.722907
21
20.348687
0
LINE
8
Layer 1
10
215.722907
20
20.348687
11
216.339255
21
21.119796
0
LINE
8
Layer 1
10
216.339255
20
21.119796
11
217.248736
21
21.642371
0
LINE
8
Layer 1
10
217.248736
20
21.642371
11
218.355000
21
21.834718
0
LINE
8
Layer 1
10
218.355000
20
21.834718
11
219.499424
21
21.627330
0
LINE
8
Layer 1
10
219.499424
20
21.627330
11
220.480045
21
21.075896
0
LINE
8
Layer 1
10
220.480045
20
21.075896
11
221.165070
21
20.286512
0
LINE
8
Layer 1
10
221.165070
20
20.286512
11
221.422705
21
19.365273
0
LINE
8
Layer 1
10
221.422705
20
19.365273
11
221.297884
21
18.610329
0
LINE
8
Layer 1
10
221.297884
20
18.610329
11
220.717158
21
18.448051
0
LINE
8
Layer 1
10
220.717158
20
18.448051
11
220.346111
21
18.480682
0
LINE
8
Layer 1
10
220.346111
20
18.480682
11
220.132554
21
18.617381
0
LINE
8
Layer 1
10
220.132554
20
18.617381
11
220.011602
21
19.435829
0
LINE
8
Layer 1
10
220.011602
20
19.435829
11
219.878332
21
20.190563
0
LINE
8
Layer 1
10
219.878332
20
20.190563
11
219.532097
21
20.871056
0
LINE
8
Layer 1
10
219.532097
20
20.871056
11
219.053258
21
21.363101
0
LINE
8
Layer 1
10
219.053258
20
21.363101
11
218.522177
21
21.552495
0
LINE
8
Layer 1
10
218.522177
20
21.552495
11
217.940320
21
21.398374
0
LINE
8
Layer 1
10
217.940320
20
21.398374
11
217.417256
21
20.977006
0
LINE
8
Layer 1
10
217.417256
20
20.977006
11
217.007687
21
20.349881
0
LINE
8
Layer 1
10
217.007687
20
20.349881
11
216.766309
21
19.578492
0
LINE
8
Layer 1
10
216.766309
20
19.578492
11
216.500276
21
18.691380
0
LINE
8
Layer 1
10
216.500276
20
18.691380
11
216.302321
21
18.503973
0
LINE
8
Layer 1
10
216.302321
20
18.503973
11
216.035684
21
18.448051
0
LINE
8
Layer 1
10
216.035684
20
18.448051
11
215.606152
21
18.644471
0
LINE
8
Layer 1
10
215.606152
20
18.644471
11
215.496047
21
19.410739
0
LINE
8
Layer 1
10
215.496047
20
19.410739
11
215.496047
21
19.410739
0
LINE
8
Layer 1
10
221.704936
20
19.388585
11
221.559894
21
20.099012
0
LINE
8
Layer 1
10
221.559894
20
20.099012
11
221.163173
21
20.742639
0
LINE
8
Layer 1
10
221.163173
20
20.742639
11
220.572383
21
21.292702
0
LINE
8
Layer 1
10
220.572383
20
21.292702
11
219.845134
21
21.722436
0
LINE
8
Layer 1
10
219.845134
20
21.722436
11
219.039033
21
22.005077
0
LINE
8
Layer 1
10
219.039033
20
22.005077
11
218.211690
21
22.113862
0
LINE
8
Layer 1
10
218.211690
20
22.113862
11
217.420714
21
22.022027
0
LINE
8
Layer 1
10
217.420714
20
22.022027
11
216.723714
21
21.702807
0
LINE
8
Layer 1
10
216.723714
20
21.702807
11
216.484698
21
21.631513
0
LINE
8
Layer 1
10
216.484698
20
21.631513
11
216.089915
21
21.837022
0
LINE
8
Layer 1
10
216.089915
20
21.837022
11
214.203223
21
23.799279
0
LINE
8
Layer 1
10
214.203223
20
23.799279
11
201.632586
21
38.974536
0
LINE
8
Layer 1
10
201.632586
20
38.974536
11
186.085711
21
57.970953
0
LINE
8
Layer 1
10
186.085711
20
57.970953
11
185.038709
21
59.281500
0
LINE
8
Layer 1
10
185.038709
20
59.281500
11
202.172378
21
64.821872
0
LINE
8
Layer 1
10
202.172378
20
64.821872
11
222.042950
21
71.085961
0
LINE
8
Layer 1
10
222.042950
20
71.085961
11
225.337701
21
71.823262
0
LINE
8
Layer 1
10
225.337701
20
71.823262
11
229.139365
21
72.428894
0
LINE
8
Layer 1
10
229.139365
20
72.428894
11
233.423501
21
72.899604
0
LINE
8
Layer 1
10
233.423501
20
72.899604
11
238.165665
21
73.232137
0
LINE
8
Layer 1
10
238.165665
20
73.232137
11
244.043062
21
73.542833
0
LINE
8
Layer 1
10
244.043062
20
73.542833
11
245.926777
21
74.666475
0
LINE
8
Layer 1
10
245.926777
20
74.666475
11
247.810491
21
75.790117
0
LINE
8
Layer 1
10
247.810491
20
75.790117
11
261.921602
21
75.604627
0
LINE
8
Layer 1
10
261.921602
20
75.604627
11
277.825719
21
75.226370
0
LINE
8
Layer 1
10
277.825719
20
75.226370
11
279.618725
21
75.033601
0
LINE
8
Layer 1
10
279.618725
20
75.033601
11
280.403732
21
73.631673
0
LINE
8
Layer 1
10
280.403732
20
73.631673
11
281.112782
21
72.540415
0
LINE
8
Layer 1
10
281.112782
20
72.540415
11
281.715170
21
71.885415
0
LINE
8
Layer 1
10
281.715170
20
71.885415
11
283.164703
21
71.425131
0
LINE
8
Layer 1
10
283.164703
20
71.425131
11
285.910500
21
70.802017
0
LINE
8
Layer 1
10
285.910500
20
70.802017
11
288.261601
21
70.264937
0
LINE
8
Layer 1
10
288.261601
20
70.264937
11
290.334991
21
69.643606
0
LINE
8
Layer 1
10
290.334991
20
69.643606
11
292.180154
21
68.908176
0
LINE
8
Layer 1
10
292.180154
20
68.908176
11
293.846575
21
68.028792
0
LINE
8
Layer 1
10
293.846575
20
68.028792
11
295.383735
21
66.975606
0
LINE
8
Layer 1
10
295.383735
20
66.975606
11
296.841120
21
65.718765
0
LINE
8
Layer 1
10
296.841120
20
65.718765
11
298.268213
21
64.228417
0
LINE
8
Layer 1
10
298.268213
20
64.228417
11
299.714497
21
62.474712
0
LINE
8
Layer 1
10
299.714497
20
62.474712
11
301.840618
21
59.753737
0
LINE
8
Layer 1
10
301.840618
20
59.753737
11
303.425530
21
57.480204
0
LINE
8
Layer 1
10
303.425530
20
57.480204
11
305.590501
21
53.948490
0
LINE
8
Layer 1
10
305.590501
20
53.948490
11
310.226146
21
45.541684
0
LINE
8
Layer 1
10
310.226146
20
45.541684
11
310.888788
21
44.279592
0
LINE
8
Layer 1
10
310.888788
20
44.279592
11
311.528148
21
43.310660
0
LINE
8
Layer 1
10
311.528148
20
43.310660
11
312.309872
21
42.567613
0
LINE
8
Layer 1
10
312.309872
20
42.567613
11
313.399607
21
41.983174
0
LINE
8
Layer 1
10
313.399607
20
41.983174
11
314.963000
21
41.490067
0
LINE
8
Layer 1
10
314.963000
20
41.490067
11
317.165695
21
41.021016
0
LINE
8
Layer 1
10
317.165695
20
41.021016
11
324.151583
21
39.885978
0
LINE
8
Layer 1
10
324.151583
20
39.885978
11
334.796299
21
38.276366
0
LINE
8
Layer 1
10
334.796299
20
38.276366
11
335.729397
21
38.070754
0
LINE
8
Layer 1
10
335.729397
20
38.070754
11
335.818411
21
37.901155
0
LINE
8
Layer 1
10
335.818411
20
37.901155
11
335.723456
21
37.640593
0
LINE
8
Layer 1
10
335.723456
20
37.640593
11
335.596879
21
37.227710
0
LINE
8
Layer 1
10
335.596879
20
37.227710
11
335.662072
21
36.925462
0
LINE
8
Layer 1
10
335.662072
20
36.925462
11
335.700913
21
36.827273
0
LINE
8
Layer 1
10
335.700913
20
36.827273
11
335.511027
21
36.905009
0
LINE
8
Layer 1
10
335.511027
20
36.905009
11
335.261878
21
36.964906
0
LINE
8
Layer 1
10
335.261878
20
36.964906
11
335.158249
21
36.823828
0
LINE
8
Layer 1
10
335.158249
20
36.823828
11
334.957932
21
36.678394
0
LINE
8
Layer 1
10
334.957932
20
36.678394
11
334.382138
21
36.793051
0
LINE
8
Layer 1
10
334.382138
20
36.793051
11
330.834277
21
37.469962
0
LINE
8
Layer 1
10
330.834277
20
37.469962
11
324.614759
21
38.403267
0
LINE
8
Layer 1
10
324.614759
20
38.403267
11
318.522759
21
39.199692
0
LINE
8
Layer 1
10
318.522759
20
39.199692
11
315.357454
21
39.465958
0
LINE
8
Layer 1
10
315.357454
20
39.465958
11
314.648974
21
39.334743
0
LINE
8
Layer 1
10
314.648974
20
39.334743
11
314.185476
21
39.121479
0
LINE
8
Layer 1
10
314.185476
20
39.121479
11
314.017531
21
38.684113
0
LINE
8
Layer 1
10
314.017531
20
38.684113
11
314.195714
21
37.880592
0
LINE
8
Layer 1
10
314.195714
20
37.880592
11
315.792754
21
34.606866
0
LINE
8
Layer 1
10
315.792754
20
34.606866
11
319.381180
21
28.163870
0
LINE
8
Layer 1
10
319.381180
20
28.163870
11
320.185006
21
26.731917
0
LINE
8
Layer 1
10
320.185006
20
26.731917
11
316.735516
21
25.377656
0
LINE
8
Layer 1
10
316.735516
20
25.377656
11
310.058477
21
22.994470
0
LINE
8
Layer 1
10
310.058477
20
22.994470
11
303.360377
21
21.053076
0
LINE
8
Layer 1
10
303.360377
20
21.053076
11
296.931232
21
19.627853
0
LINE
8
Layer 1
10
296.931232
20
19.627853
11
291.061055
21
18.793181
0
LINE
8
Layer 1
10
291.061055
20
18.793181
11
288.591611
21
18.561871
0
LINE
8
Layer 1
10
288.591611
20
18.561871
11
288.591611
21
19.472179
0
LINE
8
Layer 1
10
288.591611
20
19.472179
11
288.308841
21
20.423752
0
LINE
8
Layer 1
10
288.308841
20
20.423752
11
287.571000
21
21.273074
0
LINE
8
Layer 1
10
287.571000
20
21.273074
11
286.543795
21
21.883139
0
LINE
8
Layer 1
10
286.543795
20
21.883139
11
285.392932
21
22.116940
0
LINE
8
Layer 1
10
285.392932
20
22.116940
11
284.201940
21
21.879577
0
LINE
8
Layer 1
10
284.201940
20
21.879577
11
283.145335
21
21.258572
0
LINE
8
Layer 1
10
283.145335
20
21.258572
11
282.389419
21
20.390546
0
LINE
8
Layer 1
10
282.389419
20
20.390546
11
282.100491
21
19.412122
0
LINE
8
Layer 1
10
282.100491
20
19.412122
11
282.100491
21
18.448051
0
LINE
8
Layer 1
10
282.100491
20
18.448051
11
251.902714
21
18.448051
0
LINE
8
Layer 1
10
251.902714
20
18.448051
11
221.704936
21
18.448051
0
LINE
8
Layer 1
10
221.704936
20
18.448051
11
221.704936
21
19.388585
0
LINE
8
Layer 1
10
221.704936
20
19.388585
11
221.704936
21
19.388585
0
LINE
8
Layer 1
10
309.064378
20
31.678527
11
310.379042
21
32.553871
0
LINE
8
Layer 1
10
310.379042
20
32.553871
11
311.502668
21
33.804840
0
LINE
8
Layer 1
10
311.502668
20
33.804840
11
312.286173
21
35.222797
0
LINE
8
Layer 1
10
312.286173
20
35.222797
11
312.580472
21
36.599108
0
LINE
8
Layer 1
10
312.580472
20
36.599108
11
312.249666
21
37.678046
0
LINE
8
Layer 1
10
312.249666
20
37.678046
11
311.349252
21
39.693714
0
LINE
8
Layer 1
10
311.349252
20
39.693714
11
308.391613
21
45.500404
0
LINE
8
Layer 1
10
308.391613
20
45.500404
11
304.811584
21
51.949513
0
LINE
8
Layer 1
10
304.811584
20
51.949513
11
301.713194
21
56.971379
0
LINE
8
Layer 1
10
301.713194
20
56.971379
11
299.408679
21
60.225213
0
LINE
8
Layer 1
10
299.408679
20
60.225213
11
297.364354
21
62.861346
0
LINE
8
Layer 1
10
297.364354
20
62.861346
11
295.471951
21
64.964589
0
LINE
8
Layer 1
10
295.471951
20
64.964589
11
293.623203
21
66.619755
0
LINE
8
Layer 1
10
293.623203
20
66.619755
11
291.709840
21
67.911657
0
LINE
8
Layer 1
10
291.709840
20
67.911657
11
289.623596
21
68.925107
0
LINE
8
Layer 1
10
289.623596
20
68.925107
11
287.256202
21
69.744919
0
LINE
8
Layer 1
10
287.256202
20
69.744919
11
284.499389
21
70.455906
0
LINE
8
Layer 1
10
284.499389
20
70.455906
11
282.692062
21
70.779338
0
LINE
8
Layer 1
10
282.692062
20
70.779338
11
279.874329
21
70.967824
0
LINE
8
Layer 1
10
279.874329
20
70.967824
11
265.455281
21
71.149447
0
LINE
8
Layer 1
10
265.455281
20
71.149447
11
252.461802
21
71.160622
0
LINE
8
Layer 1
10
252.461802
20
71.160622
11
249.224252
21
71.078947
0
LINE
8
Layer 1
10
249.224252
20
71.078947
11
247.786116
21
70.934555
0
LINE
8
Layer 1
10
247.786116
20
70.934555
11
246.353390
21
70.299664
0
LINE
8
Layer 1
10
246.353390
20
70.299664
11
245.271337
21
69.269606
0
LINE
8
Layer 1
10
245.271337
20
69.269606
11
244.503857
21
67.795505
0
LINE
8
Layer 1
10
244.503857
20
67.795505
11
244.014851
21
65.828486
0
LINE
8
Layer 1
10
244.014851
20
65.828486
11
243.803062
21
60.711767
0
LINE
8
Layer 1
10
243.803062
20
60.711767
11
243.730347
21
51.512295
0
LINE
8
Layer 1
10
243.730347
20
51.512295
11
243.797846
21
42.261723
0
LINE
8
Layer 1
10
243.797846
20
42.261723
11
244.006697
21
36.991708
0
LINE
8
Layer 1
10
244.006697
20
36.991708
11
244.300932
21
35.537598
0
LINE
8
Layer 1
10
244.300932
20
35.537598
11
244.728756
21
34.274110
0
LINE
8
Layer 1
10
244.728756
20
34.274110
11
245.274654
21
33.237891
0
LINE
8
Layer 1
10
245.274654
20
33.237891
11
245.923110
21
32.465589
0
LINE
8
Layer 1
10
245.923110
20
32.465589
11
246.448156
21
32.042290
0
LINE
8
Layer 1
10
246.448156
20
32.042290
11
247.215609
21
31.724331
0
LINE
8
Layer 1
10
247.215609
20
31.724331
11
248.609768
21
31.496435
0
LINE
8
Layer 1
10
248.609768
20
31.496435
11
251.014932
21
31.343322
0
LINE
8
Layer 1
10
251.014932
20
31.343322
11
260.395466
21
31.200330
0
LINE
8
Layer 1
10
260.395466
20
31.200330
11
278.431602
21
31.173124
0
LINE
8
Layer 1
10
278.431602
20
31.173124
11
303.851108
21
31.236686
0
LINE
8
Layer 1
10
303.851108
20
31.236686
11
307.761844
21
31.390166
0
LINE
8
Layer 1
10
307.761844
20
31.390166
11
309.064378
21
31.678527
0
LINE
8
Layer 1
10
309.064378
20
31.678527
11
309.064378
21
31.678527
0
LINE
8
Layer 1
10
247.923318
20
31.869473
11
246.766679
21
32.367448
0
LINE
8
Layer 1
10
246.766679
20
32.367448
11
245.854926
21
33.090334
0
LINE
8
Layer 1
10
245.854926
20
33.090334
11
245.154247
21
34.073913
0
LINE
8
Layer 1
10
245.154247
20
34.073913
11
244.630832
21
35.353966
0
LINE
8
Layer 1
10
244.630832
20
35.353966
11
244.369763
21
36.643865
0
LINE
8
Layer 1
10
244.369763
20
36.643865
11
244.222105
21
39.088511
0
LINE
8
Layer 1
10
244.222105
20
39.088511
11
244.141602
21
51.609157
0
LINE
8
Layer 1
10
244.141602
20
51.609157
11
244.141602
21
66.284712
0
LINE
8
Layer 1
10
244.141602
20
66.284712
11
244.988269
21
67.975116
0
LINE
8
Layer 1
10
244.988269
20
67.975116
11
245.472134
21
68.947578
0
LINE
8
Layer 1
10
245.472134
20
68.947578
11
245.958908
21
69.667078
0
LINE
8
Layer 1
10
245.958908
20
69.667078
11
246.672393
21
70.173068
0
LINE
8
Layer 1
10
246.672393
20
70.173068
11
247.836389
21
70.505000
0
LINE
8
Layer 1
10
247.836389
20
70.505000
11
249.674698
21
70.702328
0
LINE
8
Layer 1
10
249.674698
20
70.702328
11
252.411121
21
70.804504
0
LINE
8
Layer 1
10
252.411121
20
70.804504
11
261.473513
21
70.881212
0
LINE
8
Layer 1
10
261.473513
20
70.881212
11
275.136531
21
70.962153
0
LINE
8
Layer 1
10
275.136531
20
70.962153
11
274.949624
21
62.015743
0
LINE
8
Layer 1
10
274.949624
20
62.015743
11
274.762714
21
42.249798
0
LINE
8
Layer 1
10
274.762714
20
42.249798
11
274.762714
21
31.430268
0
LINE
8
Layer 1
10
274.762714
20
31.430268
11
261.992158
21
31.449924
0
LINE
8
Layer 1
10
261.992158
20
31.449924
11
251.529547
21
31.546075
0
LINE
8
Layer 1
10
251.529547
20
31.546075
11
249.126971
21
31.671687
0
LINE
8
Layer 1
10
249.126971
20
31.671687
11
247.923318
21
31.869473
0
LINE
8
Layer 1
10
247.923318
20
31.869473
11
247.923318
21
31.869473
0
LINE
8
Layer 1
10
272.857714
20
48.137168
11
273.123911
21
48.702624
0
LINE
8
Layer 1
10
273.123911
20
48.702624
11
273.272682
21
50.052681
0
LINE
8
Layer 1
10
273.272682
20
50.052681
11
273.351602
21
57.692462
0
LINE
8
Layer 1
10
273.351602
20
57.692462
11
273.270298
21
65.620200
0
LINE
8
Layer 1
10
273.270298
20
65.620200
11
273.081541
21
66.838006
0
LINE
8
Layer 1
10
273.081541
20
66.838006
11
272.716602
21
67.410302
0
LINE
8
Layer 1
10
272.716602
20
67.410302
11
272.081602
21
68.144032
0
LINE
8
Layer 1
10
272.081602
20
68.144032
11
261.216047
21
68.145121
0
LINE
8
Layer 1
10
261.216047
20
68.145121
11
249.303153
21
68.132683
0
LINE
8
Layer 1
10
249.303153
20
68.132683
11
248.373234
21
67.968832
0
LINE
8
Layer 1
10
248.373234
20
67.968832
11
247.680376
21
67.501496
0
LINE
8
Layer 1
10
247.680376
20
67.501496
11
247.358465
21
66.987807
0
LINE
8
Layer 1
10
247.358465
20
66.987807
11
247.186435
21
65.881877
0
LINE
8
Layer 1
10
247.186435
20
65.881877
11
247.104936
21
59.191677
0
LINE
8
Layer 1
10
247.104936
20
59.191677
11
247.188059
21
52.410210
0
LINE
8
Layer 1
10
247.188059
20
52.410210
11
247.377044
21
51.321688
0
LINE
8
Layer 1
10
247.377044
20
51.321688
11
247.739936
21
50.764305
0
LINE
8
Layer 1
10
247.739936
20
50.764305
11
248.265754
21
50.329220
0
LINE
8
Layer 1
10
248.265754
20
50.329220
11
249.437977
21
49.998218
0
LINE
8
Layer 1
10
249.437977
20
49.998218
11
256.841602
21
49.066458
0
LINE
8
Layer 1
10
256.841602
20
49.066458
11
268.271602
21
47.701321
0
LINE
8
Layer 1
10
268.271602
20
47.701321
11
270.277826
21
47.463976
0
LINE
8
Layer 1
10
270.277826
20
47.463976
11
271.531798
21
47.440479
0
LINE
8
Layer 1
10
271.531798
20
47.440479
11
272.302200
21
47.656365
0
LINE
8
Layer 1
10
272.302200
20
47.656365
11
272.857714
21
48.137168
0
LINE
8
Layer 1
10
272.857714
20
48.137168
11
272.857714
21
48.137168
0
LINE
8
Layer 1
10
269.541602
20
47.818805
11
251.620491
21
49.921928
0
LINE
8
Layer 1
10
251.620491
20
49.921928
11
249.976353
21
50.150778
0
LINE
8
Layer 1
10
249.976353
20
50.150778
11
248.750701
21
50.500006
0
LINE
8
Layer 1
10
248.750701
20
50.500006
11
247.944847
21
50.969083
0
LINE
8
Layer 1
10
247.944847
20
50.969083
11
247.560101
21
51.557482
0
LINE
8
Layer 1
10
247.560101
20
51.557482
11
247.391010
21
59.440823
0
LINE
8
Layer 1
10
247.391010
20
59.440823
11
247.469149
21
65.741004
0
LINE
8
Layer 1
10
247.469149
20
65.741004
11
247.637611
21
66.792332
0
LINE
8
Layer 1
10
247.637611
20
66.792332
11
247.951602
21
67.272490
0
LINE
8
Layer 1
10
247.951602
20
67.272490
11
248.616511
21
67.679974
0
LINE
8
Layer 1
10
248.616511
20
67.679974
11
249.433269
21
67.850216
0
LINE
8
Layer 1
10
249.433269
20
67.850216
11
262.651908
21
67.852579
0
LINE
8
Layer 1
10
262.651908
20
67.852579
11
271.919553
21
67.702470
0
LINE
8
Layer 1
10
271.919553
20
67.702470
11
272.267162
21
67.533968
0
LINE
8
Layer 1
10
272.267162
20
67.533968
11
272.537389
21
67.219172
0
LINE
8
Layer 1
10
272.537389
20
67.219172
11
272.883956
21
65.811519
0
LINE
8
Layer 1
10
272.883956
20
65.811519
11
273.035778
21
62.801153
0
LINE
8
Layer 1
10
273.035778
20
62.801153
11
273.069380
21
57.509715
0
LINE
8
Layer 1
10
273.069380
20
57.509715
11
273.069380
21
48.902389
0
LINE
8
Layer 1
10
273.069380
20
48.902389
11
272.376652
21
48.209663
0
LINE
8
Layer 1
10
272.376652
20
48.209663
11
271.459429
21
47.552720
0
LINE
8
Layer 1
10
271.459429
20
47.552720
11
269.541602
21
47.818805
0
LINE
8
Layer 1
10
269.541602
20
47.818805
11
269.541602
21
47.818805
0
LINE
8
Layer 1
10
275.044936
20
42.249798
11
275.231629
21
62.005354
0
LINE
8
Layer 1
10
275.231629
20
62.005354
11
275.418319
21
70.941379
0
LINE
8
Layer 1
10
275.418319
20
70.941379
11
277.241519
21
70.941379
0
LINE
8
Layer 1
10
277.241519
20
70.941379
11
279.458591
21
70.816536
0
LINE
8
Layer 1
10
279.458591
20
70.816536
11
282.140875
21
70.487847
0
LINE
8
Layer 1
10
282.140875
20
70.487847
11
284.822949
21
70.024066
0
LINE
8
Layer 1
10
284.822949
20
70.024066
11
287.039389
21
69.493951
0
LINE
8
Layer 1
10
287.039389
20
69.493951
11
289.333390
21
68.707110
0
LINE
8
Layer 1
10
289.333390
20
68.707110
11
291.399374
21
67.732546
0
LINE
8
Layer 1
10
291.399374
20
67.732546
11
293.320891
21
66.489617
0
LINE
8
Layer 1
10
293.320891
20
66.489617
11
295.181493
21
64.897681
0
LINE
8
Layer 1
10
295.181493
20
64.897681
11
297.064730
21
62.876094
0
LINE
8
Layer 1
10
297.064730
20
62.876094
11
299.054152
21
60.344216
0
LINE
8
Layer 1
10
299.054152
20
60.344216
11
301.233312
21
57.221403
0
LINE
8
Layer 1
10
301.233312
20
57.221403
11
303.685758
21
53.427012
0
LINE
8
Layer 1
10
303.685758
20
53.427012
11
305.966184
21
49.412502
0
LINE
8
Layer 1
10
305.966184
20
49.412502
11
308.822870
21
43.949180
0
LINE
8
Layer 1
10
308.822870
20
43.949180
11
311.264122
21
38.988298
0
LINE
8
Layer 1
10
311.264122
20
38.988298
11
312.298249
21
36.481108
0
LINE
8
Layer 1
10
312.298249
20
36.481108
11
312.162649
21
35.735319
0
LINE
8
Layer 1
10
312.162649
20
35.735319
11
311.791251
21
34.857253
0
LINE
8
Layer 1
10
311.791251
20
34.857253
11
311.237164
21
33.949394
0
LINE
8
Layer 1
10
311.237164
20
33.949394
11
310.553495
21
33.114226
0
LINE
8
Layer 1
10
310.553495
20
33.114226
11
309.994097
21
32.547060
0
LINE
8
Layer 1
10
309.994097
20
32.547060
11
309.391182
21
32.124042
0
LINE
8
Layer 1
10
309.391182
20
32.124042
11
308.504805
21
31.824052
0
LINE
8
Layer 1
10
308.504805
20
31.824052
11
307.095021
21
31.625967
0
LINE
8
Layer 1
10
307.095021
20
31.625967
11
301.745446
21
31.451031
0
LINE
8
Layer 1
10
301.745446
20
31.451031
11
291.422892
21
31.430268
0
LINE
8
Layer 1
10
291.422892
20
31.430268
11
275.044936
21
31.430268
0
LINE
8
Layer 1
10
275.044936
20
31.430268
11
275.044936
21
42.249798
0
LINE
8
Layer 1
10
275.044936
20
42.249798
11
275.044936
21
42.249798
0
LINE
8
Layer 1
10
305.678868
20
43.411885
11
306.168048
21
44.049972
0
LINE
8
Layer 1
10
306.168048
20
44.049972
11
306.371413
21
44.611330
0
LINE
8
Layer 1
10
306.371413
20
44.611330
11
306.112268
21
45.408336
0
LINE
8
Layer 1
10
306.112268
20
45.408336
11
305.393934
21
46.845494
0
LINE
8
Layer 1
10
305.393934
20
46.845494
11
302.932426
21
51.066185
0
LINE
8
Layer 1
10
302.932426
20
51.066185
11
299.692329
21
56.125242
0
LINE
8
Layer 1
10
299.692329
20
56.125242
11
296.379082
21
60.874506
0
LINE
8
Layer 1
10
296.379082
20
60.874506
11
294.834978
21
62.827734
0
LINE
8
Layer 1
10
294.834978
20
62.827734
11
293.409628
21
64.291841
0
LINE
8
Layer 1
10
293.409628
20
64.291841
11
291.909987
21
65.439176
0
LINE
8
Layer 1
10
291.909987
20
65.439176
11
290.143015
21
66.442085
0
LINE
8
Layer 1
10
290.143015
20
66.442085
11
288.271251
21
67.255070
0
LINE
8
Layer 1
10
288.271251
20
67.255070
11
286.359994
21
67.766210
0
LINE
8
Layer 1
10
286.359994
20
67.766210
11
284.100311
21
68.033137
0
LINE
8
Layer 1
10
284.100311
20
68.033137
11
281.183269
21
68.113481
0
LINE
8
Layer 1
10
281.183269
20
68.113481
11
278.625625
21
68.080538
0
LINE
8
Layer 1
10
278.625625
20
68.080538
11
277.879463
21
67.798485
0
LINE
8
Layer 1
10
277.879463
20
67.798485
11
277.406583
21
67.129495
0
LINE
8
Layer 1
10
277.406583
20
67.129495
11
277.145614
21
65.916155
0
LINE
8
Layer 1
10
277.145614
20
65.916155
11
277.035189
21
64.001055
0
LINE
8
Layer 1
10
277.035189
20
64.001055
11
277.020491
21
57.435922
0
LINE
8
Layer 1
10
277.020491
20
57.435922
11
277.020491
21
47.881580
0
LINE
8
Layer 1
10
277.020491
20
47.881580
11
277.682810
21
47.166922
0
LINE
8
Layer 1
10
277.682810
20
47.166922
11
278.185463
21
46.702959
0
LINE
8
Layer 1
10
278.185463
20
46.702959
11
279.170965
21
46.375048
0
LINE
8
Layer 1
10
279.170965
20
46.375048
11
286.051611
21
45.394268
0
LINE
8
Layer 1
10
286.051611
20
45.394268
11
297.904916
21
43.735600
0
LINE
8
Layer 1
10
297.904916
20
43.735600
11
304.620535
21
42.760166
0
LINE
8
Layer 1
10
304.620535
20
42.760166
11
305.082233
21
42.934692
0
LINE
8
Layer 1
10
305.082233
20
42.934692
11
305.678868
21
43.411885
0
LINE
8
Layer 1
10
305.678868
20
43.411885
11
305.678868
21
43.411885
0
LINE
8
Layer 1
10
297.904916
20
44.017511
11
285.204944
21
45.809253
0
LINE
8
Layer 1
10
285.204944
20
45.809253
11
280.083984
21
46.594651
0
LINE
8
Layer 1
10
280.083984
20
46.594651
11
278.803730
21
46.900397
0
LINE
8
Layer 1
10
278.803730
20
46.900397
11
278.149380
21
47.192799
0
LINE
8
Layer 1
10
278.149380
20
47.192799
11
277.443825
21
47.718723
0
LINE
8
Layer 1
10
277.443825
20
47.718723
11
277.369462
21
57.257510
0
LINE
8
Layer 1
10
277.369462
20
57.257510
11
277.383884
21
65.327763
0
LINE
8
Layer 1
10
277.383884
20
65.327763
11
277.516012
21
66.753568
0
LINE
8
Layer 1
10
277.516012
20
66.753568
11
277.765981
21
67.316615
0
LINE
8
Layer 1
10
277.765981
20
67.316615
11
278.117666
21
67.584955
0
LINE
8
Layer 1
10
278.117666
20
67.584955
11
278.691181
21
67.742718
0
LINE
8
Layer 1
10
278.691181
20
67.742718
11
281.227011
21
67.834804
0
LINE
8
Layer 1
10
281.227011
20
67.834804
11
286.051611
21
67.546612
0
LINE
8
Layer 1
10
286.051611
20
67.546612
11
287.813417
21
67.102522
0
LINE
8
Layer 1
10
287.813417
20
67.102522
11
289.716228
21
66.344755
0
LINE
8
Layer 1
10
289.716228
20
66.344755
11
291.530673
21
65.379619
0
LINE
8
Layer 1
10
291.530673
20
65.379619
11
293.027382
21
64.313421
0
LINE
8
Layer 1
10
293.027382
20
64.313421
11
294.170502
21
63.151245
0
LINE
8
Layer 1
10
294.170502
20
63.151245
11
295.605576
21
61.410748
0
LINE
8
Layer 1
10
295.605576
20
61.410748
11
298.994953
21
56.719674
0
LINE
8
Layer 1
10
298.994953
20
56.719674
11
302.482243
21
51.289971
0
LINE
8
Layer 1
10
302.482243
20
51.289971
11
305.354172
21
46.171412
0
LINE
8
Layer 1
10
305.354172
20
46.171412
11
305.888633
21
44.876970
0
LINE
8
Layer 1
10
305.888633
20
44.876970
11
305.917667
21
44.469478
0
LINE
8
Layer 1
10
305.917667
20
44.469478
11
305.807928
21
44.131769
0
LINE
8
Layer 1
10
305.807928
20
44.131769
11
305.069483
21
43.362438
0
LINE
8
Layer 1
10
305.069483
20
43.362438
11
304.638762
21
43.096866
0
LINE
8
Layer 1
10
304.638762
20
43.096866
11
304.344014
21
43.042388
0
LINE
8
Layer 1
10
304.344014
20
43.042388
11
297.904916
21
44.017511
0
LINE
8
Layer 1
10
297.904916
20
44.017511
11
297.904916
21
44.017511
0
LINE
8
Layer 1
10
232.711602
20
40.602490
11
232.711602
21
44.412490
0
LINE
8
Layer 1
10
232.711602
20
44.412490
11
230.171602
21
44.412490
0
LINE
8
Layer 1
10
230.171602
20
44.412490
11
227.631602
21
44.412490
0
LINE
8
Layer 1
10
227.631602
20
44.412490
11
227.631602
21
40.602490
0
LINE
8
Layer 1
10
227.631602
20
40.602490
11
227.631602
21
36.792490
0
LINE
8
Layer 1
10
227.631602
20
36.792490
11
230.171602
21
36.792490
0
LINE
8
Layer 1
10
230.171602
20
36.792490
11
232.711602
21
36.792490
0
LINE
8
Layer 1
10
232.711602
20
36.792490
11
232.711602
21
40.602490
0
LINE
8
Layer 1
10
232.711602
20
40.602490
11
232.711602
21
40.602490
0
LINE
8
Layer 1
10
227.913825
20
40.602490
11
227.913825
21
44.130268
0
LINE
8
Layer 1
10
227.913825
20
44.130268
11
230.171602
21
44.130268
0
LINE
8
Layer 1
10
230.171602
20
44.130268
11
232.429380
21
44.130268
0
LINE
8
Layer 1
10
232.429380
20
44.130268
11
232.429380
21
40.602490
0
LINE
8
Layer 1
10
232.429380
20
40.602490
11
232.429380
21
37.074712
0
LINE
8
Layer 1
10
232.429380
20
37.074712
11
230.171602
21
37.074712
0
LINE
8
Layer 1
10
230.171602
20
37.074712
11
227.913825
21
37.074712
0
LINE
8
Layer 1
10
227.913825
20
37.074712
11
227.913825
21
40.602490
0
LINE
8
Layer 1
10
227.913825
20
40.602490
11
227.913825
21
40.602490
0
LINE
8
Layer 1
10
209.792460
20
39.544157
11
209.874429
21
41.872490
0
LINE
8
Layer 1
10
209.874429
20
41.872490
11
207.464127
21
41.872490
0
LINE
8
Layer 1
10
207.464127
20
41.872490
11
205.053825
21
41.872490
0
LINE
8
Layer 1
10
205.053825
20
41.872490
11
205.053825
21
39.661750
0
LINE
8
Layer 1
10
205.053825
20
39.661750
11
205.112275
21
38.041964
0
LINE
8
Layer 1
10
205.112275
20
38.041964
11
205.252803
21
37.252029
0
LINE
8
Layer 1
10
205.252803
20
37.252029
11
206.018828
21
37.135409
0
LINE
8
Layer 1
10
206.018828
20
37.135409
11
207.581136
21
37.134439
0
LINE
8
Layer 1
10
207.581136
20
37.134439
11
209.710491
21
37.215823
0
LINE
8
Layer 1
10
209.710491
20
37.215823
11
209.792460
21
39.544157
0
LINE
8
Layer 1
10
209.792460
20
39.544157
11
209.792460
21
39.544157
0
LINE
8
Layer 1
10
205.336047
20
39.473601
11
205.336047
21
41.590268
0
LINE
8
Layer 1
10
205.336047
20
41.590268
11
207.452714
21
41.590268
0
LINE
8
Layer 1
10
207.452714
20
41.590268
11
209.569380
21
41.590268
0
LINE
8
Layer 1
10
209.569380
20
41.590268
11
209.569380
21
39.473601
0
LINE
8
Layer 1
10
209.569380
20
39.473601
11
209.569380
21
37.356934
0
LINE
8
Layer 1
10
209.569380
20
37.356934
11
207.452714
21
37.356934
0
LINE
8
Layer 1
10
207.452714
20
37.356934
11
205.336047
21
37.356934
0
LINE
8
Layer 1
10
205.336047
20
37.356934
11
205.336047
21
39.473601
0
LINE
8
Layer 1
10
205.336047
20
39.473601
11
205.336047
21
39.473601
0
LINE
8
Layer 1
10
242.857438
20
44.254313
11
243.068850
21
44.774235
0
LINE
8
Layer 1
10
243.068850
20
44.774235
11
243.103662
21
45.453757
0
LINE
8
Layer 1
10
243.103662
20
45.453757
11
243.012714
21
46.246934
0
LINE
8
Layer 1
10
243.012714
20
46.246934
11
240.543269
21
46.328477
0
LINE
8
Layer 1
10
240.543269
20
46.328477
11
238.073825
21
46.410022
0
LINE
8
Layer 1
10
238.073825
20
46.410022
11
238.073825
21
45.317181
0
LINE
8
Layer 1
10
238.073825
20
45.317181
11
238.261974
21
44.036194
0
LINE
8
Layer 1
10
238.261974
20
44.036194
11
239.093774
21
43.848168
0
LINE
8
Layer 1
10
239.093774
20
43.848168
11
240.573466
21
43.842564
0
LINE
8
Layer 1
10
240.573466
20
43.842564
11
242.046278
21
43.988305
0
LINE
8
Layer 1
10
242.046278
20
43.988305
11
242.857438
21
44.254313
0
LINE
8
Layer 1
10
242.857438
20
44.254313
11
242.857438
21
44.254313
0
LINE
8
Layer 1
10
238.356047
20
45.106175
11
238.356047
21
46.105823
0
LINE
8
Layer 1
10
238.356047
20
46.105823
11
240.631706
21
46.105823
0
LINE
8
Layer 1
10
240.631706
20
46.105823
11
242.907366
21
46.105823
0
LINE
8
Layer 1
10
242.907366
20
46.105823
11
242.818928
21
45.188601
0
LINE
8
Layer 1
10
242.818928
20
45.188601
11
242.730491
21
44.271379
0
LINE
8
Layer 1
10
242.730491
20
44.271379
11
240.543269
21
44.188953
0
LINE
8
Layer 1
10
240.543269
20
44.188953
11
238.356047
21
44.106524
0
LINE
8
Layer 1
10
238.356047
20
44.106524
11
238.356047
21
45.106175
0
LINE
8
Layer 1
10
238.356047
20
45.106175
11
238.356047
21
45.106175
0
LINE
8
Layer 1
10
237.168272
20
47.351956
11
237.148491
21
49.346288
0
LINE
8
Layer 1
10
237.148491
20
49.346288
11
237.049892
21
49.855672
0
LINE
8
Layer 1
10
237.049892
20
49.855672
11
236.886050
21
50.099301
0
LINE
8
Layer 1
10
236.886050
20
50.099301
11
235.294715
21
50.299734
0
LINE
8
Layer 1
10
235.294715
20
50.299734
11
232.349949
21
50.339788
0
LINE
8
Layer 1
10
232.349949
20
50.339788
11
229.444287
21
50.234895
0
LINE
8
Layer 1
10
229.444287
20
50.234895
11
227.970269
21
50.000490
0
LINE
8
Layer 1
10
227.970269
20
50.000490
11
227.751021
21
49.205984
0
LINE
8
Layer 1
10
227.751021
20
49.205984
11
227.637334
21
47.741745
0
LINE
8
Layer 1
10
227.637334
20
47.741745
11
227.648930
21
46.190330
0
LINE
8
Layer 1
10
227.648930
20
46.190330
11
227.805530
21
45.134293
0
LINE
8
Layer 1
10
227.805530
20
45.134293
11
228.050296
21
44.899515
0
LINE
8
Layer 1
10
228.050296
20
44.899515
11
228.738540
21
44.773021
0
LINE
8
Layer 1
10
228.738540
20
44.773021
11
232.532753
21
44.758435
0
LINE
8
Layer 1
10
232.532753
20
44.758435
11
237.086047
21
44.835823
0
LINE
8
Layer 1
10
237.086047
20
44.835823
11
237.168272
21
47.351956
0
LINE
8
Layer 1
10
237.168272
20
47.351956
11
237.168272
21
47.351956
0
LINE
8
Layer 1
10
228.035657
20
45.348739
11
227.971124
21
47.825567
0
LINE
8
Layer 1
10
227.971124
20
47.825567
11
228.054936
21
49.915823
0
LINE
8
Layer 1
10
228.054936
20
49.915823
11
232.429380
21
49.915823
0
LINE
8
Layer 1
10
232.429380
20
49.915823
11
236.803825
21
49.915823
0
LINE
8
Layer 1
10
236.803825
20
49.915823
11
236.803825
21
47.516934
0
LINE
8
Layer 1
10
236.803825
20
47.516934
11
236.803825
21
45.118045
0
LINE
8
Layer 1
10
236.803825
20
45.118045
11
232.493910
21
45.040107
0
LINE
8
Layer 1
10
232.493910
20
45.040107
11
229.018296
21
45.055292
0
LINE
8
Layer 1
10
229.018296
20
45.055292
11
228.298150
21
45.161501
0
LINE
8
Layer 1
10
228.298150
20
45.161501
11
228.035657
21
45.348739
0
LINE
8
Layer 1
10
228.035657
20
45.348739
11
228.035657
21
45.348739
0
LINE
8
Layer 1
10
236.505600
20
52.095287
11
236.729914
21
52.682747
0
LINE
8
Layer 1
10
236.729914
20
52.682747
11
236.863639
21
53.902814
0
LINE
8
Layer 1
10
236.863639
20
53.902814
11
236.944936
21
59.728114
0
LINE
8
Layer 1
10
236.944936
20
59.728114
11
236.944936
21
66.733702
0
LINE
8
Layer 1
10
236.944936
20
66.733702
11
236.252207
21
67.426428
0
LINE
8
Layer 1
10
236.252207
20
67.426428
11
235.691941
21
67.881297
0
LINE
8
Layer 1
10
235.691941
20
67.881297
11
234.797386
21
68.075377
0
LINE
8
Layer 1
10
234.797386
20
68.075377
11
229.552602
21
67.828298
0
LINE
8
Layer 1
10
229.552602
20
67.828298
11
225.441650
21
67.479831
0
LINE
8
Layer 1
10
225.441650
20
67.479831
11
223.064543
21
67.033499
0
LINE
8
Layer 1
10
223.064543
20
67.033499
11
222.385015
21
66.727337
0
LINE
8
Layer 1
10
222.385015
20
66.727337
11
221.969549
21
66.341155
0
LINE
8
Layer 1
10
221.969549
20
66.341155
11
221.761678
21
65.856433
0
LINE
8
Layer 1
10
221.761678
20
65.856433
11
221.704936
21
65.254655
0
LINE
8
Layer 1
10
221.704936
20
65.254655
11
221.928501
21
64.275906
0
LINE
8
Layer 1
10
221.928501
20
64.275906
11
222.529750
21
62.721975
0
LINE
8
Layer 1
10
222.529750
20
62.721975
11
224.448629
21
58.695214
0
LINE
8
Layer 1
10
224.448629
20
58.695214
11
226.628223
21
54.787666
0
LINE
8
Layer 1
10
226.628223
20
54.787666
11
227.555366
21
53.382751
0
LINE
8
Layer 1
10
227.555366
20
53.382751
11
228.235183
21
52.612626
0
LINE
8
Layer 1
10
228.235183
20
52.612626
11
229.130559
21
52.172139
0
LINE
8
Layer 1
10
229.130559
20
52.172139
11
230.466099
21
51.836279
0
LINE
8
Layer 1
10
230.466099
20
51.836279
11
234.318378
21
51.503831
0
LINE
8
Layer 1
10
234.318378
20
51.503831
11
235.835573
21
51.584932
0
LINE
8
Layer 1
10
235.835573
20
51.584932
11
236.216028
21
51.770105
0
LINE
8
Layer 1
10
236.216028
20
51.770105
11
236.505600
21
52.095287
0
LINE
8
Layer 1
10
236.505600
20
52.095287
11
236.505600
21
52.095287
0
LINE
8
Layer 1
10
231.159380
20
52.022448
11
229.290294
21
52.395252
0
LINE
8
Layer 1
10
229.290294
20
52.395252
11
228.565733
21
52.766335
0
LINE
8
Layer 1
10
228.565733
20
52.766335
11
227.897658
21
53.350727
0
LINE
8
Layer 1
10
227.897658
20
53.350727
11
226.480455
21
55.429989
0
LINE
8
Layer 1
10
226.480455
20
55.429989
11
224.537671
21
59.174157
0
LINE
8
Layer 1
10
224.537671
20
59.174157
11
222.983076
21
62.438704
0
LINE
8
Layer 1
10
222.983076
20
62.438704
11
222.190819
21
64.559448
0
LINE
8
Layer 1
10
222.190819
20
64.559448
11
222.084771
21
65.823218
0
LINE
8
Layer 1
10
222.084771
20
65.823218
11
222.265285
21
66.223373
0
LINE
8
Layer 1
10
222.265285
20
66.223373
11
222.588802
21
66.516845
0
LINE
8
Layer 1
10
222.588802
20
66.516845
11
223.646371
21
66.865631
0
LINE
8
Layer 1
10
223.646371
20
66.865631
11
225.638774
21
67.189042
0
LINE
8
Layer 1
10
225.638774
20
67.189042
11
232.006047
21
67.706426
0
LINE
8
Layer 1
10
232.006047
20
67.706426
11
234.827381
21
67.801062
0
LINE
8
Layer 1
10
234.827381
20
67.801062
11
235.660414
21
67.604757
0
LINE
8
Layer 1
10
235.660414
20
67.604757
11
236.195473
21
67.095977
0
LINE
8
Layer 1
10
236.195473
20
67.095977
11
236.497896
21
66.162179
0
LINE
8
Layer 1
10
236.497896
20
66.162179
11
236.633019
21
64.690818
0
LINE
8
Layer 1
10
236.633019
20
64.690818
11
236.662714
21
59.685236
0
LINE
8
Layer 1
10
236.662714
20
59.685236
11
236.582250
21
53.703059
0
LINE
8
Layer 1
10
236.582250
20
53.703059
11
236.427035
21
52.661653
0
LINE
8
Layer 1
10
236.427035
20
52.661653
11
236.146602
21
52.217343
0
LINE
8
Layer 1
10
236.146602
20
52.217343
11
235.569980
21
51.926441
0
LINE
8
Layer 1
10
235.569980
20
51.926441
11
234.606575
21
51.799337
0
LINE
8
Layer 1
10
234.606575
20
51.799337
11
231.159380
21
52.022448
0
LINE
8
Layer 1
10
231.159380
20
52.022448
11
231.159380
21
52.022448
0
LINE
8
Layer 1
10
214.187986
20
58.826307
11
214.762045
21
59.493750
0
LINE
8
Layer 1
10
214.762045
20
59.493750
11
214.931602
21
60.358045
0
LINE
8
Layer 1
10
214.931602
20
60.358045
11
214.738975
21
61.251323
0
LINE
8
Layer 1
10
214.738975
20
61.251323
11
214.180680
21
61.916422
0
LINE
8
Layer 1
10
214.180680
20
61.916422
11
213.286094
21
62.331499
0
LINE
8
Layer 1
10
213.286094
20
62.331499
11
212.084598
21
62.474712
0
LINE
8
Layer 1
10
212.084598
20
62.474712
11
210.929151
21
62.391612
0
LINE
8
Layer 1
10
210.929151
20
62.391612
11
210.046338
21
62.134883
0
LINE
8
Layer 1
10
210.046338
20
62.134883
11
209.411950
21
61.693383
0
LINE
8
Layer 1
10
209.411950
20
61.693383
11
209.001775
21
61.055972
0
LINE
8
Layer 1
10
209.001775
20
61.055972
11
208.830378
21
60.261128
0
LINE
8
Layer 1
10
208.830378
20
60.261128
11
209.117875
21
59.424748
0
LINE
8
Layer 1
10
209.117875
20
59.424748
11
209.494001
21
58.807027
0
LINE
8
Layer 1
10
209.494001
20
58.807027
11
209.944638
21
58.463378
0
LINE
8
Layer 1
10
209.944638
20
58.463378
11
210.667339
21
58.310142
0
LINE
8
Layer 1
10
210.667339
20
58.310142
11
211.859653
21
58.263660
0
LINE
8
Layer 1
10
211.859653
20
58.263660
11
213.262536
21
58.372650
0
LINE
8
Layer 1
10
213.262536
20
58.372650
11
214.187986
21
58.826307
0
LINE
8
Layer 1
10
214.187986
20
58.826307
11
214.187986
21
58.826307
0
LINE
8
Layer 1
10
209.964407
20
58.739588
11
209.344084
21
59.547272
0
LINE
8
Layer 1
10
209.344084
20
59.547272
11
209.004936
21
60.493430
0
LINE
8
Layer 1
10
209.004936
20
60.493430
11
209.697664
21
61.499761
0
LINE
8
Layer 1
10
209.697664
20
61.499761
11
210.548884
21
62.056864
0
LINE
8
Layer 1
10
210.548884
20
62.056864
11
211.892645
21
62.192490
0
LINE
8
Layer 1
10
211.892645
20
62.192490
11
213.140449
21
62.087094
0
LINE
8
Layer 1
10
213.140449
20
62.087094
11
213.997292
21
61.758563
0
LINE
8
Layer 1
10
213.997292
20
61.758563
11
214.490995
21
61.188385
0
LINE
8
Layer 1
10
214.490995
20
61.188385
11
214.649380
21
60.358045
0
LINE
8
Layer 1
10
214.649380
20
60.358045
11
214.490520
21
59.521006
0
LINE
8
Layer 1
10
214.490520
20
59.521006
11
213.991213
21
58.951750
0
LINE
8
Layer 1
10
213.991213
20
58.951750
11
213.117374
21
58.628110
0
LINE
8
Layer 1
10
213.117374
20
58.628110
11
211.834916
21
58.527922
0
LINE
8
Layer 1
10
211.834916
20
58.527922
11
209.964407
21
58.739588
0
LINE
8
Layer 1
10
209.964407
20
58.739588
11
209.964407
21
58.739588
0
LINE
8
Layer 1
10
242.812460
20
62.827490
11
242.730491
21
65.155823
0
LINE
8
Layer 1
10
242.730491
20
65.155823
11
240.472714
21
65.155823
0
LINE
8
Layer 1
10
240.472714
20
65.155823
11
238.214936
21
65.155823
0
LINE
8
Layer 1
10
238.214936
20
65.155823
11
238.132967
21
62.827490
0
LINE
8
Layer 1
10
238.132967
20
62.827490
11
238.050999
21
60.499157
0
LINE
8
Layer 1
10
238.050999
20
60.499157
11
240.472714
21
60.499157
0
LINE
8
Layer 1
10
240.472714
20
60.499157
11
242.894429
21
60.499157
0
LINE
8
Layer 1
10
242.894429
20
60.499157
11
242.812460
21
62.827490
0
LINE
8
Layer 1
10
242.812460
20
62.827490
11
242.812460
21
62.827490
0
LINE
8
Layer 1
10
238.356047
20
62.898045
11
238.356047
21
65.014712
0
LINE
8
Layer 1
10
238.356047
20
65.014712
11
240.472714
21
65.014712
0
LINE
8
Layer 1
10
240.472714
20
65.014712
11
242.589380
21
65.014712
0
LINE
8
Layer 1
10
242.589380
20
65.014712
11
242.589380
21
62.898045
0
LINE
8
Layer 1
10
242.589380
20
62.898045
11
242.589380
21
60.781379
0
LINE
8
Layer 1
10
242.589380
20
60.781379
11
240.472714
21
60.781379
0
LINE
8
Layer 1
10
240.472714
20
60.781379
11
238.356047
21
60.781379
0
LINE
8
Layer 1
10
238.356047
20
60.781379
11
238.356047
21
62.898045
0
LINE
8
Layer 1
10
238.356047
20
62.898045
11
238.356047
21
62.898045
0
LINE
8
Layer 1
10
282.382722
20
19.402329
11
282.632545
21
20.312551
0
LINE
8
Layer 1
10
282.632545
20
20.312551
11
283.297951
21
21.089778
0
LINE
8
Layer 1
10
283.297951
20
21.089778
11
284.252849
21
21.631377
0
LINE
8
Layer 1
10
284.252849
20
21.631377
11
285.371145
21
21.834718
0
LINE
8
Layer 1
10
285.371145
20
21.834718
11
286.484375
21
21.636729
0
LINE
8
Layer 1
10
286.484375
20
21.636729
11
287.421715
21
21.105642
0
LINE
8
Layer 1
10
287.421715
20
21.105642
11
288.068331
21
20.335780
0
LINE
8
Layer 1
10
288.068331
20
20.335780
11
288.309389
21
19.421464
0
LINE
8
Layer 1
10
288.309389
20
19.421464
11
288.187698
21
18.615945
0
LINE
8
Layer 1
10
288.187698
20
18.615945
11
287.974049
21
18.480592
0
LINE
8
Layer 1
10
287.974049
20
18.480592
11
287.603833
21
18.448051
0
LINE
8
Layer 1
10
287.603833
20
18.448051
11
287.226414
21
18.481466
0
LINE
8
Layer 1
10
287.226414
20
18.481466
11
287.013565
21
18.629897
0
LINE
8
Layer 1
10
287.013565
20
18.629897
11
286.898278
21
19.560938
0
LINE
8
Layer 1
10
286.898278
20
19.560938
11
286.772895
21
20.341808
0
LINE
8
Layer 1
10
286.772895
20
20.341808
11
286.429341
21
20.974219
0
LINE
8
Layer 1
10
286.429341
20
20.974219
11
285.916500
21
21.397878
0
LINE
8
Layer 1
10
285.916500
20
21.397878
11
285.283261
21
21.552495
0
LINE
8
Layer 1
10
285.283261
20
21.552495
11
284.752179
21
21.363101
0
LINE
8
Layer 1
10
284.752179
20
21.363101
11
284.273339
21
20.871056
0
LINE
8
Layer 1
10
284.273339
20
20.871056
11
283.927103
21
20.190563
0
LINE
8
Layer 1
10
283.927103
20
20.190563
11
283.793833
21
19.435829
0
LINE
8
Layer 1
10
283.793833
20
19.435829
11
283.672883
21
18.617381
0
LINE
8
Layer 1
10
283.672883
20
18.617381
11
283.459327
21
18.480682
0
LINE
8
Layer 1
10
283.459327
20
18.480682
11
283.088278
21
18.448051
0
LINE
8
Layer 1
10
283.088278
20
18.448051
11
282.719216
21
18.480472
0
LINE
8
Layer 1
10
282.719216
20
18.480472
11
282.505439
21
18.614029
0
LINE
8
Layer 1
10
282.505439
20
18.614029
11
282.382722
21
19.402329
0
LINE
8
Layer 1
10
282.382722
20
19.402329
11
282.382722
21
19.402329
0
LINE
8
Layer 1
10
317.990135
20
31.236751
11
315.567842
21
35.620672
0
LINE
8
Layer 1
10
315.567842
20
35.620672
11
314.492672
21
37.926330
0
LINE
8
Layer 1
10
314.492672
20
37.926330
11
314.388600
21
38.525797
0
LINE
8
Layer 1
10
314.388600
20
38.525797
11
314.535319
21
38.876883
0
LINE
8
Layer 1
10
314.535319
20
38.876883
11
314.904165
21
39.069983
0
LINE
8
Layer 1
10
314.904165
20
39.069983
11
315.466476
21
39.195491
0
LINE
8
Layer 1
10
315.466476
20
39.195491
11
318.434255
21
38.925415
0
LINE
8
Layer 1
10
318.434255
20
38.925415
11
324.313726
21
38.148720
0
LINE
8
Layer 1
10
324.313726
20
38.148720
11
330.357377
21
37.251205
0
LINE
8
Layer 1
10
330.357377
20
37.251205
11
333.817694
21
36.618666
0
LINE
8
Layer 1
10
333.817694
20
36.618666
11
334.202191
21
36.427708
0
LINE
8
Layer 1
10
334.202191
20
36.427708
11
334.235795
21
36.120792
0
LINE
8
Layer 1
10
334.235795
20
36.120792
11
333.112138
21
34.803565
0
LINE
8
Layer 1
10
333.112138
20
34.803565
11
330.827674
21
32.960021
0
LINE
8
Layer 1
10
330.827674
20
32.960021
11
327.624669
21
30.852463
0
LINE
8
Layer 1
10
327.624669
20
30.852463
11
324.241097
21
28.932181
0
LINE
8
Layer 1
10
324.241097
20
28.932181
11
321.414930
21
27.650463
0
LINE
8
Layer 1
10
321.414930
20
27.650463
11
320.232391
21
27.233231
0
LINE
8
Layer 1
10
320.232391
20
27.233231
11
317.990135
21
31.236751
0
LINE
8
Layer 1
10
317.990135
20
31.236751
11
317.990135
21
31.236751
0
LINE
8
Layer 1
10
191.366047
20
29.731978
11
189.556531
21
29.823723
0
LINE
8
Layer 1
10
189.556531
20
29.823723
11
189.234950
21
29.858554
0
LINE
8
Layer 1
10
189.234950
20
29.858554
11
189.340581
21
29.889519
0
LINE
8
Layer 1
10
189.340581
20
29.889519
11
194.611602
21
30.027138
0
LINE
8
Layer 1
10
194.611602
20
30.027138
11
199.640009
21
30.192206
0
LINE
8
Layer 1
10
199.640009
20
30.192206
11
202.019936
21
30.402129
0
LINE
8
Layer 1
10
202.019936
20
30.402129
11
202.380834
21
30.502173
0
LINE
8
Layer 1
10
202.380834
20
30.502173
11
202.513825
21
30.359181
0
LINE
8
Layer 1
10
202.513825
20
30.359181
11
202.389073
21
30.067554
0
LINE
8
Layer 1
10
202.389073
20
30.067554
11
201.986570
21
29.841617
0
LINE
8
Layer 1
10
201.986570
20
29.841617
11
200.178831
21
29.577276
0
LINE
8
Layer 1
10
200.178831
20
29.577276
11
196.751644
21
29.547086
0
LINE
8
Layer 1
10
196.751644
20
29.547086
11
191.366047
21
29.731978
0
LINE
8
Layer 1
10
191.366047
20
29.731978
11
191.366047
21
29.731978
0
LINE
8
Layer 1
10
186.822537
20
30.442490
11
182.776177
21
33.074013
0
LINE
8
Layer 1
10
182.776177
20
33.074013
11
176.971841
21
37.210313
0
LINE
8
Layer 1
10
176.971841
20
37.210313
11
170.625902
21
41.961644
0
LINE
8
Layer 1
10
170.625902
20
41.961644
11
164.954729
21
46.438258
0
LINE
8
Layer 1
10
164.954729
20
46.438258
11
156.584770
21
53.443760
0
LINE
8
Layer 1
10
156.584770
20
53.443760
11
152.626938
21
56.976075
0
LINE
8
Layer 1
10
152.626938
20
56.976075
11
154.253825
21
57.196699
0
LINE
8
Layer 1
10
154.253825
20
57.196699
11
155.285525
21
57.260520
0
LINE
8
Layer 1
10
155.285525
20
57.260520
11
155.338923
21
57.208251
0
LINE
8
Layer 1
10
155.338923
20
57.208251
11
155.100491
21
57.097941
0
LINE
8
Layer 1
10
155.100491
20
57.097941
11
154.932460
21
56.987467
0
LINE
8
Layer 1
10
154.932460
20
56.987467
11
155.172683
21
56.925426
0
LINE
8
Layer 1
10
155.172683
20
56.925426
11
156.934936
21
56.941791
0
LINE
8
Layer 1
10
156.934936
20
56.941791
11
158.626935
21
56.963825
0
LINE
8
Layer 1
10
158.626935
20
56.963825
11
158.780418
21
56.909500
0
LINE
8
Layer 1
10
158.780418
20
56.909500
11
158.487158
21
56.810348
0
LINE
8
Layer 1
10
158.487158
20
56.810348
11
158.218847
21
56.711708
0
LINE
8
Layer 1
10
158.218847
20
56.711708
11
158.429846
21
56.655538
0
LINE
8
Layer 1
10
158.429846
20
56.655538
11
160.321602
21
56.668139
0
LINE
8
Layer 1
10
160.321602
20
56.668139
11
162.203507
21
56.684084
0
LINE
8
Layer 1
10
162.203507
20
56.684084
11
162.360403
21
56.629441
0
LINE
8
Layer 1
10
162.360403
20
56.629441
11
162.014936
21
56.531411
0
LINE
8
Layer 1
10
162.014936
20
56.531411
11
161.668650
21
56.433223
0
LINE
8
Layer 1
10
161.668650
20
56.433223
11
161.824977
21
56.378395
0
LINE
8
Layer 1
10
161.824977
20
56.378395
11
163.708269
21
56.393718
0
LINE
8
Layer 1
10
163.708269
20
56.393718
11
165.328401
21
56.405423
0
LINE
8
Layer 1
10
165.328401
20
56.405423
11
165.530918
21
56.367769
0
LINE
8
Layer 1
10
165.530918
20
56.367769
11
165.260491
21
56.304993
0
LINE
8
Layer 1
10
165.260491
20
56.304993
11
165.079562
21
56.249493
0
LINE
8
Layer 1
10
165.079562
20
56.249493
11
165.215087
21
56.177397
0
LINE
8
Layer 1
10
165.215087
20
56.177397
11
166.478300
21
55.978164
0
LINE
8
Layer 1
10
166.478300
20
55.978164
11
173.272969
21
55.322817
0
LINE
8
Layer 1
10
173.272969
20
55.322817
11
179.085826
21
54.783714
0
LINE
8
Layer 1
10
179.085826
20
54.783714
11
182.796017
21
54.315791
0
LINE
8
Layer 1
10
182.796017
20
54.315791
11
185.123578
21
53.801968
0
LINE
8
Layer 1
10
185.123578
20
53.801968
11
186.788544
21
53.125167
0
LINE
8
Layer 1
10
186.788544
20
53.125167
11
188.306579
21
52.204047
0
LINE
8
Layer 1
10
188.306579
20
52.204047
11
189.951993
21
50.727729
0
LINE
8
Layer 1
10
189.951993
20
50.727729
11
192.263690
21
48.143177
0
LINE
8
Layer 1
10
192.263690
20
48.143177
11
195.780575
21
43.897355
0
LINE
8
Layer 1
10
195.780575
20
43.897355
11
202.052662
21
36.369157
0
LINE
8
Layer 1
10
202.052662
20
36.369157
11
202.506836
21
35.945823
0
LINE
8
Layer 1
10
202.506836
20
35.945823
11
202.198122
21
36.369157
0
LINE
8
Layer 1
10
202.198122
20
36.369157
11
194.927902
21
45.261608
0
LINE
8
Layer 1
10
194.927902
20
45.261608
11
189.174597
21
51.892141
0
LINE
8
Layer 1
10
189.174597
20
51.892141
11
188.496281
21
52.537037
0
LINE
8
Layer 1
10
188.496281
20
52.537037
11
188.418972
21
52.669897
0
LINE
8
Layer 1
10
188.418972
20
52.669897
11
188.543825
21
52.643495
0
LINE
8
Layer 1
10
188.543825
20
52.643495
11
189.511858
21
51.881454
0
LINE
8
Layer 1
10
189.511858
20
51.881454
11
191.101761
21
50.228913
0
LINE
8
Layer 1
10
191.101761
20
50.228913
11
196.257774
21
44.130268
0
LINE
8
Layer 1
10
196.257774
20
44.130268
11
201.421763
21
37.838592
0
LINE
8
Layer 1
10
201.421763
20
37.838592
11
202.124837
21
36.935200
0
LINE
8
Layer 1
10
202.124837
20
36.935200
11
202.550643
21
36.105510
0
LINE
8
Layer 1
10
202.550643
20
36.105510
11
202.803105
21
35.062605
0
LINE
8
Layer 1
10
202.803105
20
35.062605
11
202.986146
21
33.519570
0
LINE
8
Layer 1
10
202.986146
20
33.519570
11
202.976456
21
32.190500
0
LINE
8
Layer 1
10
202.976456
20
32.190500
11
202.421338
21
31.261792
0
LINE
8
Layer 1
10
202.421338
20
31.261792
11
201.717176
21
30.442490
0
LINE
8
Layer 1
10
201.717176
20
30.442490
11
194.516127
21
30.301379
0
LINE
8
Layer 1
10
194.516127
20
30.301379
11
189.079444
21
30.271606
0
LINE
8
Layer 1
10
189.079444
20
30.271606
11
186.822537
21
30.442490
0
LINE
8
Layer 1
10
186.822537
20
30.442490
11
186.822537
21
30.442490
0
LINE
8
Layer 1
10
331.066027
20
39.085613
11
322.439171
21
40.450067
0
LINE
8
Layer 1
10
322.439171
20
40.450067
11
315.834113
21
41.548662
0
LINE
8
Layer 1
10
315.834113
20
41.548662
11
314.259276
21
41.963717
0
LINE
8
Layer 1
10
314.259276
20
41.963717
11
313.144464
21
42.437171
0
LINE
8
Layer 1
10
313.144464
20
42.437171
11
312.266883
21
42.993154
0
LINE
8
Layer 1
10
312.266883
20
42.993154
11
311.480144
21
43.887996
0
LINE
8
Layer 1
10
311.480144
20
43.887996
11
310.510905
21
45.514125
0
LINE
8
Layer 1
10
310.510905
20
45.514125
11
309.085827
21
48.263971
0
LINE
8
Layer 1
10
309.085827
20
48.263971
11
307.162135
21
51.816679
0
LINE
8
Layer 1
10
307.162135
20
51.816679
11
304.958041
21
55.471389
0
LINE
8
Layer 1
10
304.958041
20
55.471389
11
302.614982
21
59.004520
0
LINE
8
Layer 1
10
302.614982
20
59.004520
11
300.274397
21
62.192490
0
LINE
8
Layer 1
10
300.274397
20
62.192490
11
298.467958
21
64.441740
0
LINE
8
Layer 1
10
298.467958
20
64.441740
11
297.059586
21
65.964901
0
LINE
8
Layer 1
10
297.059586
20
65.964901
11
295.684844
21
67.111574
0
LINE
8
Layer 1
10
295.684844
20
67.111574
11
293.979290
21
68.231362
0
LINE
8
Layer 1
10
293.979290
20
68.231362
11
292.242423
21
69.212016
0
LINE
8
Layer 1
10
292.242423
20
69.212016
11
290.524629
21
69.937215
0
LINE
8
Layer 1
10
290.524629
20
69.937215
11
288.411133
21
70.552028
0
LINE
8
Layer 1
10
288.411133
20
70.552028
11
285.487166
21
71.201523
0
LINE
8
Layer 1
10
285.487166
20
71.201523
11
281.959380
21
71.929157
0
LINE
8
Layer 1
10
281.959380
20
71.929157
11
281.013781
21
73.340268
0
LINE
8
Layer 1
10
281.013781
20
73.340268
11
280.068181
21
74.751379
0
LINE
8
Layer 1
10
280.068181
20
74.751379
11
280.814399
21
74.841865
0
LINE
8
Layer 1
10
280.814399
20
74.841865
11
282.542764
21
74.772502
0
LINE
8
Layer 1
10
282.542764
20
74.772502
11
285.585091
21
74.446615
0
LINE
8
Layer 1
10
285.585091
20
74.446615
11
292.119360
21
73.453998
0
LINE
8
Layer 1
10
292.119360
20
73.453998
11
294.940379
21
72.813009
0
LINE
8
Layer 1
10
294.940379
20
72.813009
11
297.551591
21
72.022109
0
LINE
8
Layer 1
10
297.551591
20
72.022109
11
300.200359
21
70.995843
0
LINE
8
Layer 1
10
300.200359
20
70.995843
11
303.134042
21
69.648753
0
LINE
8
Layer 1
10
303.134042
20
69.648753
11
306.486149
21
67.913904
0
LINE
8
Layer 1
10
306.486149
20
67.913904
11
310.133556
21
65.842601
0
LINE
8
Layer 1
10
310.133556
20
65.842601
11
317.751756
21
61.064190
0
LINE
8
Layer 1
10
317.751756
20
61.064190
11
324.863607
21
56.060635
0
LINE
8
Layer 1
10
324.863607
20
56.060635
11
327.878079
21
53.707901
0
LINE
8
Layer 1
10
327.878079
20
53.707901
11
330.344074
21
51.579049
0
LINE
8
Layer 1
10
330.344074
20
51.579049
11
332.084144
21
50.134317
0
LINE
8
Layer 1
10
332.084144
20
50.134317
11
332.126816
21
50.082902
0
LINE
8
Layer 1
10
332.126816
20
50.082902
11
332.156155
21
49.842051
0
LINE
8
Layer 1
10
332.156155
20
49.842051
11
332.391794
21
49.579637
0
LINE
8
Layer 1
10
332.391794
20
49.579637
11
332.707253
21
49.397652
0
LINE
8
Layer 1
10
332.707253
20
49.397652
11
332.976051
21
49.398092
0
LINE
8
Layer 1
10
332.976051
20
49.398092
11
333.131887
21
49.442692
0
LINE
8
Layer 1
10
333.131887
20
49.442692
11
333.093878
21
49.294898
0
LINE
8
Layer 1
10
333.093878
20
49.294898
11
333.178997
21
48.897012
0
LINE
8
Layer 1
10
333.178997
20
48.897012
11
333.630806
21
48.340329
0
LINE
8
Layer 1
10
333.630806
20
48.340329
11
334.453110
21
47.402516
0
LINE
8
Layer 1
10
334.453110
20
47.402516
11
335.153157
21
46.279358
0
LINE
8
Layer 1
10
335.153157
20
46.279358
11
335.716160
21
45.030347
0
LINE
8
Layer 1
10
335.716160
20
45.030347
11
336.127326
21
43.714976
0
LINE
8
Layer 1
10
336.127326
20
43.714976
11
336.371868
21
42.392734
0
LINE
8
Layer 1
10
336.371868
20
42.392734
11
336.434994
21
41.123116
0
LINE
8
Layer 1
10
336.434994
20
41.123116
11
336.301915
21
39.965611
0
LINE
8
Layer 1
10
336.301915
20
39.965611
11
335.957841
21
38.979712
0
LINE
8
Layer 1
10
335.957841
20
38.979712
11
335.633634
21
38.644761
0
LINE
8
Layer 1
10
335.633634
20
38.644761
11
334.918449
21
38.546254
0
LINE
8
Layer 1
10
334.918449
20
38.546254
11
331.066027
21
39.085613
0
LINE
8
Layer 1
10
331.066027
20
39.085613
11
331.066027
21
39.085613
0
LINE
8
Layer 1
10
27.618570
20
42.584774
11
19.010792
21
44.713646
0
LINE
8
Layer 1
10
19.010792
20
44.713646
11
17.710258
21
45.650352
0
LINE
8
Layer 1
10
17.710258
20
45.650352
11
16.774742
21
46.742725
0
LINE
8
Layer 1
10
16.774742
20
46.742725
11
13.955027
21
55.238078
0
LINE
8
Layer 1
10
13.955027
20
55.238078
11
11.556038
21
63.239887
0
LINE
8
Layer 1
10
11.556038
20
63.239887
11
14.173908
21
61.477903
0
LINE
8
Layer 1
10
14.173908
20
61.477903
11
17.954183
21
58.852674
0
LINE
8
Layer 1
10
17.954183
20
58.852674
11
21.684243
21
56.737222
0
LINE
8
Layer 1
10
21.684243
20
56.737222
11
25.477986
21
55.074350
0
LINE
8
Layer 1
10
25.477986
20
55.074350
11
29.449310
21
53.806860
0
LINE
8
Layer 1
10
29.449310
20
53.806860
11
32.503918
21
53.201353
0
LINE
8
Layer 1
10
32.503918
20
53.201353
11
36.708272
21
53.051823
0
LINE
8
Layer 1
10
36.708272
20
53.051823
11
40.467098
21
53.132507
0
LINE
8
Layer 1
10
40.467098
20
53.132507
11
42.917158
21
53.397898
0
LINE
8
Layer 1
10
42.917158
20
53.397898
11
48.901316
21
55.056938
0
LINE
8
Layer 1
10
48.901316
20
55.056938
11
48.680435
21
54.597062
0
LINE
8
Layer 1
10
48.680435
20
54.597062
11
47.776807
21
53.228953
0
LINE
8
Layer 1
10
47.776807
20
53.228953
11
44.499104
21
48.613709
0
LINE
8
Layer 1
10
44.499104
20
48.613709
11
41.384012
21
44.436387
0
LINE
8
Layer 1
10
41.384012
20
44.436387
11
39.349989
21
42.059527
0
LINE
8
Layer 1
10
39.349989
20
42.059527
11
38.585410
21
41.395028
0
LINE
8
Layer 1
10
38.585410
20
41.395028
11
37.907538
21
40.999156
0
LINE
8
Layer 1
10
37.907538
20
40.999156
11
37.255183
21
40.811414
0
LINE
8
Layer 1
10
37.255183
20
40.811414
11
36.567161
21
40.771304
0
LINE
8
Layer 1
10
36.567161
20
40.771304
11
27.618570
21
42.584774
0
LINE
8
Layer 1
10
27.618570
20
42.584774
11
27.618570
21
42.584774
0
LINE
8
Layer 1
10
336.873850
20
42.554528
11
336.908214
21
42.886469
0
LINE
8
Layer 1
10
336.908214
20
42.886469
11
337.022101
21
42.924944
0
LINE
8
Layer 1
10
337.022101
20
42.924944
11
337.044369
21
42.384018
0
LINE
8
Layer 1
10
337.044369
20
42.384018
11
336.930407
21
42.261556
0
LINE
8
Layer 1
10
336.930407
20
42.261556
11
336.873850
21
42.554528
0
LINE
8
Layer 1
10
336.873850
20
42.554528
11
336.873850
21
42.554528
0
LINE
8
Layer 1
10
66.270011
20
52.808601
11
69.548482
21
61.112550
0
LINE
8
Layer 1
10
69.548482
20
61.112550
11
72.691602
21
69.245457
0
LINE
8
Layer 1
10
72.691602
20
69.245457
11
72.856368
21
69.431624
0
LINE
8
Layer 1
10
72.856368
20
69.431624
11
73.326602
21
69.364392
0
LINE
8
Layer 1
10
73.326602
20
69.364392
11
75.987042
21
68.559994
0
LINE
8
Layer 1
10
75.987042
20
68.559994
11
78.137385
21
68.060798
0
LINE
8
Layer 1
10
78.137385
20
68.060798
11
80.228309
21
67.784385
0
LINE
8
Layer 1
10
80.228309
20
67.784385
11
82.710491
21
67.648339
0
LINE
8
Layer 1
10
82.710491
20
67.648339
11
86.106818
21
67.638327
0
LINE
8
Layer 1
10
86.106818
20
67.638327
11
88.153929
21
67.921084
0
LINE
8
Layer 1
10
88.153929
20
67.921084
11
89.184026
21
68.144797
0
LINE
8
Layer 1
10
89.184026
20
68.144797
11
89.565040
21
68.116546
0
LINE
8
Layer 1
10
89.565040
20
68.116546
11
82.907872
21
60.560052
0
LINE
8
Layer 1
10
82.907872
20
60.560052
11
77.460305
21
54.638468
0
LINE
8
Layer 1
10
77.460305
20
54.638468
11
76.060693
21
53.321188
0
LINE
8
Layer 1
10
76.060693
20
53.321188
11
75.211607
21
52.762974
0
LINE
8
Layer 1
10
75.211607
20
52.762974
11
73.464081
21
52.413087
0
LINE
8
Layer 1
10
73.464081
20
52.413087
11
70.112975
21
52.314712
0
LINE
8
Layer 1
10
70.112975
20
52.314712
11
66.775288
21
52.391627
0
LINE
8
Layer 1
10
66.775288
20
52.391627
11
66.304449
21
52.540147
0
LINE
8
Layer 1
10
66.304449
20
52.540147
11
66.270011
21
52.808601
0
LINE
8
Layer 1
10
66.270011
20
52.808601
11
66.270011
21
52.808601
0
LINE
8
Layer 1
10
186.991602
20
53.302301
11
184.717249
21
54.222408
0
LINE
8
Layer 1
10
184.717249
20
54.222408
11
181.866097
21
54.856868
0
LINE
8
Layer 1
10
181.866097
20
54.856868
11
180.077158
21
55.112522
0
LINE
8
Layer 1
10
180.077158
20
55.112522
11
181.930229
21
54.999086
0
LINE
8
Layer 1
10
181.930229
20
54.999086
11
183.432848
21
54.795501
0
LINE
8
Layer 1
10
183.432848
20
54.795501
11
184.998119
21
54.401096
0
LINE
8
Layer 1
10
184.998119
20
54.401096
11
186.404843
21
53.883732
0
LINE
8
Layer 1
10
186.404843
20
53.883732
11
187.431818
21
53.311270
0
LINE
8
Layer 1
10
187.431818
20
53.311270
11
187.815690
21
52.913367
0
LINE
8
Layer 1
10
187.815690
20
52.913367
11
186.991602
21
53.302301
0
LINE
8
Layer 1
10
186.991602
20
53.302301
11
186.991602
21
53.302301
0
LINE
8
Layer 1
10
32.498857
20
53.473691
11
29.377523
21
54.092743
0
LINE
8
Layer 1
10
29.377523
20
54.092743
11
26.258695
21
55.042719
0
LINE
8
Layer 1
10
26.258695
20
55.042719
11
23.129394
21
56.331031
0
LINE
8
Layer 1
10
23.129394
20
56.331031
11
19.976643
21
57.965089
0
LINE
8
Layer 1
10
19.976643
20
57.965089
11
16.787463
21
59.952304
0
LINE
8
Layer 1
10
16.787463
20
59.952304
11
13.548877
21
62.300086
0
LINE
8
Layer 1
10
13.548877
20
62.300086
11
10.247904
21
65.015846
0
LINE
8
Layer 1
10
10.247904
20
65.015846
11
6.871569
21
68.106996
0
LINE
8
Layer 1
10
6.871569
20
68.106996
11
3.762504
21
71.253931
0
LINE
8
Layer 1
10
3.762504
20
71.253931
11
3.037079
21
72.185178
0
LINE
8
Layer 1
10
3.037079
20
72.185178
11
2.710365
21
72.864370
0
LINE
8
Layer 1
10
2.710365
20
72.864370
11
2.471925
21
74.480763
0
LINE
8
Layer 1
10
2.471925
20
74.480763
11
2.422001
21
76.541065
0
LINE
8
Layer 1
10
2.422001
20
76.541065
11
2.549885
21
78.494109
0
LINE
8
Layer 1
10
2.549885
20
78.494109
11
2.844872
21
79.788726
0
LINE
8
Layer 1
10
2.844872
20
79.788726
11
8.365955
21
87.592490
0
LINE
8
Layer 1
10
8.365955
20
87.592490
11
14.015366
21
95.570164
0
LINE
8
Layer 1
10
14.015366
20
95.570164
11
14.517835
21
96.795415
0
LINE
8
Layer 1
10
14.517835
20
96.795415
11
14.843126
21
98.139720
0
LINE
8
Layer 1
10
14.843126
20
98.139720
11
14.966380
21
99.455650
0
LINE
8
Layer 1
10
14.966380
20
99.455650
11
14.862737
21
100.595774
0
LINE
8
Layer 1
10
14.862737
20
100.595774
11
14.613825
21
101.703601
0
LINE
8
Layer 1
10
14.613825
20
101.703601
11
33.719776
21
101.703601
0
LINE
8
Layer 1
10
33.719776
20
101.703601
11
52.825723
21
101.703601
0
LINE
8
Layer 1
10
52.825723
20
101.703601
11
60.994775
21
88.666218
0
LINE
8
Layer 1
10
60.994775
20
88.666218
11
69.255073
21
75.260663
0
LINE
8
Layer 1
10
69.255073
20
75.260663
11
69.507726
21
75.000641
0
LINE
8
Layer 1
10
69.507726
20
75.000641
11
69.987030
21
74.892490
0
LINE
8
Layer 1
10
69.987030
20
74.892490
11
70.348451
21
74.806382
0
LINE
8
Layer 1
10
70.348451
20
74.806382
11
70.673813
21
74.473218
0
LINE
8
Layer 1
10
70.673813
20
74.473218
11
71.518557
21
72.616664
0
LINE
8
Layer 1
10
71.518557
20
72.616664
11
72.147150
21
70.786681
0
LINE
8
Layer 1
10
72.147150
20
70.786681
11
72.407506
21
69.582775
0
LINE
8
Layer 1
10
72.407506
20
69.582775
11
72.080814
21
68.225325
0
LINE
8
Layer 1
10
72.080814
20
68.225325
11
71.336217
21
66.256718
0
LINE
8
Layer 1
10
71.336217
20
66.256718
11
70.521184
21
64.505659
0
LINE
8
Layer 1
10
70.521184
20
64.505659
11
69.983186
21
63.800852
0
LINE
8
Layer 1
10
69.983186
20
63.800852
11
68.784245
21
63.404543
0
LINE
8
Layer 1
10
68.784245
20
63.404543
11
66.328394
21
62.309479
0
LINE
8
Layer 1
10
66.328394
20
62.309479
11
57.592377
21
58.559395
0
LINE
8
Layer 1
10
57.592377
20
58.559395
11
52.896076
21
56.755620
0
LINE
8
Layer 1
10
52.896076
20
56.755620
11
48.839546
21
55.341458
0
LINE
8
Layer 1
10
48.839546
20
55.341458
11
44.381871
21
54.113623
0
LINE
8
Layer 1
10
44.381871
20
54.113623
11
40.203541
21
53.396594
0
LINE
8
Layer 1
10
40.203541
20
53.396594
11
36.258041
21
53.185056
0
LINE
8
Layer 1
10
36.258041
20
53.185056
11
32.498857
21
53.473691
0
LINE
8
Layer 1
10
32.498857
20
53.473691
11
32.498857
21
53.473691
0
LINE
8
Layer 1
10
39.095104
20
61.242287
11
40.698535
21
61.790781
0
LINE
8
Layer 1
10
40.698535
20
61.790781
11
42.240692
21
62.506056
0
LINE
8
Layer 1
10
42.240692
20
62.506056
11
43.704619
21
63.374289
0
LINE
8
Layer 1
10
43.704619
20
63.374289
11
45.073358
21
64.381658
0
LINE
8
Layer 1
10
45.073358
20
64.381658
11
46.329953
21
65.514341
0
LINE
8
Layer 1
10
46.329953
20
65.514341
11
47.457447
21
66.758516
0
LINE
8
Layer 1
10
47.457447
20
66.758516
11
48.438882
21
68.100359
0
LINE
8
Layer 1
10
48.438882
20
68.100359
11
49.257303
21
69.526048
0
LINE
8
Layer 1
10
49.257303
20
69.526048
11
50.149875
21
71.488352
0
LINE
8
Layer 1
10
50.149875
20
71.488352
11
50.705116
21
73.226692
0
LINE
8
Layer 1
10
50.705116
20
73.226692
11
50.989507
21
75.020765
0
LINE
8
Layer 1
10
50.989507
20
75.020765
11
51.069531
21
77.150268
0
LINE
8
Layer 1
10
51.069531
20
77.150268
11
50.949705
21
79.786629
0
LINE
8
Layer 1
10
50.949705
20
79.786629
11
50.552398
21
81.665823
0
LINE
8
Layer 1
10
50.552398
20
81.665823
11
49.456530
21
84.334898
0
LINE
8
Layer 1
10
49.456530
20
84.334898
11
48.059356
21
86.701160
0
LINE
8
Layer 1
10
48.059356
20
86.701160
11
46.383067
21
88.748001
0
LINE
8
Layer 1
10
46.383067
20
88.748001
11
44.449854
21
90.458816
0
LINE
8
Layer 1
10
44.449854
20
90.458816
11
42.281911
21
91.816998
0
LINE
8
Layer 1
10
42.281911
20
91.816998
11
39.901427
21
92.805941
0
LINE
8
Layer 1
10
39.901427
20
92.805941
11
37.330594
21
93.409038
0
LINE
8
Layer 1
10
37.330594
20
93.409038
11
34.591605
21
93.609682
0
LINE
8
Layer 1
10
34.591605
20
93.609682
11
31.323195
21
93.329201
0
LINE
8
Layer 1
10
31.323195
20
93.329201
11
29.823131
21
92.976056
0
LINE
8
Layer 1
10
29.823131
20
92.976056
11
28.394895
21
92.473681
0
LINE
8
Layer 1
10
28.394895
20
92.473681
11
27.025288
21
91.816607
0
LINE
8
Layer 1
10
27.025288
20
91.816607
11
25.701111
21
90.999363
0
LINE
8
Layer 1
10
25.701111
20
90.999363
11
23.136254
21
88.862490
0
LINE
8
Layer 1
10
23.136254
20
88.862490
11
21.932825
21
87.584110
0
LINE
8
Layer 1
10
21.932825
20
87.584110
11
20.903315
21
86.272162
0
LINE
8
Layer 1
10
20.903315
20
86.272162
11
20.043573
21
84.916911
0
LINE
8
Layer 1
10
20.043573
20
84.916911
11
19.349451
21
83.508617
0
LINE
8
Layer 1
10
19.349451
20
83.508617
11
18.816801
21
82.037544
0
LINE
8
Layer 1
10
18.816801
20
82.037544
11
18.441473
21
80.493953
0
LINE
8
Layer 1
10
18.441473
20
80.493953
11
18.219319
21
78.868107
0
LINE
8
Layer 1
10
18.219319
20
78.868107
11
18.146189
21
77.150268
0
LINE
8
Layer 1
10
18.146189
20
77.150268
11
18.219410
21
75.415886
0
LINE
8
Layer 1
10
18.219410
20
75.415886
11
18.442340
21
73.779026
0
LINE
8
Layer 1
10
18.442340
20
73.779026
11
18.819876
21
72.228263
0
LINE
8
Layer 1
10
18.819876
20
72.228263
11
19.356918
21
70.752169
0
LINE
8
Layer 1
10
19.356918
20
70.752169
11
20.058363
21
69.339318
0
LINE
8
Layer 1
10
20.058363
20
69.339318
11
20.929112
21
67.978282
0
LINE
8
Layer 1
10
20.929112
20
67.978282
11
21.974062
21
66.657636
0
LINE
8
Layer 1
10
21.974062
20
66.657636
11
23.198112
21
65.365952
0
LINE
8
Layer 1
10
23.198112
20
65.365952
11
24.905003
21
63.893130
0
LINE
8
Layer 1
10
24.905003
20
63.893130
11
26.721140
21
62.686272
0
LINE
8
Layer 1
10
26.721140
20
62.686272
11
28.631933
21
61.749162
0
LINE
8
Layer 1
10
28.631933
20
61.749162
11
30.622793
21
61.085584
0
LINE
8
Layer 1
10
30.622793
20
61.085584
11
32.679130
21
60.699323
0
LINE
8
Layer 1
10
32.679130
20
60.699323
11
34.786354
21
60.594163
0
LINE
8
Layer 1
10
34.786354
20
60.594163
11
36.929875
21
60.773890
0
LINE
8
Layer 1
10
36.929875
20
60.773890
11
39.095104
21
61.242287
0
LINE
8
Layer 1
10
39.095104
20
61.242287
11
39.095104
21
61.242287
0
LINE
8
Layer 1
10
31.928147
20
61.094476
11
30.022461
21
61.568745
0
LINE
8
Layer 1
10
30.022461
20
61.568745
11
30.270991
21
63.012255
0
LINE
8
Layer 1
10
30.270991
20
63.012255
11
31.191505
21
66.159837
0
LINE
8
Layer 1
10
31.191505
20
66.159837
11
32.590551
21
70.520924
0
LINE
8
Layer 1
10
32.590551
20
70.520924
11
34.625650
21
70.503031
0
LINE
8
Layer 1
10
34.625650
20
70.503031
11
36.660749
21
70.485138
0
LINE
8
Layer 1
10
36.660749
20
70.485138
11
38.045255
21
66.161452
0
LINE
8
Layer 1
10
38.045255
20
66.161452
11
38.953153
21
63.037934
0
LINE
8
Layer 1
10
38.953153
20
63.037934
11
39.191768
21
61.599767
0
LINE
8
Layer 1
10
39.191768
20
61.599767
11
37.066906
21
61.094663
0
LINE
8
Layer 1
10
37.066906
20
61.094663
11
34.309383
21
60.821384
0
LINE
8
Layer 1
10
34.309383
20
60.821384
11
31.928147
21
61.094476
0
LINE
8
Layer 1
10
31.928147
20
61.094476
11
31.928147
21
61.094476
0
LINE
8
Layer 1
10
27.369143
20
62.579535
11
25.392474
21
63.766889
0
LINE
8
Layer 1
10
25.392474
20
63.766889
11
23.432278
21
65.397961
0
LINE
8
Layer 1
10
23.432278
20
65.397961
11
21.885424
21
67.015530
0
LINE
8
Layer 1
10
21.885424
20
67.015530
11
21.742301
21
67.396380
0
LINE
8
Layer 1
10
21.742301
20
67.396380
11
21.897888
21
67.671998
0
LINE
8
Layer 1
10
21.897888
20
67.671998
11
25.625465
21
70.485799
0
LINE
8
Layer 1
10
25.625465
20
70.485799
11
29.094024
21
72.916934
0
LINE
8
Layer 1
10
29.094024
20
72.916934
11
30.480621
21
71.958115
0
LINE
8
Layer 1
10
30.480621
20
71.958115
11
32.063083
21
70.890517
0
LINE
8
Layer 1
10
32.063083
20
70.890517
11
32.115627
21
70.559123
0
LINE
8
Layer 1
10
32.115627
20
70.559123
11
31.944264
21
69.671031
0
LINE
8
Layer 1
10
31.944264
20
69.671031
11
30.925000
21
66.204891
0
LINE
8
Layer 1
10
30.925000
20
66.204891
11
29.407572
21
61.628045
0
LINE
8
Layer 1
10
29.407572
20
61.628045
11
27.369143
21
62.579535
0
LINE
8
Layer 1
10
27.369143
20
62.579535
11
27.369143
21
62.579535
0
LINE
8
Layer 1
10
38.398763
20
65.954800
11
36.931168
21
70.548266
0
LINE
8
Layer 1
10
36.931168
20
70.548266
11
37.097462
21
70.870346
0
LINE
8
Layer 1
10
37.097462
20
70.870346
11
37.653454
21
71.205959
0
LINE
8
Layer 1
10
37.653454
20
71.205959
11
38.430563
21
71.650382
0
LINE
8
Layer 1
10
38.430563
20
71.650382
11
39.128477
21
72.234072
0
LINE
8
Layer 1
10
39.128477
20
72.234072
11
40.004958
21
72.916934
0
LINE
8
Layer 1
10
40.004958
20
72.916934
11
43.747504
21
70.363254
0
LINE
8
Layer 1
10
43.747504
20
70.363254
11
47.449142
21
67.528132
0
LINE
8
Layer 1
10
47.449142
20
67.528132
11
47.429723
21
67.198144
0
LINE
8
Layer 1
10
47.429723
20
67.198144
11
47.125186
21
66.696047
0
LINE
8
Layer 1
10
47.125186
20
66.696047
11
45.872333
21
65.369431
0
LINE
8
Layer 1
10
45.872333
20
65.369431
11
44.113735
21
63.936098
0
LINE
8
Layer 1
10
44.113735
20
63.936098
11
42.272545
21
62.783861
0
LINE
8
Layer 1
10
42.272545
20
62.783861
11
40.746085
21
62.026314
0
LINE
8
Layer 1
10
40.746085
20
62.026314
11
40.266162
21
61.917400
0
LINE
8
Layer 1
10
40.266162
20
61.917400
11
39.898415
21
62.051170
0
LINE
8
Layer 1
10
39.898415
20
62.051170
11
39.585322
21
62.474710
0
LINE
8
Layer 1
10
39.585322
20
62.474710
11
39.269364
21
63.235106
0
LINE
8
Layer 1
10
39.269364
20
63.235106
11
38.398763
21
65.954800
0
LINE
8
Layer 1
10
38.398763
20
65.954800
11
38.398763
21
65.954800
0
LINE
8
Layer 1
10
20.386117
20
69.212226
11
19.726498
21
70.637441
0
LINE
8
Layer 1
10
19.726498
20
70.637441
11
19.138380
21
72.300170
0
LINE
8
Layer 1
10
19.138380
20
72.300170
11
18.684097
21
73.999372
0
LINE
8
Layer 1
10
18.684097
20
73.999372
11
18.425984
21
75.534009
0
LINE
8
Layer 1
10
18.425984
20
75.534009
11
18.290581
21
76.881084
0
LINE
8
Layer 1
10
18.290581
20
76.881084
11
23.094008
21
76.804009
0
LINE
8
Layer 1
10
23.094008
20
76.804009
11
27.897436
21
76.726934
0
LINE
8
Layer 1
10
27.897436
20
76.726934
11
28.233559
21
75.402127
0
LINE
8
Layer 1
10
28.233559
20
75.402127
11
28.874195
21
73.708793
0
LINE
8
Layer 1
10
28.874195
20
73.708793
11
28.843992
21
73.401145
0
LINE
8
Layer 1
10
28.843992
20
73.401145
11
28.326450
21
72.843167
0
LINE
8
Layer 1
10
28.326450
20
72.843167
11
25.397431
21
70.588601
0
LINE
8
Layer 1
10
25.397431
20
70.588601
11
21.375400
21
67.836934
0
LINE
8
Layer 1
10
21.375400
20
67.836934
11
20.985486
21
68.240927
0
LINE
8
Layer 1
10
20.985486
20
68.240927
11
20.386117
21
69.212226
0
LINE
8
Layer 1
10
20.386117
20
69.212226
11
20.386117
21
69.212226
0
LINE
8
Layer 1
10
43.904936
20
70.504612
11
41.431285
21
72.471587
0
LINE
8
Layer 1
10
41.431285
20
72.471587
11
40.437898
21
73.516470
0
LINE
8
Layer 1
10
40.437898
20
73.516470
11
41.002342
21
75.382603
0
LINE
8
Layer 1
10
41.002342
20
75.382603
11
41.506047
21
76.860496
0
LINE
8
Layer 1
10
41.506047
20
76.860496
11
46.242989
21
76.864269
0
LINE
8
Layer 1
10
46.242989
20
76.864269
11
50.979934
21
76.868045
0
LINE
8
Layer 1
10
50.979934
20
76.868045
11
50.804885
21
75.386379
0
LINE
8
Layer 1
10
50.804885
20
75.386379
11
50.302099
21
73.034164
0
LINE
8
Layer 1
10
50.302099
20
73.034164
11
49.457744
21
70.565185
0
LINE
8
Layer 1
10
49.457744
20
70.565185
11
48.531096
21
68.624950
0
LINE
8
Layer 1
10
48.531096
20
68.624950
11
48.117934
21
68.054832
0
LINE
8
Layer 1
10
48.117934
20
68.054832
11
47.781427
21
67.858965
0
LINE
8
Layer 1
10
47.781427
20
67.858965
11
43.904936
21
70.504612
0
LINE
8
Layer 1
10
43.904936
20
70.504612
11
43.904936
21
70.504612
0
LINE
8
Layer 1
10
32.500545
20
71.086351
11
30.703410
21
72.066803
0
LINE
8
Layer 1
10
30.703410
20
72.066803
11
29.981388
21
72.704580
0
LINE
8
Layer 1
10
29.981388
20
72.704580
11
29.382126
21
73.433434
0
LINE
8
Layer 1
10
29.382126
20
73.433434
11
28.909423
21
74.247898
0
LINE
8
Layer 1
10
28.909423
20
74.247898
11
28.567076
21
75.142503
0
LINE
8
Layer 1
10
28.567076
20
75.142503
11
28.288640
21
77.150268
0
LINE
8
Layer 1
10
28.288640
20
77.150268
11
28.512174
21
78.890261
0
LINE
8
Layer 1
10
28.512174
20
78.890261
11
29.138918
21
80.413945
0
LINE
8
Layer 1
10
29.138918
20
80.413945
11
30.103088
21
81.681768
0
LINE
8
Layer 1
10
30.103088
20
81.681768
11
31.338903
21
82.654176
0
LINE
8
Layer 1
10
31.338903
20
82.654176
11
32.780577
21
83.291618
0
LINE
8
Layer 1
10
32.780577
20
83.291618
11
34.362327
21
83.554540
0
LINE
8
Layer 1
10
34.362327
20
83.554540
11
36.018369
21
83.403390
0
LINE
8
Layer 1
10
36.018369
20
83.403390
11
37.682921
21
82.798615
0
LINE
8
Layer 1
10
37.682921
20
82.798615
11
39.045558
21
81.809294
0
LINE
8
Layer 1
10
39.045558
20
81.809294
11
40.117381
21
80.449680
0
LINE
8
Layer 1
10
40.117381
20
80.449680
11
40.818823
21
78.852447
0
LINE
8
Layer 1
10
40.818823
20
78.852447
11
41.070318
21
77.150268
0
LINE
8
Layer 1
10
41.070318
20
77.150268
11
40.928922
21
76.006809
0
LINE
8
Layer 1
10
40.928922
20
76.006809
11
40.545845
21
74.776310
0
LINE
8
Layer 1
10
40.545845
20
74.776310
11
39.982751
21
73.614673
0
LINE
8
Layer 1
10
39.982751
20
73.614673
11
39.301307
21
72.677802
0
LINE
8
Layer 1
10
39.301307
20
72.677802
11
38.651996
21
72.100784
0
LINE
8
Layer 1
10
38.651996
20
72.100784
11
37.883073
21
71.617225
0
LINE
8
Layer 1
10
37.883073
20
71.617225
11
36.110880
21
70.959615
0
LINE
8
Layer 1
10
36.110880
20
70.959615
11
34.233710
21
70.763235
0
LINE
8
Layer 1
10
34.233710
20
70.763235
11
33.333566
21
70.856214
0
LINE
8
Layer 1
10
33.333566
20
70.856214
11
32.500545
21
71.086351
0
LINE
8
Layer 1
10
32.500545
20
71.086351
11
32.500545
21
71.086351
0
LINE
8
Layer 1
10
18.406901
20
78.631934
11
19.098635
21
81.905517
0
LINE
8
Layer 1
10
19.098635
20
81.905517
11
20.312660
21
84.875332
0
LINE
8
Layer 1
10
20.312660
20
84.875332
11
20.957476
21
86.010109
0
LINE
8
Layer 1
10
20.957476
20
86.010109
11
21.401102
21
86.463313
0
LINE
8
Layer 1
10
21.401102
20
86.463313
11
25.366870
21
83.732522
0
LINE
8
Layer 1
10
25.366870
20
83.732522
11
29.117584
21
81.001441
0
LINE
8
Layer 1
10
29.117584
20
81.001441
11
28.609039
21
80.003958
0
LINE
8
Layer 1
10
28.609039
20
80.003958
11
28.100493
21
78.524789
0
LINE
8
Layer 1
10
28.100493
20
78.524789
11
28.012705
21
77.736736
0
LINE
8
Layer 1
10
28.012705
20
77.736736
11
27.816432
21
77.492711
0
LINE
8
Layer 1
10
27.816432
20
77.492711
11
27.441651
21
77.327943
0
LINE
8
Layer 1
10
27.441651
20
77.327943
11
25.925793
21
77.173942
0
LINE
8
Layer 1
10
25.925793
20
77.173942
11
23.003595
21
77.150268
0
LINE
8
Layer 1
10
23.003595
20
77.150268
11
18.249309
21
77.150268
0
LINE
8
Layer 1
10
18.249309
20
77.150268
11
18.406901
21
78.631934
0
LINE
8
Layer 1
10
18.406901
20
78.631934
11
18.406901
21
78.631934
0
LINE
8
Layer 1
10
41.358738
20
77.785268
11
40.794294
21
79.650531
0
LINE
8
Layer 1
10
40.794294
20
79.650531
11
40.236047
21
80.973814
0
LINE
8
Layer 1
10
40.236047
20
80.973814
11
43.969753
21
83.784380
0
LINE
8
Layer 1
10
43.969753
20
83.784380
11
47.886499
21
86.463601
0
LINE
8
Layer 1
10
47.886499
20
86.463601
11
48.306029
21
85.984787
0
LINE
8
Layer 1
10
48.306029
20
85.984787
11
48.954453
21
84.798708
0
LINE
8
Layer 1
10
48.954453
20
84.798708
11
50.193708
21
81.806934
0
LINE
8
Layer 1
10
50.193708
20
81.806934
11
50.817740
21
78.773045
0
LINE
8
Layer 1
10
50.817740
20
78.773045
11
51.001106
21
77.150268
0
LINE
8
Layer 1
10
51.001106
20
77.150268
11
46.183022
21
77.150268
0
LINE
8
Layer 1
10
46.183022
20
77.150268
11
41.970743
21
77.230213
0
LINE
8
Layer 1
10
41.970743
20
77.230213
11
41.439220
21
77.418800
0
LINE
8
Layer 1
10
41.439220
20
77.418800
11
41.358738
21
77.785268
0
LINE
8
Layer 1
10
41.358738
20
77.785268
11
41.358738
21
77.785268
0
LINE
8
Layer 1
10
25.502193
20
83.876193
11
21.846493
21
86.676190
0
LINE
8
Layer 1
10
21.846493
20
86.676190
11
21.746984
21
86.922916
0
LINE
8
Layer 1
10
21.746984
20
86.922916
11
21.903997
21
87.288722
0
LINE
8
Layer 1
10
21.903997
20
87.288722
11
23.188446
21
88.677056
0
LINE
8
Layer 1
10
23.188446
20
88.677056
11
25.723397
21
90.770524
0
LINE
8
Layer 1
10
25.723397
20
90.770524
11
27.036385
21
91.566164
0
LINE
8
Layer 1
10
27.036385
20
91.566164
11
28.429695
21
92.228269
0
LINE
8
Layer 1
10
28.429695
20
92.228269
11
29.464454
21
92.660363
0
LINE
8
Layer 1
10
29.464454
20
92.660363
11
30.926941
21
88.089582
0
LINE
8
Layer 1
10
30.926941
20
88.089582
11
31.944768
21
84.627943
0
LINE
8
Layer 1
10
31.944768
20
84.627943
11
32.115757
21
83.741017
0
LINE
8
Layer 1
10
32.115757
20
83.741017
11
32.063083
21
83.410019
0
LINE
8
Layer 1
10
32.063083
20
83.410019
11
30.480621
21
82.342420
0
LINE
8
Layer 1
10
30.480621
20
82.342420
11
29.015272
21
81.406749
0
LINE
8
Layer 1
10
29.015272
20
81.406749
11
25.502193
21
83.876193
0
LINE
8
Layer 1
10
25.502193
20
83.876193
11
25.502193
21
83.876193
0
LINE
8
Layer 1
10
39.128477
20
82.066463
11
38.434886
21
82.648363
0
LINE
8
Layer 1
10
38.434886
20
82.648363
11
37.668169
21
83.088480
0
LINE
8
Layer 1
10
37.668169
20
83.088480
11
36.868410
21
83.605062
0
LINE
8
Layer 1
10
36.868410
20
83.605062
11
38.350074
21
88.231458
0
LINE
8
Layer 1
10
38.350074
20
88.231458
11
39.812714
21
92.680429
0
LINE
8
Layer 1
10
39.812714
20
92.680429
11
41.613794
21
91.824186
0
LINE
8
Layer 1
10
41.613794
20
91.824186
11
43.626643
21
90.658082
0
LINE
8
Layer 1
10
43.626643
20
90.658082
11
45.563559
21
89.209299
0
LINE
8
Layer 1
10
45.563559
20
89.209299
11
47.011791
21
87.823461
0
LINE
8
Layer 1
10
47.011791
20
87.823461
11
47.423666
21
87.262154
0
LINE
8
Layer 1
10
47.423666
20
87.262154
11
47.558590
21
86.846193
0
LINE
8
Layer 1
10
47.558590
20
86.846193
11
46.426550
21
85.872711
0
LINE
8
Layer 1
10
46.426550
20
85.872711
11
43.925489
21
84.008273
0
LINE
8
Layer 1
10
43.925489
20
84.008273
11
41.357632
21
82.197147
0
LINE
8
Layer 1
10
41.357632
20
82.197147
11
40.025207
21
81.383601
0
LINE
8
Layer 1
10
40.025207
20
81.383601
11
39.128477
21
82.066463
0
LINE
8
Layer 1
10
39.128477
20
82.066463
11
39.128477
21
82.066463
0
LINE
8
Layer 1
10
31.377568
20
87.571143
11
29.960426
21
92.011997
0
LINE
8
Layer 1
10
29.960426
20
92.011997
11
29.900239
21
92.333432
0
LINE
8
Layer 1
10
29.900239
20
92.333432
11
29.979852
21
92.561178
0
LINE
8
Layer 1
10
29.979852
20
92.561178
11
30.700122
21
92.906977
0
LINE
8
Layer 1
10
30.700122
20
92.906977
11
32.060762
21
93.218226
0
LINE
8
Layer 1
10
32.060762
20
93.218226
11
33.590276
21
93.380134
0
LINE
8
Layer 1
10
33.590276
20
93.380134
11
35.210535
21
93.388479
0
LINE
8
Layer 1
10
35.210535
20
93.388479
11
36.843414
21
93.239037
0
LINE
8
Layer 1
10
36.843414
20
93.239037
11
39.191935
21
92.700602
0
LINE
8
Layer 1
10
39.191935
20
92.700602
11
38.953505
21
91.263499
0
LINE
8
Layer 1
10
38.953505
20
91.263499
11
38.046287
21
88.142310
0
LINE
8
Layer 1
10
38.046287
20
88.142310
11
36.662814
21
83.821846
0
LINE
8
Layer 1
10
36.662814
20
83.821846
11
34.634534
21
83.780822
0
LINE
8
Layer 1
10
34.634534
20
83.780822
11
32.606257
21
83.739798
0
LINE
8
Layer 1
10
32.606257
20
83.739798
11
31.377568
21
87.571143
0
LINE
8
Layer 1
10
31.377568
20
87.571143
11
31.377568
21
87.571143
0
LINE
8
Layer 1
10
177.752705
20
55.339451
11
179.163816
21
55.335599
0
LINE
8
Layer 1
10
179.163816
20
55.335599
11
179.297523
21
55.288612
0
LINE
8
Layer 1
10
179.297523
20
55.288612
11
179.195031
21
55.250711
0
LINE
8
Layer 1
10
179.195031
20
55.250711
11
178.383825
21
55.217653
0
LINE
8
Layer 1
10
178.383825
20
55.217653
11
177.616350
21
55.255021
0
LINE
8
Layer 1
10
177.616350
20
55.255021
11
177.561195
21
55.293352
0
LINE
8
Layer 1
10
177.561195
20
55.293352
11
177.752705
21
55.339451
0
LINE
8
Layer 1
10
177.752705
20
55.339451
11
177.752705
21
55.339451
0
LINE
8
Layer 1
10
174.366039
20
55.621674
11
175.777150
21
55.617821
0
LINE
8
Layer 1
10
175.777150
20
55.617821
11
175.910856
21
55.570834
0
LINE
8
Layer 1
10
175.910856
20
55.570834
11
175.808364
21
55.532934
0
LINE
8
Layer 1
10
175.808364
20
55.532934
11
174.997158
21
55.499875
0
LINE
8
Layer 1
10
174.997158
20
55.499875
11
174.229684
21
55.537243
0
LINE
8
Layer 1
10
174.229684
20
55.537243
11
174.174528
21
55.575574
0
LINE
8
Layer 1
10
174.174528
20
55.575574
11
174.366039
21
55.621674
0
LINE
8
Layer 1
10
174.366039
20
55.621674
11
174.366039
21
55.621674
0
LINE
8
Layer 1
10
171.261594
20
55.903896
11
172.672705
21
55.900043
0
LINE
8
Layer 1
10
172.672705
20
55.900043
11
172.806412
21
55.853056
0
LINE
8
Layer 1
10
172.806412
20
55.853056
11
172.703920
21
55.815156
0
LINE
8
Layer 1
10
172.703920
20
55.815156
11
171.892714
21
55.782097
0
LINE
8
Layer 1
10
171.892714
20
55.782097
11
171.125239
21
55.819465
0
LINE
8
Layer 1
10
171.125239
20
55.819465
11
171.070084
21
55.857796
0
LINE
8
Layer 1
10
171.070084
20
55.857796
11
171.261594
21
55.903896
0
LINE
8
Layer 1
10
171.261594
20
55.903896
11
171.261594
21
55.903896
0
LINE
8
Layer 1
10
167.874927
20
56.186118
11
169.286039
21
56.182266
0
LINE
8
Layer 1
10
169.286039
20
56.182266
11
169.419745
21
56.135278
0
LINE
8
Layer 1
10
169.419745
20
56.135278
11
169.317253
21
56.097378
0
LINE
8
Layer 1
10
169.317253
20
56.097378
11
168.506047
21
56.064319
0
LINE
8
Layer 1
10
168.506047
20
56.064319
11
167.738572
21
56.101688
0
LINE
8
Layer 1
10
167.738572
20
56.101688
11
167.683417
21
56.140018
0
LINE
8
Layer 1
10
167.683417
20
56.140018
11
167.874927
21
56.186118
0
LINE
8
Layer 1
10
167.874927
20
56.186118
11
167.874927
21
56.186118
0
LINE
8
Layer 1
10
149.183271
20
59.807207
11
148.046372
21
60.132999
0
LINE
8
Layer 1
10
148.046372
20
60.132999
11
146.290493
21
60.380423
0
LINE
8
Layer 1
10
146.290493
20
60.380423
11
144.093825
21
60.572040
0
LINE
8
Layer 1
10
144.093825
20
60.572040
11
144.093825
21
67.414860
0
LINE
8
Layer 1
10
144.093825
20
67.414860
11
144.093825
21
74.257676
0
LINE
8
Layer 1
10
144.093825
20
74.257676
11
146.422158
21
75.412772
0
LINE
8
Layer 1
10
146.422158
20
75.412772
11
151.854936
21
78.308400
0
LINE
8
Layer 1
10
151.854936
20
78.308400
11
154.466817
21
79.695930
0
LINE
8
Layer 1
10
154.466817
20
79.695930
11
157.070482
21
80.875739
0
LINE
8
Layer 1
10
157.070482
20
80.875739
11
164.273944
21
83.448590
0
LINE
8
Layer 1
10
164.273944
20
83.448590
11
171.978395
21
85.757250
0
LINE
8
Layer 1
10
171.978395
20
85.757250
11
179.733237
21
87.637591
0
LINE
8
Layer 1
10
179.733237
20
87.637591
11
187.589791
21
89.100605
0
LINE
8
Layer 1
10
187.589791
20
89.100605
11
195.599380
21
90.157283
0
LINE
8
Layer 1
10
195.599380
20
90.157283
11
199.888988
21
90.386863
0
LINE
8
Layer 1
10
199.888988
20
90.386863
11
206.122033
21
90.459472
0
LINE
8
Layer 1
10
206.122033
20
90.459472
11
213.090975
21
90.376095
0
LINE
8
Layer 1
10
213.090975
20
90.376095
11
219.588269
21
90.137717
0
LINE
8
Layer 1
10
219.588269
20
90.137717
11
225.929450
21
89.664735
0
LINE
8
Layer 1
10
225.929450
20
89.664735
11
232.852714
21
88.975802
0
LINE
8
Layer 1
10
232.852714
20
88.975802
11
247.951602
21
87.307612
0
LINE
8
Layer 1
10
247.951602
20
87.307612
11
253.125767
21
86.694179
0
LINE
8
Layer 1
10
253.125767
20
86.694179
11
257.490189
21
86.006412
0
LINE
8
Layer 1
10
257.490189
20
86.006412
11
261.714447
21
85.121719
0
LINE
8
Layer 1
10
261.714447
20
85.121719
11
266.468118
21
83.917511
0
LINE
8
Layer 1
10
266.468118
20
83.917511
11
273.049431
21
81.962335
0
LINE
8
Layer 1
10
273.049431
20
81.962335
11
280.075683
21
79.562055
0
LINE
8
Layer 1
10
280.075683
20
79.562055
11
286.640407
21
77.044661
0
LINE
8
Layer 1
10
286.640407
20
77.044661
11
291.837138
21
74.738140
0
LINE
8
Layer 1
10
291.837138
20
74.738140
11
293.344066
21
73.971119
0
LINE
8
Layer 1
10
293.344066
20
73.971119
11
293.664515
21
73.762235
0
LINE
8
Layer 1
10
293.664515
20
73.762235
11
293.666686
21
73.660758
0
LINE
8
Layer 1
10
293.666686
20
73.660758
11
290.048527
21
74.193773
0
LINE
8
Layer 1
10
290.048527
20
74.193773
11
284.132208
21
74.977139
0
LINE
8
Layer 1
10
284.132208
20
74.977139
11
276.605199
21
75.547255
0
LINE
8
Layer 1
10
276.605199
20
75.547255
11
267.602836
21
75.896590
0
LINE
8
Layer 1
10
267.602836
20
75.896590
11
257.260457
21
76.017617
0
LINE
8
Layer 1
10
257.260457
20
76.017617
11
247.801534
21
76.021379
0
LINE
8
Layer 1
10
247.801534
20
76.021379
11
245.922298
21
74.923215
0
LINE
8
Layer 1
10
245.922298
20
74.923215
11
244.043062
21
73.825055
0
LINE
8
Layer 1
10
244.043062
20
73.825055
11
238.165665
21
73.514359
0
LINE
8
Layer 1
10
238.165665
20
73.514359
11
233.604015
21
73.196937
0
LINE
8
Layer 1
10
233.604015
20
73.196937
11
229.430638
21
72.751201
0
LINE
8
Layer 1
10
229.430638
20
72.751201
11
225.719682
21
72.186653
0
LINE
8
Layer 1
10
225.719682
20
72.186653
11
222.545295
21
71.512794
0
LINE
8
Layer 1
10
222.545295
20
71.512794
11
202.294445
21
65.140383
0
LINE
8
Layer 1
10
202.294445
20
65.140383
11
184.436176
21
59.370268
0
LINE
8
Layer 1
10
184.436176
20
59.370268
11
167.157778
21
59.397940
0
LINE
8
Layer 1
10
167.157778
20
59.397940
11
153.151073
21
59.495440
0
LINE
8
Layer 1
10
153.151073
20
59.495440
11
150.267527
21
59.616453
0
LINE
8
Layer 1
10
150.267527
20
59.616453
11
149.183271
21
59.807207
0
LINE
8
Layer 1
10
149.183271
20
59.807207
11
149.183271
21
59.807207
0
LINE
8
Layer 1
10
204.682858
20
70.143906
11
205.145533
21
70.791181
0
LINE
8
Layer 1
10
205.145533
20
70.791181
11
205.316507
21
71.530297
0
LINE
8
Layer 1
10
205.316507
20
71.530297
11
205.192842
21
72.269475
0
LINE
8
Layer 1
10
205.192842
20
72.269475
11
204.771602
21
72.916934
0
LINE
8
Layer 1
10
204.771602
20
72.916934
11
204.353309
21
73.220575
0
LINE
8
Layer 1
10
204.353309
20
73.220575
11
203.662873
21
73.390664
0
LINE
8
Layer 1
10
203.662873
20
73.390664
11
200.256047
21
73.481379
0
LINE
8
Layer 1
10
200.256047
20
73.481379
11
196.849221
21
73.390664
0
LINE
8
Layer 1
10
196.849221
20
73.390664
11
196.158784
21
73.220575
0
LINE
8
Layer 1
10
196.158784
20
73.220575
11
195.740491
21
72.916934
0
LINE
8
Layer 1
10
195.740491
20
72.916934
11
195.341852
21
72.347040
0
LINE
8
Layer 1
10
195.341852
20
72.347040
11
195.176047
21
71.769492
0
LINE
8
Layer 1
10
195.176047
20
71.769492
11
195.482987
21
70.624258
0
LINE
8
Layer 1
10
195.482987
20
70.624258
11
196.135518
21
69.746255
0
LINE
8
Layer 1
10
196.135518
20
69.746255
11
197.468674
21
69.598548
0
LINE
8
Layer 1
10
197.468674
20
69.598548
11
200.237858
21
69.534588
0
LINE
8
Layer 1
10
200.237858
20
69.534588
11
203.549221
21
69.624863
0
LINE
8
Layer 1
10
203.549221
20
69.624863
11
204.226695
21
69.808642
0
LINE
8
Layer 1
10
204.226695
20
69.808642
11
204.682858
21
70.143906
0
LINE
8
Layer 1
10
204.682858
20
70.143906
11
204.682858
21
70.143906
0
LINE
8
Layer 1
10
196.030627
20
70.369021
11
195.630391
21
70.904057
0
LINE
8
Layer 1
10
195.630391
20
70.904057
11
195.483929
21
71.455687
0
LINE
8
Layer 1
10
195.483929
20
71.455687
11
195.591199
21
72.025108
0
LINE
8
Layer 1
10
195.591199
20
72.025108
11
195.952158
21
72.613514
0
LINE
8
Layer 1
10
195.952158
20
72.613514
11
196.316953
21
72.948815
0
LINE
8
Layer 1
10
196.316953
20
72.948815
11
196.943031
21
73.120323
0
LINE
8
Layer 1
10
196.943031
20
73.120323
11
200.386792
21
73.138668
0
LINE
8
Layer 1
10
200.386792
20
73.138668
11
204.327540
21
73.058045
0
LINE
8
Layer 1
10
204.327540
20
73.058045
11
204.761236
21
72.281934
0
LINE
8
Layer 1
10
204.761236
20
72.281934
11
205.053825
21
71.505823
0
LINE
8
Layer 1
10
205.053825
20
71.505823
11
204.761236
21
70.729712
0
LINE
8
Layer 1
10
204.761236
20
70.729712
11
204.327540
21
69.953601
0
LINE
8
Layer 1
10
204.327540
20
69.953601
11
200.465261
21
69.875132
0
LINE
8
Layer 1
10
200.465261
20
69.875132
11
197.110193
21
69.897003
0
LINE
8
Layer 1
10
197.110193
20
69.897003
11
196.445335
21
70.058995
0
LINE
8
Layer 1
10
196.445335
20
70.058995
11
196.030627
21
70.369021
0
LINE
8
Layer 1
10
196.030627
20
70.369021
11
196.030627
21
70.369021
0
LINE
8
Layer 1
10
225.539376
20
79.494343
11
226.077135
21
80.385968
0
LINE
8
Layer 1
10
226.077135
20
80.385968
11
226.230852
21
81.323040
0
LINE
8
Layer 1
10
226.230852
20
81.323040
11
226.002870
21
82.246839
0
LINE
8
Layer 1
10
226.002870
20
82.246839
11
225.395533
21
83.098643
0
LINE
8
Layer 1
10
225.395533
20
83.098643
11
224.884153
21
83.555218
0
LINE
8
Layer 1
10
224.884153
20
83.555218
11
224.354135
21
83.802389
0
LINE
8
Layer 1
10
224.354135
20
83.802389
11
222.272535
21
83.923601
0
LINE
8
Layer 1
10
222.272535
20
83.923601
11
220.245210
21
83.794531
0
LINE
8
Layer 1
10
220.245210
20
83.794531
11
218.947934
21
83.354207
0
LINE
8
Layer 1
10
218.947934
20
83.354207
11
218.534118
21
82.992430
0
LINE
8
Layer 1
10
218.534118
20
82.992430
11
218.256080
21
82.522963
0
LINE
8
Layer 1
10
218.256080
20
82.522963
11
218.045022
21
81.221128
0
LINE
8
Layer 1
10
218.045022
20
81.221128
11
218.181448
21
80.200150
0
LINE
8
Layer 1
10
218.181448
20
80.200150
11
218.671047
21
79.493161
0
LINE
8
Layer 1
10
218.671047
20
79.493161
11
219.301169
21
78.991789
0
LINE
8
Layer 1
10
219.301169
20
78.991789
11
219.970215
21
78.722600
0
LINE
8
Layer 1
10
219.970215
20
78.722600
11
222.505487
21
78.640534
0
LINE
8
Layer 1
10
222.505487
20
78.640534
11
224.606433
21
78.812452
0
LINE
8
Layer 1
10
224.606433
20
78.812452
11
225.105869
21
79.057840
0
LINE
8
Layer 1
10
225.105869
20
79.057840
11
225.539376
21
79.494343
0
LINE
8
Layer 1
10
225.539376
20
79.494343
11
225.539376
21
79.494343
0
LINE
8
Layer 1
10
219.559951
20
79.231879
11
218.949649
21
79.586078
0
LINE
8
Layer 1
10
218.949649
20
79.586078
11
218.569075
21
80.035127
0
LINE
8
Layer 1
10
218.569075
20
80.035127
11
218.373519
21
80.662569
0
LINE
8
Layer 1
10
218.373519
20
80.662569
11
218.318269
21
81.551944
0
LINE
8
Layer 1
10
218.318269
20
81.551944
11
218.549247
21
82.497731
0
LINE
8
Layer 1
10
218.549247
20
82.497731
11
219.270419
21
83.146440
0
LINE
8
Layer 1
10
219.270419
20
83.146440
11
220.524139
21
83.519996
0
LINE
8
Layer 1
10
220.524139
20
83.519996
11
222.352763
21
83.640323
0
LINE
8
Layer 1
10
222.352763
20
83.640323
11
224.302805
21
83.526305
0
LINE
8
Layer 1
10
224.302805
20
83.526305
11
224.808815
21
83.317255
0
LINE
8
Layer 1
10
224.808815
20
83.317255
11
225.245541
21
82.948650
0
LINE
8
Layer 1
10
225.245541
20
82.948650
11
225.776750
21
82.164349
0
LINE
8
Layer 1
10
225.776750
20
82.164349
11
225.948131
21
81.295659
0
LINE
8
Layer 1
10
225.948131
20
81.295659
11
225.760545
21
80.434675
0
LINE
8
Layer 1
10
225.760545
20
80.434675
11
225.214855
21
79.673490
0
LINE
8
Layer 1
10
225.214855
20
79.673490
11
224.768262
21
79.325235
0
LINE
8
Layer 1
10
224.768262
20
79.325235
11
224.246890
21
79.106479
0
LINE
8
Layer 1
10
224.246890
20
79.106479
11
222.463188
21
78.915068
0
LINE
8
Layer 1
10
222.463188
20
78.915068
11
220.735625
21
78.959957
0
LINE
8
Layer 1
10
220.735625
20
78.959957
11
219.559951
21
79.231879
0
LINE
8
Layer 1
10
219.559951
20
79.231879
11
219.559951
21
79.231879
0
LINE
8
Layer 1
10
211.773169
20
89.020653
11
213.561529
21
89.325799
0
LINE
8
Layer 1
10
213.561529
20
89.325799
11
214.172058
21
89.575081
0
LINE
8
Layer 1
10
214.172058
20
89.575081
11
212.953857
21
89.780499
0
LINE
8
Layer 1
10
212.953857
20
89.780499
11
210.345491
21
89.980183
0
LINE
8
Layer 1
10
210.345491
20
89.980183
11
206.747158
21
90.175786
0
LINE
8
Layer 1
10
206.747158
20
90.175786
11
206.747158
21
89.279053
0
LINE
8
Layer 1
10
206.747158
20
89.279053
11
206.748740
21
88.706195
0
LINE
8
Layer 1
10
206.748740
20
88.706195
11
206.867922
21
88.556873
0
LINE
8
Layer 1
10
206.867922
20
88.556873
11
207.170211
21
88.493600
0
LINE
8
Layer 1
10
207.170211
20
88.493600
11
211.773169
21
89.020653
0
LINE
8
Layer 1
10
211.773169
20
89.020653
11
211.773169
21
89.020653
0
LINE
8
Layer 1
10
207.029380
20
89.247464
11
207.130340
21
89.645812
0
LINE
8
Layer 1
10
207.130340
20
89.645812
11
207.592587
21
89.826714
0
LINE
8
Layer 1
10
207.592587
20
89.826714
11
210.557158
21
89.643540
0
LINE
8
Layer 1
10
210.557158
20
89.643540
11
212.532714
21
89.440822
0
LINE
8
Layer 1
10
212.532714
20
89.440822
11
211.121602
21
89.259193
0
LINE
8
Layer 1
10
211.121602
20
89.259193
11
208.369936
21
88.861110
0
LINE
8
Layer 1
10
208.369936
20
88.861110
11
207.231506
21
88.768183
0
LINE
8
Layer 1
10
207.231506
20
88.768183
11
207.063285
21
88.921922
0
LINE
8
Layer 1
10
207.063285
20
88.921922
11
207.029380
21
89.247464
0
LINE
8
Layer 1
10
207.029380
20
89.247464
11
207.029380
21
89.247464
0
LINE
8
Layer 1
10
112.178612
20
62.160094
11
85.484510
21
63.180268
0
LINE
8
Layer 1
10
85.484510
20
63.180268
11
87.836945
21
65.781414
0
LINE
8
Layer 1
10
87.836945
20
65.781414
11
89.573419
21
67.839017
0
LINE
8
Layer 1
10
89.573419
20
67.839017
11
90.026992
21
68.603564
0
LINE
8
Layer 1
10
90.026992
20
68.603564
11
90.211014
21
69.280532
0
LINE
8
Layer 1
10
90.211014
20
69.280532
11
90.130652
21
69.936366
0
LINE
8
Layer 1
10
90.130652
20
69.936366
11
89.791073
21
70.637507
0
LINE
8
Layer 1
10
89.791073
20
70.637507
11
88.354936
21
72.441486
0
LINE
8
Layer 1
10
88.354936
20
72.441486
11
86.520491
21
74.714495
0
LINE
8
Layer 1
10
86.520491
20
74.714495
11
115.166047
21
74.892490
0
LINE
8
Layer 1
10
115.166047
20
74.892490
11
143.811602
21
74.892490
0
LINE
8
Layer 1
10
143.811602
20
74.892490
11
143.811602
21
67.978045
0
LINE
8
Layer 1
10
143.811602
20
67.978045
11
143.811602
21
61.063601
0
LINE
8
Layer 1
10
143.811602
20
61.063601
11
141.342158
21
61.101760
0
LINE
8
Layer 1
10
141.342158
20
61.101760
11
112.178612
21
62.160094
0
LINE
8
Layer 1
10
112.178612
20
62.160094
11
112.178612
21
62.160094
0
LINE
8
Layer 1
10
101.468341
20
67.536159
11
101.674672
21
68.397307
0
LINE
8
Layer 1
10
101.674672
20
68.397307
11
101.760491
21
69.701159
0
LINE
8
Layer 1
10
101.760491
20
69.701159
11
101.658816
21
71.123758
0
LINE
8
Layer 1
10
101.658816
20
71.123758
11
101.489016
21
71.590399
0
LINE
8
Layer 1
10
101.489016
20
71.590399
11
101.201945
21
71.923116
0
LINE
8
Layer 1
10
101.201945
20
71.923116
11
100.162106
21
72.274329
0
LINE
8
Layer 1
10
100.162106
20
72.274329
11
98.311530
21
72.352490
0
LINE
8
Layer 1
10
98.311530
20
72.352490
11
96.271292
21
72.297434
0
LINE
8
Layer 1
10
96.271292
20
72.297434
11
95.632144
21
72.183984
0
LINE
8
Layer 1
10
95.632144
20
72.183984
11
95.195604
21
71.973581
0
LINE
8
Layer 1
10
95.195604
20
71.973581
11
94.923143
21
71.636473
0
LINE
8
Layer 1
10
94.923143
20
71.636473
11
94.776230
21
71.142904
0
LINE
8
Layer 1
10
94.776230
20
71.142904
11
94.704936
21
69.567374
0
LINE
8
Layer 1
10
94.704936
20
69.567374
11
94.893085
21
67.178417
0
LINE
8
Layer 1
10
94.893085
20
67.178417
11
98.128709
21
66.990268
0
LINE
8
Layer 1
10
98.128709
20
66.990268
11
100.722134
21
67.080225
0
LINE
8
Layer 1
10
100.722134
20
67.080225
11
101.219428
21
67.245002
0
LINE
8
Layer 1
10
101.219428
20
67.245002
11
101.468341
21
67.536159
0
LINE
8
Layer 1
10
101.468341
20
67.536159
11
101.468341
21
67.536159
0
LINE
8
Layer 1
10
94.987158
20
69.500073
11
95.077279
21
71.312541
0
LINE
8
Layer 1
10
95.077279
20
71.312541
11
95.214098
21
71.715717
0
LINE
8
Layer 1
10
95.214098
20
71.715717
11
95.433574
21
71.898962
0
LINE
8
Layer 1
10
95.433574
20
71.898962
11
98.386976
21
72.070268
0
LINE
8
Layer 1
10
98.386976
20
72.070268
11
100.094930
21
72.009894
0
LINE
8
Layer 1
10
100.094930
20
72.009894
11
101.021457
21
71.701075
0
LINE
8
Layer 1
10
101.021457
20
71.701075
11
101.265751
21
71.393639
0
LINE
8
Layer 1
10
101.265751
20
71.393639
11
101.403568
21
70.952261
0
LINE
8
Layer 1
10
101.403568
20
70.952261
11
101.478269
21
69.571904
0
LINE
8
Layer 1
10
101.478269
20
69.571904
11
101.433536
21
68.225080
0
LINE
8
Layer 1
10
101.433536
20
68.225080
11
101.314312
21
67.815667
0
LINE
8
Layer 1
10
101.314312
20
67.815667
11
101.074243
21
67.544383
0
LINE
8
Layer 1
10
101.074243
20
67.544383
11
100.062747
21
67.302593
0
LINE
8
Layer 1
10
100.062747
20
67.302593
11
98.061407
21
67.272490
0
LINE
8
Layer 1
10
98.061407
20
67.272490
11
94.987158
21
67.272490
0
LINE
8
Layer 1
10
94.987158
20
67.272490
11
94.987158
21
69.500073
0
LINE
8
Layer 1
10
94.987158
20
69.500073
11
94.987158
21
69.500073
0
LINE
8
Layer 1
10
78.618269
20
68.263572
11
75.526090
21
69.041137
0
LINE
8
Layer 1
10
75.526090
20
69.041137
11
74.268358
21
69.406874
0
LINE
8
Layer 1
10
74.268358
20
69.406874
11
77.991530
21
69.934040
0
LINE
8
Layer 1
10
77.991530
20
69.934040
11
82.087078
21
70.287482
0
LINE
8
Layer 1
10
82.087078
20
70.287482
11
85.934883
21
70.253616
0
LINE
8
Layer 1
10
85.934883
20
70.253616
11
88.789918
21
69.877961
0
LINE
8
Layer 1
10
88.789918
20
69.877961
11
89.612327
21
69.576187
0
LINE
8
Layer 1
10
89.612327
20
69.576187
11
89.907158
21
69.206037
0
LINE
8
Layer 1
10
89.907158
20
69.206037
11
89.573731
21
68.804574
0
LINE
8
Layer 1
10
89.573731
20
68.804574
11
88.663185
21
68.461680
0
LINE
8
Layer 1
10
88.663185
20
68.461680
11
85.649156
21
67.996549
0
LINE
8
Layer 1
10
85.649156
20
67.996549
11
81.941905
21
67.900546
0
LINE
8
Layer 1
10
81.941905
20
67.900546
11
80.164833
21
68.019062
0
LINE
8
Layer 1
10
80.164833
20
68.019062
11
78.618269
21
68.263572
0
LINE
8
Layer 1
10
78.618269
20
68.263572
11
78.618269
21
68.263572
0
LINE
8
Layer 1
10
71.107311
20
74.334424
11
69.381912
21
78.843601
0
LINE
8
Layer 1
10
69.381912
20
78.843601
11
75.622867
21
78.842545
0
LINE
8
Layer 1
10
75.622867
20
78.842545
11
79.770918
21
78.803417
0
LINE
8
Layer 1
10
79.770918
20
78.803417
11
82.102602
21
78.536378
0
LINE
8
Layer 1
10
82.102602
20
78.536378
11
82.852563
21
78.246398
0
LINE
8
Layer 1
10
82.852563
20
78.246398
11
83.466742
21
77.814247
0
LINE
8
Layer 1
10
83.466742
20
77.814247
11
84.712164
21
76.409838
0
LINE
8
Layer 1
10
84.712164
20
76.409838
11
86.561038
21
74.191441
0
LINE
8
Layer 1
10
86.561038
20
74.191441
11
89.001687
21
71.318841
0
LINE
8
Layer 1
10
89.001687
20
71.318841
11
89.907158
21
70.048010
0
LINE
8
Layer 1
10
89.907158
20
70.048010
11
89.679175
21
69.981540
0
LINE
8
Layer 1
10
89.679175
20
69.981540
11
89.131047
21
70.132840
0
LINE
8
Layer 1
10
89.131047
20
70.132840
11
87.228016
21
70.455922
0
LINE
8
Layer 1
10
87.228016
20
70.455922
11
84.174407
21
70.592062
0
LINE
8
Layer 1
10
84.174407
20
70.592062
11
80.812932
21
70.531352
0
LINE
8
Layer 1
10
80.812932
20
70.531352
11
77.986309
21
70.263882
0
LINE
8
Layer 1
10
77.986309
20
70.263882
11
74.035198
21
69.818868
0
LINE
8
Layer 1
10
74.035198
20
69.818868
11
72.832714
21
69.825246
0
LINE
8
Layer 1
10
72.832714
20
69.825246
11
71.107311
21
74.334424
0
LINE
8
Layer 1
10
71.107311
20
74.334424
11
71.107311
21
74.334424
0
LINE
8
Layer 1
10
144.093825
20
77.016142
11
144.093825
21
79.408045
0
LINE
8
Layer 1
10
144.093825
20
79.408045
11
148.531066
21
79.408045
0
LINE
8
Layer 1
10
148.531066
20
79.408045
11
151.299830
21
79.393351
0
LINE
8
Layer 1
10
151.299830
20
79.393351
11
152.391928
21
79.234569
0
LINE
8
Layer 1
10
152.391928
20
79.234569
11
152.368336
21
79.047381
0
LINE
8
Layer 1
10
152.368336
20
79.047381
11
151.996507
21
78.759654
0
LINE
8
Layer 1
10
151.996507
20
78.759654
11
150.302714
21
77.796557
0
LINE
8
Layer 1
10
150.302714
20
77.796557
11
144.807906
21
74.895733
0
LINE
8
Layer 1
10
144.807906
20
74.895733
11
144.093825
21
74.624238
0
LINE
8
Layer 1
10
144.093825
20
74.624238
11
144.093825
21
77.016142
0
LINE
8
Layer 1
10
144.093825
20
77.016142
11
144.093825
21
77.016142
0
LINE
8
Layer 1
10
68.669134
20
76.866513
11
67.611602
21
78.700957
0
LINE
8
Layer 1
10
67.611602
20
78.700957
11
68.327188
21
78.843601
0
LINE
8
Layer 1
10
68.327188
20
78.843601
11
68.831405
21
78.675281
0
LINE
8
Layer 1
10
68.831405
20
78.675281
11
69.305232
21
78.141923
0
LINE
8
Layer 1
10
69.305232
20
78.141923
11
69.775957
21
77.200933
0
LINE
8
Layer 1
10
69.775957
20
77.200933
11
70.270870
21
75.809712
0
LINE
8
Layer 1
10
70.270870
20
75.809712
11
70.338316
21
75.203890
0
LINE
8
Layer 1
10
70.338316
20
75.203890
11
70.017824
21
75.228239
0
LINE
8
Layer 1
10
70.017824
20
75.228239
11
69.423420
21
75.807525
0
LINE
8
Layer 1
10
69.423420
20
75.807525
11
68.669134
21
76.866513
0
LINE
8
Layer 1
10
68.669134
20
76.866513
11
68.669134
21
76.866513
0
LINE
8
Layer 1
10
84.403805
20
77.018399
11
82.710452
21
78.843601
0
LINE
8
Layer 1
10
82.710452
20
78.843601
11
113.261027
21
78.843601
0
LINE
8
Layer 1
10
113.261027
20
78.843601
11
143.811602
21
78.843601
0
LINE
8
Layer 1
10
143.811602
20
78.843601
11
143.811602
21
77.009157
0
LINE
8
Layer 1
10
143.811602
20
77.009157
11
143.811602
21
75.174712
0
LINE
8
Layer 1
10
143.811602
20
75.174712
11
114.954380
21
75.183955
0
LINE
8
Layer 1
10
114.954380
20
75.183955
11
86.097158
21
75.193198
0
LINE
8
Layer 1
10
86.097158
20
75.193198
11
84.403805
21
77.018399
0
LINE
8
Layer 1
10
84.403805
20
77.018399
11
84.403805
21
77.018399
0
LINE
8
Layer 1
10
251.479380
20
87.227619
11
237.791602
21
88.723343
0
LINE
8
Layer 1
10
237.791602
20
88.723343
11
228.414743
21
89.701718
0
LINE
8
Layer 1
10
228.414743
20
89.701718
11
220.905101
21
90.317167
0
LINE
8
Layer 1
10
220.905101
20
90.317167
11
214.067500
21
90.648568
0
LINE
8
Layer 1
10
214.067500
20
90.648568
11
206.706764
21
90.774797
0
LINE
8
Layer 1
10
206.706764
20
90.774797
11
199.187480
21
90.821612
0
LINE
8
Layer 1
10
199.187480
20
90.821612
11
199.750022
21
91.535383
0
LINE
8
Layer 1
10
199.750022
20
91.535383
11
203.089087
21
96.533137
0
LINE
8
Layer 1
10
203.089087
20
96.533137
11
205.669785
21
100.299779
0
LINE
8
Layer 1
10
205.669785
20
100.299779
11
206.339187
21
100.826009
0
LINE
8
Layer 1
10
206.339187
20
100.826009
11
207.090069
21
101.000738
0
LINE
8
Layer 1
10
207.090069
20
101.000738
11
216.773622
21
101.067647
0
LINE
8
Layer 1
10
216.773622
20
101.067647
11
225.232714
21
100.950934
0
LINE
8
Layer 1
10
225.232714
20
100.950934
11
234.404936
21
98.539791
0
LINE
8
Layer 1
10
234.404936
20
98.539791
11
245.587780
21
95.528074
0
LINE
8
Layer 1
10
245.587780
20
95.528074
11
247.598401
21
94.927505
0
LINE
8
Layer 1
10
247.598401
20
94.927505
11
249.607874
21
91.566904
0
LINE
8
Layer 1
10
249.607874
20
91.566904
11
251.255510
21
89.023048
0
LINE
8
Layer 1
10
251.255510
20
89.023048
11
252.395030
21
87.626114
0
LINE
8
Layer 1
10
252.395030
20
87.626114
11
252.861367
21
87.227666
0
LINE
8
Layer 1
10
252.861367
20
87.227666
11
252.890491
21
87.084428
0
LINE
8
Layer 1
10
252.890491
20
87.084428
11
251.479380
21
87.227619
0
LINE
8
Layer 1
10
251.479380
20
87.227619
11
251.479380
21
87.227619
0
LINE
8
Layer 1
10
313.568249
20
97.581426
11
292.683805
21
99.316086
0
LINE
8
Layer 1
10
292.683805
20
99.316086
11
292.594510
21
100.086510
0
LINE
8
Layer 1
10
292.594510
20
100.086510
11
292.644121
21
100.712842
0
LINE
8
Layer 1
10
292.644121
20
100.712842
11
293.158954
21
100.856677
0
LINE
8
Layer 1
10
293.158954
20
100.856677
11
314.979360
21
98.881379
0
LINE
8
Layer 1
10
314.979360
20
98.881379
11
336.498805
21
96.906080
0
LINE
8
Layer 1
10
336.498805
20
96.906080
11
336.747954
21
96.740093
0
LINE
8
Layer 1
10
336.747954
20
96.740093
11
336.851583
21
96.341379
0
LINE
8
Layer 1
10
336.851583
20
96.341379
11
336.866233
21
96.098590
0
LINE
8
Layer 1
10
336.866233
20
96.098590
11
336.693925
21
95.934904
0
LINE
8
Layer 1
10
336.693925
20
95.934904
11
334.490885
21
95.913946
0
LINE
8
Layer 1
10
334.490885
20
95.913946
11
313.568249
21
97.581426
0
LINE
8
Layer 1
10
313.568249
20
97.581426
11
313.568249
21
97.581426
0
LINE
8
Layer 1
10
233.168627
20
99.089918
11
231.508986
21
99.524656
0
LINE
8
Layer 1
10
231.508986
20
99.524656
11
231.693954
21
101.514825
0
LINE
8
Layer 1
10
231.693954
20
101.514825
11
231.966536
21
103.592607
0
LINE
8
Layer 1
10
231.966536
20
103.592607
11
233.826375
21
103.494990
0
LINE
8
Layer 1
10
233.826375
20
103.494990
11
235.598597
21
103.309756
0
LINE
8
Layer 1
10
235.598597
20
103.309756
11
235.425099
21
102.043955
0
LINE
8
Layer 1
10
235.425099
20
102.043955
11
235.251602
21
99.688656
0
LINE
8
Layer 1
10
235.251602
20
99.688656
11
235.189425
21
98.927424
0
LINE
8
Layer 1
10
235.189425
20
98.927424
11
235.039936
21
98.627167
0
LINE
8
Layer 1
10
235.039936
20
98.627167
11
233.168627
21
99.089918
0
LINE
8
Layer 1
10
233.168627
20
99.089918
11
233.168627
21
99.089918
0
LINE
8
Layer 1
10
263.487572
20
100.761823
11
239.047740
21
102.066152
0
LINE
8
Layer 1
10
239.047740
20
102.066152
11
239.576864
21
107.534050
0
LINE
8
Layer 1
10
239.576864
20
107.534050
11
265.960456
21
104.307984
0
LINE
8
Layer 1
10
265.960456
20
104.307984
11
292.260161
21
100.998045
0
LINE
8
Layer 1
10
292.260161
20
100.998045
11
292.260302
21
100.221934
0
LINE
8
Layer 1
10
292.260302
20
100.221934
11
292.260472
21
99.445823
0
LINE
8
Layer 1
10
292.260472
20
99.445823
11
290.073278
21
99.482052
0
LINE
8
Layer 1
10
290.073278
20
99.482052
11
263.487572
21
100.761823
0
LINE
8
Layer 1
10
263.487572
20
100.761823
11
263.487572
21
100.761823
0
LINE
8
Layer 1
10
13.465161
20
105.443045
11
2.748845
21
139.375999
0
LINE
8
Layer 1
10
2.748845
20
139.375999
11
15.025363
21
138.355392
0
LINE
8
Layer 1
10
15.025363
20
138.355392
11
27.959382
21
136.968894
0
LINE
8
Layer 1
10
27.959382
20
136.968894
11
29.178883
21
136.489190
0
LINE
8
Layer 1
10
29.178883
20
136.489190
11
30.441603
21
135.772359
0
LINE
8
Layer 1
10
30.441603
20
135.772359
11
31.576213
21
134.929842
0
LINE
8
Layer 1
10
31.576213
20
134.929842
11
32.411385
21
134.073080
0
LINE
8
Layer 1
10
32.411385
20
134.073080
11
42.864899
21
117.578602
0
LINE
8
Layer 1
10
42.864899
20
117.578602
11
52.633098
21
101.985823
0
LINE
8
Layer 1
10
52.633098
20
101.985823
11
33.608374
21
101.985823
0
LINE
8
Layer 1
10
33.608374
20
101.985823
11
14.583648
21
101.985823
0
LINE
8
Layer 1
10
14.583648
20
101.985823
11
13.465161
21
105.443045
0
LINE
8
Layer 1
10
13.465161
20
105.443045
11
13.465161
21
105.443045
0
LINE
8
Layer 1
10
200.877613
20
106.357728
11
175.514277
21
109.700187
0
LINE
8
Layer 1
10
175.514277
20
109.700187
11
175.533533
21
110.582239
0
LINE
8
Layer 1
10
175.533533
20
110.582239
11
175.667982
21
110.979584
0
LINE
8
Layer 1
10
175.667982
20
110.979584
11
175.901573
21
111.177626
0
LINE
8
Layer 1
10
175.901573
20
111.177626
11
177.190205
21
111.157882
0
LINE
8
Layer 1
10
177.190205
20
111.157882
11
202.513825
21
109.876655
0
LINE
8
Layer 1
10
202.513825
20
109.876655
11
227.568328
21
108.590215
0
LINE
8
Layer 1
10
227.568328
20
108.590215
11
228.775054
21
108.440166
0
LINE
8
Layer 1
10
228.775054
20
108.440166
11
228.614455
21
106.976884
0
LINE
8
Layer 1
10
228.614455
20
106.976884
11
228.350302
21
104.610583
0
LINE
8
Layer 1
10
228.350302
20
104.610583
11
228.129503
21
103.481415
0
LINE
8
Layer 1
10
228.129503
20
103.481415
11
227.777672
21
103.142205
0
LINE
8
Layer 1
10
227.777672
20
103.142205
11
227.120422
21
103.145776
0
LINE
8
Layer 1
10
227.120422
20
103.145776
11
200.877613
21
106.357728
0
LINE
8
Layer 1
10
200.877613
20
106.357728
11
200.877613
21
106.357728
0
LINE
8
Layer 1
10
233.134936
20
103.833394
11
229.113269
21
104.220414
0
LINE
8
Layer 1
10
229.113269
20
104.220414
11
228.848526
21
104.616518
0
LINE
8
Layer 1
10
228.848526
20
104.616518
11
228.760491
21
105.761155
0
LINE
8
Layer 1
10
228.760491
20
105.761155
11
228.760491
21
107.278712
0
LINE
8
Layer 1
10
228.760491
20
107.278712
11
229.959936
21
107.152099
0
LINE
8
Layer 1
10
229.959936
20
107.152099
11
235.110491
21
106.692878
0
LINE
8
Layer 1
10
235.110491
20
106.692878
11
237.880238
21
106.395794
0
LINE
8
Layer 1
10
237.880238
20
106.395794
11
238.991047
21
106.148601
0
LINE
8
Layer 1
10
238.991047
20
106.148601
11
238.920491
21
104.666934
0
LINE
8
Layer 1
10
238.920491
20
104.666934
11
238.920491
21
103.396934
0
LINE
8
Layer 1
10
238.920491
20
103.396934
11
237.862158
21
103.433248
0
LINE
8
Layer 1
10
237.862158
20
103.433248
11
233.134936
21
103.833394
0
LINE
8
Layer 1
10
233.134936
20
103.833394
11
233.134936
21
103.833394
0
LINE
8
Layer 1
10
234.404936
20
109.338714
11
222.269380
21
110.444399
0
LINE
8
Layer 1
10
222.269380
20
110.444399
11
222.142868
21
110.529304
0
LINE
8
Layer 1
10
222.142868
20
110.529304
11
222.228659
21
110.731992
0
LINE
8
Layer 1
10
222.228659
20
110.731992
11
222.914927
21
111.392165
0
LINE
8
Layer 1
10
222.914927
20
111.392165
11
224.083745
21
112.227817
0
LINE
8
Layer 1
10
224.083745
20
112.227817
11
225.490673
21
113.041846
0
LINE
8
Layer 1
10
225.490673
20
113.041846
11
227.177012
21
113.825383
0
LINE
8
Layer 1
10
227.177012
20
113.825383
11
228.736069
21
114.353609
0
LINE
8
Layer 1
10
228.736069
20
114.353609
11
230.386735
21
114.685157
0
LINE
8
Layer 1
10
230.386735
20
114.685157
11
232.347900
21
114.878661
0
LINE
8
Layer 1
10
232.347900
20
114.878661
11
234.599760
21
114.890838
0
LINE
8
Layer 1
10
234.599760
20
114.890838
11
236.733145
21
114.611966
0
LINE
8
Layer 1
10
236.733145
20
114.611966
11
238.810944
21
114.029178
0
LINE
8
Layer 1
10
238.810944
20
114.029178
11
240.896047
21
113.129606
0
LINE
8
Layer 1
10
240.896047
20
113.129606
11
242.912391
21
111.836595
0
LINE
8
Layer 1
10
242.912391
20
111.836595
11
244.966701
21
110.158889
0
LINE
8
Layer 1
10
244.966701
20
110.158889
11
246.343879
21
108.741487
0
LINE
8
Layer 1
10
246.343879
20
108.741487
11
246.555074
21
108.331962
0
LINE
8
Layer 1
10
246.555074
20
108.331962
11
246.328825
21
108.229389
0
LINE
8
Layer 1
10
246.328825
20
108.229389
11
234.404936
21
109.338714
0
LINE
8
Layer 1
10
234.404936
20
109.338714
11
234.404936
21
109.338714
0
LINE
8
Layer 1
10
117.988269
20
114.896800
11
61.990676
21
120.227046
0
LINE
8
Layer 1
10
61.990676
20
120.227046
11
61.990676
21
120.429286
0
LINE
8
Layer 1
10
61.990676
20
120.429286
11
175.325016
21
111.199253
0
LINE
8
Layer 1
10
175.325016
20
111.199253
11
175.221559
21
110.381934
0
LINE
8
Layer 1
10
175.221559
20
110.381934
11
174.971223
21
109.786426
0
LINE
8
Layer 1
10
174.971223
20
109.786426
11
174.470368
21
109.637799
0
LINE
8
Layer 1
10
174.470368
20
109.637799
11
117.988269
21
114.896800
0
LINE
8
Layer 1
10
117.988269
20
114.896800
11
117.988269
21
114.896800
 0 
ENDSEC
 0 
EOF
