0
SECTION
2
HEADER
9
$ACADVER
1
AC1009
9
$ANGDIR
70
0
9
$EXTMIN
10
0
20
0
9
$EXTMAX
10
24.0000
20
18.0000
0
ENDSEC
0
SECTION
2
ENTITIES
0
POLYLINE
8
Layer 1
66
1
0
VERTEX
8
0
10
7.8334
20
6.4379
42
-0.1921
0
VERTEX
8
0
10
7.7633
20
6.6186
42
-0.1870
0
VERTEX
8
0
10
7.8334
20
6.7989
42
-0.2047
0
VERTEX
8
0
10
8.0097
20
6.8766
42
-0.2107
0
VERTEX
8
0
10
8.1859
20
6.7989
42
-0.1929
0
VERTEX
8
0
10
8.2560
20
6.6186
42
-0.1867
0
VERTEX
8
0
10
8.1859
20
6.4379
42
-0.2055
0
VERTEX
8
0
10
8.0097
20
6.3599
42
-0.2120
0
VERTEX
8
0
10
7.8334
20
6.4379
0
SEQEND
8
0
0
POLYLINE
8
Layer 1
66
1
0
VERTEX
8
0
10
6.9351
20
5.5586
42
-0.0096
0
VERTEX
8
0
10
6.9673
20
5.5404
42
0.0681
0
VERTEX
8
0
10
7.0723
20
5.5118
42
0.0201
0
VERTEX
8
0
10
7.1805
20
5.4981
42
-0.0128
0
VERTEX
8
0
10
7.3967
20
5.4689
42
-0.0063
0
VERTEX
8
0
10
7.5457
20
5.4689
42
-0.1276
0
VERTEX
8
0
10
7.6906
20
5.4149
42
0.0036
0
VERTEX
8
0
10
7.7545
20
5.4243
0
VERTEX
8
0
10
7.8701
20
5.5727
42
-0.2631
0
VERTEX
8
0
10
7.9516
20
5.6067
42
-0.2616
0
VERTEX
8
0
10
8.0232
20
5.5545
0
VERTEX
8
0
10
8.1270
20
5.3228
0
VERTEX
8
0
10
8.2167
20
5.4824
42
-0.0295
0
VERTEX
8
0
10
8.2226
20
5.4911
0
VERTEX
8
0
10
7.9381
20
5.6859
0
VERTEX
8
0
10
7.6331
20
5.4994
42
-0.2459
0
VERTEX
8
0
10
7.5498
20
5.4941
42
0.0818
0
VERTEX
8
0
10
7.2231
20
5.5786
42
0.0767
0
VERTEX
8
0
10
6.9351
20
5.5586
0
SEQEND
8
0
0
POLYLINE
8
Layer 1
66
1
0
VERTEX
8
0
10
6.3450
20
6.2637
42
-0.1873
0
VERTEX
8
0
10
6.4418
20
6.5131
42
-0.2053
0
VERTEX
8
0
10
6.6852
20
6.6209
42
-0.2114
0
VERTEX
8
0
10
6.9286
20
6.5131
42
-0.1918
0
VERTEX
8
0
10
7.0254
20
6.2637
42
-0.1873
0
VERTEX
8
0
10
6.9286
20
6.0142
42
-0.2052
0
VERTEX
8
0
10
6.6852
20
5.9064
42
-0.2114
0
VERTEX
8
0
10
6.4417
20
6.0142
42
-0.1917
0
VERTEX
8
0
10
6.3450
20
6.2637
0
SEQEND
8
0
0
POLYLINE
8
Layer 1
66
1
0
VERTEX
8
0
10
5.0445
20
5.9111
0
VERTEX
8
0
10
5.0838
20
5.6354
0
VERTEX
8
0
10
5.3003
20
5.6354
0
VERTEX
8
0
10
5.3003
20
5.9111
0
VERTEX
8
0
10
5.0445
20
5.9111
0
SEQEND
8
0
0
POLYLINE
8
Layer 1
66
1
0
VERTEX
8
0
10
4.6896
20
5.9311
0
VERTEX
8
0
10
4.9061
20
5.9510
0
VERTEX
8
0
10
4.8867
20
5.6747
0
VERTEX
8
0
10
4.6896
20
5.7340
0
VERTEX
8
0
10
4.6896
20
5.9311
0
SEQEND
8
0
0
POLYLINE
8
Layer 1
66
1
0
VERTEX
8
0
10
4.3348
20
6.0097
0
VERTEX
8
0
10
4.2955
20
5.7539
0
VERTEX
8
0
10
4.5518
20
5.7539
0
VERTEX
8
0
10
4.4926
20
6.0097
0
VERTEX
8
0
10
4.3348
20
6.0097
0
SEQEND
8
0
0
POLYLINE
8
Layer 1
66
1
0
VERTEX
8
0
10
3.9605
20
6.0296
0
VERTEX
8
0
10
3.9212
20
5.8325
0
VERTEX
8
0
10
4.0984
20
5.7141
0
VERTEX
8
0
10
4.0984
20
6.0296
0
VERTEX
8
0
10
3.9605
20
6.0296
0
SEQEND
8
0
0
POLYLINE
8
Layer 1
66
1
0
VERTEX
8
0
10
3.5470
20
6.0496
0
VERTEX
8
0
10
3.5863
20
5.8325
0
VERTEX
8
0
10
3.8027
20
5.7932
0
VERTEX
8
0
10
3.8027
20
6.0496
0
VERTEX
8
0
10
3.5470
20
6.0496
0
SEQEND
8
0
0
POLYLINE
8
Layer 1
66
1
0
VERTEX
8
0
10
3.0543
20
6.0496
0
VERTEX
8
0
10
3.1129
20
5.8325
0
VERTEX
8
0
10
3.4086
20
5.8525
0
VERTEX
8
0
10
3.3693
20
6.0296
0
VERTEX
8
0
10
3.0543
20
6.0496
0
SEQEND
8
0
0
POLYLINE
8
Layer 1
66
1
0
VERTEX
8
0
10
0.6892
20
6.0689
42
-0.0958
0
VERTEX
8
0
10
0.8911
20
5.8825
42
-0.1422
0
VERTEX
8
0
10
0.9760
20
5.6231
42
-0.0755
0
VERTEX
8
0
10
0.9333
20
5.3895
42
-0.1179
0
VERTEX
8
0
10
0.7994
20
5.1948
42
-0.0697
0
VERTEX
8
0
10
0.6038
20
5.0591
42
-0.0093
0
VERTEX
8
0
10
0.3941
20
4.9456
42
-0.0466
0
VERTEX
8
0
10
0.6598
20
4.9167
42
-0.0612
0
VERTEX
8
0
10
0.7844
20
4.8689
42
-0.0984
0
VERTEX
8
0
10
0.8851
20
4.7820
42
-0.0987
0
VERTEX
8
0
10
0.9566
20
4.6370
42
-0.0386
0
VERTEX
8
0
10
0.9935
20
4.4789
42
-0.0102
0
VERTEX
8
0
10
1.0441
20
4.1579
42
-0.0552
0
VERTEX
8
0
10
1.5274
20
4.6676
42
-0.0222
0
VERTEX
8
0
10
1.8958
20
4.9626
42
-0.0123
0
VERTEX
8
0
10
2.2817
20
5.2342
42
-0.0036
0
VERTEX
8
0
10
2.6693
20
5.4922
42
0.0055
0
VERTEX
8
0
10
3.0543
20
5.7539
0
VERTEX
8
0
10
3.2514
20
5.6554
42
0.0525
0
VERTEX
8
0
10
3.0699
20
5.3837
42
0.0107
0
VERTEX
8
0
10
2.9131
20
5.0966
42
-0.0121
0
VERTEX
8
0
10
2.7509
20
4.8125
42
-0.0429
0
VERTEX
8
0
10
2.5545
20
4.5515
42
-0.0480
0
VERTEX
8
0
10
2.4315
20
4.4454
42
-0.0732
0
VERTEX
8
0
10
2.2859
20
4.3743
42
-0.0824
0
VERTEX
8
0
10
2.6308
20
4.3690
42
-0.0670
0
VERTEX
8
0
10
2.9950
20
4.2564
0
VERTEX
8
0
10
3.6057
20
5.6747
0
VERTEX
8
0
10
3.9212
20
5.5961
42
-0.0167
0
VERTEX
8
0
10
3.8035
20
5.1956
42
-0.0477
0
VERTEX
8
0
10
3.6285
20
4.8172
42
-0.0363
0
VERTEX
8
0
10
3.4516
20
4.5671
42
-0.0180
0
VERTEX
8
0
10
3.2514
20
4.3350
42
-0.0390
0
VERTEX
8
0
10
3.6256
20
4.2910
42
-0.0653
0
VERTEX
8
0
10
3.8719
20
4.1962
42
-0.0271
0
VERTEX
8
0
10
4.0984
20
4.0593
0
VERTEX
8
0
10
4.2955
20
5.5961
0
VERTEX
8
0
10
4.6503
20
5.5369
0
VERTEX
8
0
10
4.3741
20
4.2165
42
-0.0434
0
VERTEX
8
0
10
4.5256
20
4.2840
42
-0.1043
0
VERTEX
8
0
10
4.6896
20
4.2992
42
-0.1026
0
VERTEX
8
0
10
4.8356
20
4.2451
42
-0.0387
0
VERTEX
8
0
10
4.9653
20
4.1579
0
VERTEX
8
0
10
4.9853
20
5.4777
0
VERTEX
8
0
10
5.3795
20
5.4583
0
VERTEX
8
0
10
5.1824
20
4.2758
42
-0.0522
0
VERTEX
8
0
10
5.5120
20
4.2945
42
-0.0759
0
VERTEX
8
0
10
5.8522
20
4.2165
0
VERTEX
8
0
10
5.6159
20
5.4583
0
VERTEX
8
0
10
5.8522
20
5.5568
42
-0.0554
0
VERTEX
8
0
10
6.1072
20
5.3379
42
-0.0443
0
VERTEX
8
0
10
6.3151
20
5.0735
42
0.0133
0
VERTEX
8
0
10
6.4712
20
4.7811
42
0.0303
0
VERTEX
8
0
10
6.5652
20
4.6447
42
0.0581
0
VERTEX
8
0
10
6.6834
20
4.5292
42
0.1116
0
VERTEX
8
0
10
6.9339
20
4.4174
42
0.0493
0
VERTEX
8
0
10
7.2072
20
4.3796
0
VERTEX
8
0
10
8.7822
20
4.2728
42
0.0473
0
VERTEX
8
0
10
9.1758
20
4.2946
42
0.0345
0
VERTEX
8
0
10
9.5615
20
4.3773
42
0.0209
0
VERTEX
8
0
10
9.9370
20
4.4989
42
0.0081
0
VERTEX
8
0
10
10.3061
20
4.6389
42
0.0431
0
VERTEX
8
0
10
10.6571
20
4.8160
42
0.0262
0
VERTEX
8
0
10
10.9829
20
5.0365
42
0.0104
0
VERTEX
8
0
10
11.2946
20
5.2769
42
-0.0049
0
VERTEX
8
0
10
11.6060
20
5.5175
0
VERTEX
8
0
10
11.0546
20
5.5175
42
0.0519
0
VERTEX
8
0
10
11.0454
20
5.7516
42
0.0871
0
VERTEX
8
0
10
10.9669
20
5.9715
42
0.0656
0
VERTEX
8
0
10
10.8248
20
6.1577
42
0.0154
0
VERTEX
8
0
10
10.6604
20
6.3253
0
VERTEX
8
0
10
10.5419
20
6.3253
42
0.1076
0
VERTEX
8
0
10
10.1565
20
5.8331
42
0.0293
0
VERTEX
8
0
10
10.0154
20
5.5214
42
0.0068
0
VERTEX
8
0
10
9.8920
20
5.2020
0
VERTEX
8
0
10
9.4978
20
5.5961
0
VERTEX
8
0
10
9.3993
20
5.1034
0
VERTEX
8
0
10
9.0837
20
5.4583
0
VERTEX
8
0
10
8.9259
20
5.2020
0
VERTEX
8
0
10
8.8080
20
5.4976
0
VERTEX
8
0
10
8.5124
20
5.2413
0
VERTEX
8
0
10
8.2953
20
5.4384
0
VERTEX
8
0
10
8.1182
20
5.1234
0
VERTEX
8
0
10
7.9410
20
5.5175
0
VERTEX
8
0
10
7.8032
20
5.3398
0
VERTEX
8
0
10
7.6648
20
5.3205
42
0.1852
0
VERTEX
8
0
10
7.5348
20
5.3794
42
0.0499
0
VERTEX
8
0
10
7.3891
20
5.3791
42
0.0258
0
VERTEX
8
0
10
7.1586
20
5.4092
42
-0.0155
0
VERTEX
8
0
10
7.0434
20
5.4248
42
-0.0497
0
VERTEX
8
0
10
6.9321
20
5.4577
42
-0.1102
0
VERTEX
8
0
10
6.7391
20
5.5961
42
-0.1096
0
VERTEX
8
0
10
7.2307
20
5.6683
42
-0.0848
0
VERTEX
8
0
10
7.5862
20
5.5762
0
VERTEX
8
0
10
7.9410
20
5.7932
0
VERTEX
8
0
10
8.3153
20
5.5369
0
VERTEX
8
0
10
8.4731
20
5.8918
0
VERTEX
8
0
10
8.9459
20
5.7141
0
VERTEX
8
0
10
9.1629
20
6.0496
0
VERTEX
8
0
10
9.3594
20
6.0496
0
VERTEX
8
0
10
9.8128
20
5.6947
0
VERTEX
8
0
10
10.1677
20
6.4831
42
-0.2000
0
VERTEX
8
0
10
10.3273
20
6.5456
42
-0.0397
0
VERTEX
8
0
10
10.5026
20
6.5417
42
0.0206
0
VERTEX
8
0
10
10.4557
20
6.7552
42
0.1272
0
VERTEX
8
0
10
10.4035
20
6.8300
42
0.0921
0
VERTEX
8
0
10
10.3209
20
6.8710
42
0.0035
0
VERTEX
8
0
10
10.1478
20
6.9359
0
VERTEX
8
0
10
9.5964
20
7.0151
42
-0.0083
0
VERTEX
8
0
10
8.8509
20
7.3787
42
0.0213
0
VERTEX
8
0
10
8.0900
20
7.7078
42
0.1398
0
VERTEX
8
0
10
7.4243
20
7.7911
42
0.1098
0
VERTEX
8
0
10
6.6981
20
7.2955
42
-0.0051
0
VERTEX
8
0
10
6.2000
20
6.6430
42
-0.0250
0
VERTEX
8
0
10
5.6552
20
6.0296
0
VERTEX
8
0
10
5.4974
20
6.0496
0
VERTEX
8
0
10
6.3250
20
7.9407
42
-0.0370
0
VERTEX
8
0
10
6.0417
20
7.8421
42
-0.0862
0
VERTEX
8
0
10
5.6945
20
7.8228
0
VERTEX
8
0
10
5.0838
20
6.0889
0
VERTEX
8
0
10
4.7882
20
6.1675
42
0.0135
0
VERTEX
8
0
10
5.1155
20
6.9218
42
0.0365
0
VERTEX
8
0
10
5.3988
20
7.8427
42
-0.0465
0
VERTEX
8
0
10
4.9718
20
7.5395
42
-0.0409
0
VERTEX
8
0
10
4.6304
20
7.3893
0
VERTEX
8
0
10
4.4926
20
6.1675
0
VERTEX
8
0
10
4.1183
20
6.2660
0
VERTEX
8
0
10
4.2755
20
7.5864
42
-0.1264
0
VERTEX
8
0
10
4.0163
20
7.4521
42
-0.0288
0
VERTEX
8
0
10
3.7834
20
7.4087
42
-0.0473
0
VERTEX
8
0
10
3.9090
20
7.1519
42
-0.0791
0
VERTEX
8
0
10
3.9599
20
6.8714
42
-0.0630
0
VERTEX
8
0
10
3.9277
20
6.5762
42
-0.0125
0
VERTEX
8
0
10
3.8620
20
6.2860
0
VERTEX
8
0
10
3.5271
20
6.3053
0
VERTEX
8
0
10
3.6057
20
7.1723
42
-0.0540
0
VERTEX
8
0
10
3.1816
20
7.3664
42
-0.0507
0
VERTEX
8
0
10
2.8179
20
7.6456
0
VERTEX
8
0
10
2.9164
20
6.2267
42
-0.0038
0
VERTEX
8
0
10
2.6558
20
6.3568
42
-0.0178
0
VERTEX
8
0
10
2.4026
20
6.5007
42
-0.0308
0
VERTEX
8
0
10
2.1660
20
6.6703
42
-0.0451
0
VERTEX
8
0
10
1.9597
20
6.8755
42
-0.0388
0
VERTEX
8
0
10
1.7982
20
7.1063
42
-0.0757
0
VERTEX
8
0
10
1.6999
20
7.3694
42
-0.0630
0
VERTEX
8
0
10
1.7072
20
7.5788
42
-0.0398
0
VERTEX
8
0
10
1.7538
20
7.7835
0
VERTEX
8
0
10
1.3004
20
7.5072
42
-0.0426
0
VERTEX
8
0
10
1.4044
20
7.3546
42
-0.1218
0
VERTEX
8
0
10
1.4476
20
7.1776
42
-0.2234
0
VERTEX
8
0
10
1.3614
20
7.0383
42
-0.0898
0
VERTEX
8
0
10
1.2121
20
6.9614
42
-0.0481
0
VERTEX
8
0
10
0.8863
20
6.8766
42
-0.0127
0
VERTEX
8
0
10
0.9853
20
6.6952
42
-0.0680
0
VERTEX
8
0
10
1.0499
20
6.5001
42
-0.1566
0
VERTEX
8
0
10
1.0177
20
6.3591
42
-0.0907
0
VERTEX
8
0
10
0.9220
20
6.2482
42
-0.0405
0
VERTEX
8
0
10
0.6892
20
6.0689
0
SEQEND
8
0
0
POLYLINE
8
Layer 1
66
1
0
VERTEX
8
0
10
0.6370
20
6.1423
42
0.0078
0
VERTEX
8
0
10
0.7761
20
6.2447
42
0.0316
0
VERTEX
8
0
10
0.9056
20
6.3587
42
0.0518
0
VERTEX
8
0
10
0.9495
20
6.4192
42
0.1516
0
VERTEX
8
0
10
0.9602
20
6.4924
42
0.0909
0
VERTEX
8
0
10
0.9358
20
6.5823
42
0.0248
0
VERTEX
8
0
10
0.8976
20
6.6674
42
0.0192
0
VERTEX
8
0
10
0.8083
20
6.8315
42
-0.2415
0
VERTEX
8
0
10
0.8042
20
6.9130
42
-0.2385
0
VERTEX
8
0
10
0.8675
20
6.9646
42
0.0090
0
VERTEX
8
0
10
1.0494
20
7.0063
42
0.0319
0
VERTEX
8
0
10
1.2265
20
7.0643
42
0.0470
0
VERTEX
8
0
10
1.3090
20
7.1105
42
0.1767
0
VERTEX
8
0
10
1.3585
20
7.1881
42
0.1383
0
VERTEX
8
0
10
1.3468
20
7.2610
42
0.0486
0
VERTEX
8
0
10
1.3156
20
7.3284
42
0.0489
0
VERTEX
8
0
10
1.2306
20
7.4503
42
-0.2187
0
VERTEX
8
0
10
1.2118
20
7.5225
42
-0.2157
0
VERTEX
8
0
10
1.2535
20
7.5841
0
VERTEX
8
0
10
1.7069
20
7.8603
42
-0.3111
0
VERTEX
8
0
10
1.8090
20
7.8551
42
-0.3124
0
VERTEX
8
0
10
1.8401
20
7.7577
42
0.0322
0
VERTEX
8
0
10
1.7975
20
7.5722
42
0.0531
0
VERTEX
8
0
10
1.7896
20
7.3823
42
0.0862
0
VERTEX
8
0
10
1.8810
20
7.1427
42
0.0494
0
VERTEX
8
0
10
2.0289
20
6.9324
42
0.0825
0
VERTEX
8
0
10
2.3930
20
6.6148
42
0.0370
0
VERTEX
8
0
10
2.8155
20
6.3775
0
VERTEX
8
0
10
2.7281
20
7.6392
42
-0.3058
0
VERTEX
8
0
10
2.7780
20
7.7266
42
-0.3058
0
VERTEX
8
0
10
2.8777
20
7.7131
42
0.0330
0
VERTEX
8
0
10
3.2291
20
7.4427
42
0.0625
0
VERTEX
8
0
10
3.6338
20
7.2579
42
-0.3502
0
VERTEX
8
0
10
3.6954
20
7.1641
0
VERTEX
8
0
10
3.6250
20
6.3898
0
VERTEX
8
0
10
3.7910
20
6.3804
42
0.0062
0
VERTEX
8
0
10
3.8444
20
6.6230
42
0.0413
0
VERTEX
8
0
10
3.8702
20
6.8696
42
0.0824
0
VERTEX
8
0
10
3.8229
20
7.1268
42
0.0578
0
VERTEX
8
0
10
3.7065
20
7.3617
42
-0.2423
0
VERTEX
8
0
10
3.7007
20
7.4444
42
-0.2437
0
VERTEX
8
0
10
3.7652
20
7.4967
42
-0.0108
0
VERTEX
8
0
10
3.9946
20
7.5395
42
0.1180
0
VERTEX
8
0
10
4.2157
20
7.6533
42
-0.3109
0
VERTEX
8
0
10
4.3166
20
7.6656
42
-0.3093
0
VERTEX
8
0
10
4.3647
20
7.5758
0
VERTEX
8
0
10
4.2169
20
6.3329
0
VERTEX
8
0
10
4.4151
20
6.2807
0
VERTEX
8
0
10
4.5412
20
7.3993
42
-0.2824
0
VERTEX
8
0
10
4.5987
20
7.4738
42
0.0263
0
VERTEX
8
0
10
4.9290
20
7.6187
42
0.0614
0
VERTEX
8
0
10
5.3402
20
7.9108
42
-0.3194
0
VERTEX
8
0
10
5.4446
20
7.9202
42
-0.3208
0
VERTEX
8
0
10
5.4868
20
7.8240
42
-0.0436
0
VERTEX
8
0
10
5.1994
20
6.8890
42
-0.0180
0
VERTEX
8
0
10
4.9137
20
6.2273
0
VERTEX
8
0
10
5.0263
20
6.1974
0
VERTEX
8
0
10
5.6094
20
7.8527
42
-0.3464
0
VERTEX
8
0
10
5.7033
20
7.9125
42
0.0767
0
VERTEX
8
0
10
6.0212
20
7.9296
42
0.0533
0
VERTEX
8
0
10
6.2892
20
8.0234
42
-0.0973
0
VERTEX
8
0
10
6.3233
20
8.0304
42
-0.2575
0
VERTEX
8
0
10
6.3995
20
7.9906
42
-0.2543
0
VERTEX
8
0
10
6.4077
20
7.9049
0
VERTEX
8
0
10
5.6346
20
6.1387
42
0.0275
0
VERTEX
8
0
10
6.1509
20
6.7270
42
0.0112
0
VERTEX
8
0
10
6.6259
20
7.3494
42
-0.0258
0
VERTEX
8
0
10
6.6324
20
7.3565
42
-0.1101
0
VERTEX
8
0
10
7.3908
20
7.8750
42
-0.0568
0
VERTEX
8
0
10
7.4108
20
7.8803
42
-0.1384
0
VERTEX
8
0
10
8.1205
20
7.7923
0
VERTEX
8
0
10
8.1246
20
7.7911
0
VERTEX
8
0
10
8.1246
20
7.7905
42
-0.0304
0
VERTEX
8
0
10
8.8815
20
7.4640
0
VERTEX
8
0
10
9.6228
20
7.1025
0
VERTEX
8
0
10
10.1607
20
7.0250
42
-0.0602
0
VERTEX
8
0
10
10.1812
20
7.0192
42
0.0063
0
VERTEX
8
0
10
10.4047
20
6.9330
42
-0.1924
0
VERTEX
8
0
10
10.5402
20
6.7863
42
-0.0492
0
VERTEX
8
0
10
10.5702
20
6.6730
42
-0.0092
0
VERTEX
8
0
10
10.5912
20
6.5575
42
-0.2240
0
VERTEX
8
0
10
10.5713
20
6.4842
42
-0.2198
0
VERTEX
8
0
10
10.5026
20
6.4520
42
-0.0112
0
VERTEX
8
0
10
10.3302
20
6.4555
42
0.1328
0
VERTEX
8
0
10
10.2404
20
6.4250
0
VERTEX
8
0
10
9.8949
20
5.6577
42
-0.2318
0
VERTEX
8
0
10
9.8345
20
5.6073
42
-0.2289
0
VERTEX
8
0
10
9.7571
20
5.6237
0
VERTEX
8
0
10
9.3277
20
5.9598
0
VERTEX
8
0
10
9.2122
20
5.9598
0
VERTEX
8
0
10
9.0215
20
5.6654
42
-0.3538
0
VERTEX
8
0
10
8.9142
20
5.6296
0
VERTEX
8
0
10
8.5206
20
5.7774
0
VERTEX
8
0
10
8.3974
20
5.5005
42
-0.0714
0
VERTEX
8
0
10
8.3839
20
5.4788
0
VERTEX
8
0
10
8.5135
20
5.3615
0
VERTEX
8
0
10
8.7493
20
5.5656
42
-0.2396
0
VERTEX
8
0
10
8.8291
20
5.5850
42
-0.2429
0
VERTEX
8
0
10
8.8913
20
5.5310
0
VERTEX
8
0
10
8.9429
20
5.4014
0
VERTEX
8
0
10
9.0069
20
5.5052
42
-0.2385
0
VERTEX
8
0
10
9.0755
20
5.5480
42
-0.2376
0
VERTEX
8
0
10
9.1512
20
5.5181
0
VERTEX
8
0
10
9.3465
20
5.2982
0
VERTEX
8
0
10
9.4098
20
5.6137
42
-0.2743
0
VERTEX
8
0
10
9.4720
20
5.6818
42
-0.2749
0
VERTEX
8
0
10
9.5612
20
5.6595
0
VERTEX
8
0
10
9.8580
20
5.3627
42
-0.0048
0
VERTEX
8
0
10
9.9597
20
5.6221
42
-0.0199
0
VERTEX
8
0
10
10.0768
20
5.8748
42
-0.0406
0
VERTEX
8
0
10
10.2545
20
6.1553
42
-0.0545
0
VERTEX
8
0
10
10.4844
20
6.3945
42
-0.1748
0
VERTEX
8
0
10
10.5419
20
6.4150
0
VERTEX
8
0
10
10.6604
20
6.4150
42
-0.1982
0
VERTEX
8
0
10
10.7238
20
6.3886
42
-0.0041
0
VERTEX
8
0
10
10.8944
20
6.2152
42
-0.0468
0
VERTEX
8
0
10
11.0417
20
6.0220
42
-0.0777
0
VERTEX
8
0
10
11.1206
20
5.8216
42
-0.0584
0
VERTEX
8
0
10
11.1449
20
5.6073
0
VERTEX
8
0
10
11.6060
20
5.6073
42
-0.3208
0
VERTEX
8
0
10
11.6910
20
5.5457
42
-0.3223
0
VERTEX
8
0
10
11.6594
20
5.4454
42
0.0108
0
VERTEX
8
0
10
11.3437
20
5.2008
42
-0.0061
0
VERTEX
8
0
10
11.0275
20
4.9570
42
-0.0215
0
VERTEX
8
0
10
10.6962
20
4.7343
42
-0.0368
0
VERTEX
8
0
10
10.3396
20
4.5556
0
VERTEX
8
0
10
10.3384
20
4.5550
42
-0.0038
0
VERTEX
8
0
10
9.9607
20
4.4117
42
-0.0171
0
VERTEX
8
0
10
9.5764
20
4.2878
42
-0.0304
0
VERTEX
8
0
10
9.1815
20
4.2044
42
-0.0429
0
VERTEX
8
0
10
8.7787
20
4.1831
0
VERTEX
8
0
10
8.7763
20
4.1831
0
VERTEX
8
0
10
7.2014
20
4.2898
42
-0.0373
0
VERTEX
8
0
10
6.9026
20
4.3327
42
-0.0907
0
VERTEX
8
0
10
6.6295
20
4.4570
42
-0.1091
0
VERTEX
8
0
10
6.4022
20
4.7204
42
-0.0292
0
VERTEX
8
0
10
6.2370
20
5.0289
42
0.0799
0
VERTEX
8
0
10
5.8388
20
5.4536
0
VERTEX
8
0
10
5.7179
20
5.4032
0
VERTEX
8
0
10
5.9408
20
4.2335
42
-0.2698
0
VERTEX
8
0
10
5.9109
20
4.1479
42
-0.2707
0
VERTEX
8
0
10
5.8212
20
4.1320
42
0.0632
0
VERTEX
8
0
10
5.5056
20
4.2048
42
0.0649
0
VERTEX
8
0
10
5.1970
20
4.1872
42
-0.2419
0
VERTEX
8
0
10
5.1190
20
4.2124
42
-0.2412
0
VERTEX
8
0
10
5.0938
20
4.2904
0
VERTEX
8
0
10
5.2745
20
5.3732
0
VERTEX
8
0
10
5.0739
20
5.3832
0
VERTEX
8
0
10
5.0551
20
4.1567
42
-0.2805
0
VERTEX
8
0
10
5.0052
20
4.0769
42
-0.2823
0
VERTEX
8
0
10
4.9114
20
4.0857
42
0.0231
0
VERTEX
8
0
10
4.8004
20
4.1612
42
0.0773
0
VERTEX
8
0
10
4.6762
20
4.2101
42
0.1312
0
VERTEX
8
0
10
4.5416
20
4.1950
42
0.0540
0
VERTEX
8
0
10
4.4175
20
4.1379
42
-0.2913
0
VERTEX
8
0
10
4.3207
20
4.1444
42
-0.2936
0
VERTEX
8
0
10
4.2861
20
4.2347
0
VERTEX
8
0
10
4.5430
20
5.4636
0
VERTEX
8
0
10
4.3729
20
5.4923
0
VERTEX
8
0
10
4.1875
20
4.0476
42
-0.2564
0
VERTEX
8
0
10
4.1365
20
3.9784
42
-0.2545
0
VERTEX
8
0
10
4.0503
20
3.9836
42
0.0089
0
VERTEX
8
0
10
3.8367
20
4.1134
42
0.0631
0
VERTEX
8
0
10
3.6045
20
4.2036
42
0.0605
0
VERTEX
8
0
10
3.2478
20
4.2453
42
-0.2891
0
VERTEX
8
0
10
3.1687
20
4.3004
42
-0.2917
0
VERTEX
8
0
10
3.1851
20
4.3954
42
0.0128
0
VERTEX
8
0
10
3.3796
20
4.6208
42
0.0302
0
VERTEX
8
0
10
3.5517
20
4.8635
42
0.0521
0
VERTEX
8
0
10
3.7042
20
5.1879
42
0.0256
0
VERTEX
8
0
10
3.8098
20
5.5310
0
VERTEX
8
0
10
3.6584
20
5.5686
0
VERTEX
8
0
10
3.0777
20
4.2206
42
-0.2004
0
VERTEX
8
0
10
3.0279
20
4.1725
42
-0.1996
0
VERTEX
8
0
10
2.9581
20
4.1743
42
0.0636
0
VERTEX
8
0
10
2.6161
20
4.2805
42
0.0751
0
VERTEX
8
0
10
2.2994
20
4.2851
42
-0.4023
0
VERTEX
8
0
10
2.1961
20
4.3544
42
-0.4014
0
VERTEX
8
0
10
2.2600
20
4.4605
42
0.0840
0
VERTEX
8
0
10
2.3844
20
4.5223
42
0.0538
0
VERTEX
8
0
10
2.4894
20
4.6136
42
0.0622
0
VERTEX
8
0
10
2.6798
20
4.8693
42
0.0192
0
VERTEX
8
0
10
2.8378
20
5.1468
42
-0.0028
0
VERTEX
8
0
10
2.9697
20
5.3887
42
-0.0209
0
VERTEX
8
0
10
3.1153
20
5.6225
42
-0.0028
0
VERTEX
8
0
10
3.0607
20
5.6501
42
-0.0085
0
VERTEX
8
0
10
2.3322
20
5.1597
42
0.0095
0
VERTEX
8
0
10
1.9507
20
4.8914
42
0.0185
0
VERTEX
8
0
10
1.5867
20
4.6001
42
0.0466
0
VERTEX
8
0
10
1.1156
20
4.1033
42
-0.2981
0
VERTEX
8
0
10
1.0224
20
4.0705
42
-0.3000
0
VERTEX
8
0
10
0.9555
20
4.1432
0
VERTEX
8
0
10
0.9066
20
4.4420
42
0.0180
0
VERTEX
8
0
10
0.8745
20
4.5899
42
0.0737
0
VERTEX
8
0
10
0.8136
20
4.7274
42
0.1145
0
VERTEX
8
0
10
0.7265
20
4.7990
42
0.0743
0
VERTEX
8
0
10
0.6190
20
4.8350
42
0.0574
0
VERTEX
8
0
10
0.3930
20
4.8559
42
-0.3364
0
VERTEX
8
0
10
0.3073
20
4.9239
42
-0.3397
0
VERTEX
8
0
10
0.3507
20
5.0242
0
VERTEX
8
0
10
0.5497
20
5.1325
42
0.0419
0
VERTEX
8
0
10
0.7367
20
5.2595
42
0.1099
0
VERTEX
8
0
10
0.8515
20
5.4241
42
0.0935
0
VERTEX
8
0
10
0.8857
20
5.6231
42
0.1469
0
VERTEX
8
0
10
0.8129
20
5.8392
42
0.1115
0
VERTEX
8
0
10
0.6417
20
5.9927
42
-0.2514
0
VERTEX
8
0
10
0.5994
20
6.0660
42
-0.2489
0
VERTEX
8
0
10
0.6370
20
6.1423
0
SEQEND
8
0
0
LINE
8
Layer 1
10
0.4604
20
6.3904
11
0.4598
21
6.3904
0
POLYLINE
8
Layer 1
66
1
0
VERTEX
8
0
10
0.4510
20
6.3839
42
0.2433
0
VERTEX
8
0
10
0.2950
20
6.0566
42
0.2383
0
VERTEX
8
0
10
0.4676
20
5.7424
42
-0.0299
0
VERTEX
8
0
10
0.5449
20
5.6905
42
-0.0603
0
VERTEX
8
0
10
0.5715
20
5.6628
42
-0.1651
0
VERTEX
8
0
10
0.5807
20
5.6261
42
-0.0105
0
VERTEX
8
0
10
0.5765
20
5.5466
42
-0.1366
0
VERTEX
8
0
10
0.5614
20
5.5107
42
-0.0352
0
VERTEX
8
0
10
0.5314
20
5.4841
42
-0.0723
0
VERTEX
8
0
10
0.4528
20
5.4308
42
-0.0085
0
VERTEX
8
0
10
0.3705
20
5.3833
42
-0.0038
0
VERTEX
8
0
10
0.2041
20
5.2911
0
VERTEX
8
0
10
0.2012
20
5.2894
42
0.3362
0
VERTEX
8
0
10
0.0117
20
4.8500
42
0.3350
0
VERTEX
8
0
10
0.3848
20
4.5515
42
-0.0436
0
VERTEX
8
0
10
0.5637
20
4.5339
42
0.0447
0
VERTEX
8
0
10
0.5875
20
4.4239
42
-0.0034
0
VERTEX
8
0
10
0.6125
20
4.3142
42
-0.0116
0
VERTEX
8
0
10
0.6552
20
4.0933
42
0.2974
0
VERTEX
8
0
10
0.9490
20
3.7748
42
0.2984
0
VERTEX
8
0
10
1.3573
20
3.9179
0
VERTEX
8
0
10
1.3585
20
3.9191
42
-0.0554
0
VERTEX
8
0
10
1.7873
20
4.3708
42
-0.0121
0
VERTEX
8
0
10
1.9016
20
4.4664
42
0.1099
0
VERTEX
8
0
10
1.8987
20
4.2875
42
0.3950
0
VERTEX
8
0
10
2.3521
20
3.9854
42
-0.0870
0
VERTEX
8
0
10
2.5662
20
3.9801
42
-0.0696
0
VERTEX
8
0
10
2.8323
20
3.8968
42
0.2024
0
VERTEX
8
0
10
3.1376
20
3.8886
42
0.0750
0
VERTEX
8
0
10
3.2292
20
3.9411
42
-0.0375
0
VERTEX
8
0
10
3.5329
20
3.9074
42
-0.0758
0
VERTEX
8
0
10
3.7173
20
3.8321
42
-0.0173
0
VERTEX
8
0
10
3.8973
20
3.7200
42
0.2472
0
VERTEX
8
0
10
4.2650
20
3.7021
42
0.1284
0
VERTEX
8
0
10
4.4169
20
3.8282
42
0.0891
0
VERTEX
8
0
10
4.5644
20
3.8713
42
-0.0164
0
VERTEX
8
0
10
4.6310
20
3.9050
42
-0.0405
0
VERTEX
8
0
10
4.7290
20
3.8423
0
VERTEX
8
0
10
4.7295
20
3.8417
42
0.2823
0
VERTEX
8
0
10
5.1401
20
3.8036
42
0.0984
0
VERTEX
8
0
10
5.2487
20
3.8869
42
-0.0506
0
VERTEX
8
0
10
5.4833
20
3.9009
42
-0.0788
0
VERTEX
8
0
10
5.7162
20
3.8464
42
0.2721
0
VERTEX
8
0
10
6.1080
20
3.9156
42
0.2692
0
VERTEX
8
0
10
6.2400
20
4.2916
0
VERTEX
8
0
10
6.2065
20
4.4676
42
0.0701
0
VERTEX
8
0
10
6.4470
20
4.2130
42
0.0984
0
VERTEX
8
0
10
6.7966
20
4.0461
42
0.0579
0
VERTEX
8
0
10
7.1808
20
3.9860
0
VERTEX
8
0
10
8.7558
20
3.8792
42
0.0088
0
VERTEX
8
0
10
8.7669
20
3.8787
42
0.0060
0
VERTEX
8
0
10
8.7722
20
3.8787
42
0.0173
0
VERTEX
8
0
10
8.7828
20
3.8787
42
0.0797
0
VERTEX
8
0
10
9.6350
20
3.9870
42
0.0229
0
VERTEX
8
0
10
10.0457
20
4.1178
42
0.0089
0
VERTEX
8
0
10
10.4487
20
4.2711
0
VERTEX
8
0
10
10.4528
20
4.2728
42
0.0185
0
VERTEX
8
0
10
10.4733
20
4.2822
0
VERTEX
8
0
10
10.4780
20
4.2840
42
0.0365
0
VERTEX
8
0
10
10.8460
20
4.4685
42
0.0265
0
VERTEX
8
0
10
11.1895
20
4.6959
42
0.0134
0
VERTEX
8
0
10
11.5159
20
4.9472
42
-0.0047
0
VERTEX
8
0
10
11.8406
20
5.2008
0
VERTEX
8
0
10
11.8424
20
5.2020
42
0.3208
0
VERTEX
8
0
10
11.9802
20
5.6413
42
0.3203
0
VERTEX
8
0
10
11.6083
20
5.9117
0
VERTEX
8
0
10
11.6060
20
5.9117
0
VERTEX
8
0
10
11.4112
20
5.9117
42
0.0667
0
VERTEX
8
0
10
11.3045
20
6.1757
42
0.0542
0
VERTEX
8
0
10
11.1368
20
6.4024
42
0.0222
0
VERTEX
8
0
10
10.9390
20
6.6039
42
0.0496
0
VERTEX
8
0
10
10.8839
20
6.6491
42
0.0325
0
VERTEX
8
0
10
10.8258
20
6.8925
42
0.1958
0
VERTEX
8
0
10
10.5361
20
7.2075
42
0.0358
0
VERTEX
8
0
10
10.2944
20
7.3019
42
0.0619
0
VERTEX
8
0
10
10.2088
20
7.3260
42
0.0053
0
VERTEX
8
0
10
10.2035
20
7.3265
0
VERTEX
8
0
10
9.7131
20
7.3969
42
-0.0058
0
VERTEX
8
0
10
8.9955
20
7.7469
42
0.0198
0
VERTEX
8
0
10
8.2625
20
8.0627
0
VERTEX
8
0
10
8.2584
20
8.0645
42
0.0155
0
VERTEX
8
0
10
8.2420
20
8.0721
42
0.0441
0
VERTEX
8
0
10
8.2367
20
8.0738
42
0.0302
0
VERTEX
8
0
10
8.2279
20
8.0768
42
0.1359
0
VERTEX
8
0
10
7.3650
20
8.1812
42
0.0559
0
VERTEX
8
0
10
7.2787
20
8.1585
42
0.0734
0
VERTEX
8
0
10
6.6981
20
7.8228
42
0.2226
0
VERTEX
8
0
10
6.6523
20
8.1607
42
0.2523
0
VERTEX
8
0
10
6.3186
20
8.3349
42
0.0946
0
VERTEX
8
0
10
6.1713
20
8.3044
0
VERTEX
8
0
10
6.1684
20
8.3026
42
-0.0353
0
VERTEX
8
0
10
5.9520
20
8.2264
42
-0.0902
0
VERTEX
8
0
10
5.7326
20
8.2158
42
0.1107
0
VERTEX
8
0
10
5.5713
20
8.1964
42
0.2974
0
VERTEX
8
0
10
5.1419
20
8.1419
42
-0.0459
0
VERTEX
8
0
10
4.7841
20
7.8867
42
-0.0335
0
VERTEX
8
0
10
4.5999
20
7.8023
42
0.1160
0
VERTEX
8
0
10
4.4568
20
7.9360
42
0.3075
0
VERTEX
8
0
10
4.0139
20
7.8815
0
VERTEX
8
0
10
4.0127
20
7.8803
42
-0.1352
0
VERTEX
8
0
10
3.9212
20
7.8351
42
-0.0308
0
VERTEX
8
0
10
3.8121
20
7.8151
42
0.0074
0
VERTEX
8
0
10
3.7030
20
7.7946
42
0.1755
0
VERTEX
8
0
10
3.4766
20
7.6550
42
-0.0028
0
VERTEX
8
0
10
3.3892
20
7.7020
42
-0.0527
0
VERTEX
8
0
10
3.0795
20
7.9413
42
0.3047
0
VERTEX
8
0
10
2.6431
20
7.9994
42
0.3041
0
VERTEX
8
0
10
2.4243
20
7.6163
0
VERTEX
8
0
10
2.4712
20
6.9371
42
-0.0476
0
VERTEX
8
0
10
2.2642
20
7.1259
42
-0.0315
0
VERTEX
8
0
10
2.1627
20
7.2660
42
-0.0676
0
VERTEX
8
0
10
2.0935
20
7.4239
42
-0.1004
0
VERTEX
8
0
10
2.1316
20
7.6703
42
0.3103
0
VERTEX
8
0
10
1.9949
20
8.0961
42
0.3100
0
VERTEX
8
0
10
1.5479
20
8.1202
0
VERTEX
8
0
10
1.0951
20
7.8445
42
0.2154
0
VERTEX
8
0
10
0.9115
20
7.5741
42
0.1860
0
VERTEX
8
0
10
0.9666
20
7.3013
42
-0.0111
0
VERTEX
8
0
10
0.8047
20
7.2626
42
0.2395
0
VERTEX
8
0
10
0.5261
20
7.0368
42
0.2392
0
VERTEX
8
0
10
0.5449
20
6.6790
42
-0.0315
0
VERTEX
8
0
10
0.6258
20
6.5159
42
-0.0223
0
VERTEX
8
0
10
0.4510
20
6.3839
0
SEQEND
8
0
0
ENDSEC
0
EOF
