999
"DXF R12 Output" (www.mydxf.blogspot.com)
 0 
SECTION
 2 
HEADER
 9 
$ACADVER
 1 
AC1009
 9 
$EXTMIN
 10 
 0 
 20 
 0 
 9 
$EXTMAX
 10 
 8.5 
 20 
 11 
 0 
ENDSEC
 0 
SECTION
 2 
ENTITIES
0
LINE
8
Layer 1
10
89.225842
20
5.177056
11
88.566261
21
5.858110
0
LINE
8
Layer 1
10
88.566261
20
5.858110
11
87.872794
21
6.931837
0
LINE
8
Layer 1
10
87.872794
20
6.931837
11
87.240892
21
8.227592
0
LINE
8
Layer 1
10
87.240892
20
8.227592
11
86.766005
21
9.574728
0
LINE
8
Layer 1
10
86.766005
20
9.574728
11
86.454006
21
11.733831
0
LINE
8
Layer 1
10
86.454006
20
11.733831
11
86.329878
21
15.163715
0
LINE
8
Layer 1
10
86.329878
20
15.163715
11
86.395172
21
18.170458
0
LINE
8
Layer 1
10
86.395172
20
18.170458
11
86.675498
21
20.448967
0
LINE
8
Layer 1
10
86.675498
20
20.448967
11
87.235103
21
22.316364
0
LINE
8
Layer 1
10
87.235103
20
22.316364
11
88.138234
21
24.089769
0
LINE
8
Layer 1
10
88.138234
20
24.089769
11
88.989481
21
25.264880
0
LINE
8
Layer 1
10
88.989481
20
25.264880
11
89.879521
21
25.961536
0
LINE
8
Layer 1
10
89.879521
20
25.961536
11
90.870449
21
26.210968
0
LINE
8
Layer 1
10
90.870449
20
26.210968
11
92.024355
21
26.044406
0
LINE
8
Layer 1
10
92.024355
20
26.044406
11
92.628611
21
25.746727
0
LINE
8
Layer 1
10
92.628611
20
25.746727
11
93.188354
21
25.180773
0
LINE
8
Layer 1
10
93.188354
20
25.180773
11
94.388632
21
22.964871
0
LINE
8
Layer 1
10
94.388632
20
22.964871
11
94.884248
21
21.600528
0
LINE
8
Layer 1
10
94.884248
20
21.600528
11
94.875938
21
21.219773
0
LINE
8
Layer 1
10
94.875938
20
21.219773
11
94.718073
21
20.907635
0
LINE
8
Layer 1
10
94.718073
20
20.907635
11
94.487501
21
20.606182
0
LINE
8
Layer 1
10
94.487501
20
20.606182
11
94.258696
21
20.680951
0
LINE
8
Layer 1
10
94.258696
20
20.680951
11
92.982759
21
22.909121
0
LINE
8
Layer 1
10
92.982759
20
22.909121
11
92.296529
21
23.823797
0
LINE
8
Layer 1
10
92.296529
20
23.823797
11
91.490952
21
24.391597
0
LINE
8
Layer 1
10
91.490952
20
24.391597
11
90.613244
21
24.749740
0
LINE
8
Layer 1
10
90.613244
20
24.749740
11
90.613244
21
15.557079
0
LINE
8
Layer 1
10
90.613244
20
15.557079
11
90.613244
21
6.364419
0
LINE
8
Layer 1
10
90.613244
20
6.364419
11
91.248244
21
6.454603
0
LINE
8
Layer 1
10
91.248244
20
6.454603
11
91.588050
21
6.592336
0
LINE
8
Layer 1
10
91.588050
20
6.592336
11
91.945619
21
6.923466
0
LINE
8
Layer 1
10
91.945619
20
6.923466
11
92.783835
21
8.247394
0
LINE
8
Layer 1
10
92.783835
20
8.247394
11
93.816969
21
10.646283
0
LINE
8
Layer 1
10
93.816969
20
10.646283
11
94.199880
21
11.922430
0
LINE
8
Layer 1
10
94.199880
20
11.922430
11
94.425743
21
12.208176
0
LINE
8
Layer 1
10
94.425743
20
12.208176
11
94.669683
21
12.249898
0
LINE
8
Layer 1
10
94.669683
20
12.249898
11
94.962194
21
11.835870
0
LINE
8
Layer 1
10
94.962194
20
11.835870
11
95.064776
21
11.003670
0
LINE
8
Layer 1
10
95.064776
20
11.003670
11
94.975716
21
9.987444
0
LINE
8
Layer 1
10
94.975716
20
9.987444
11
94.693303
21
9.021338
0
LINE
8
Layer 1
10
94.693303
20
9.021338
11
93.688342
21
6.901281
0
LINE
8
Layer 1
10
93.688342
20
6.901281
11
92.808896
21
5.731358
0
LINE
8
Layer 1
10
92.808896
20
5.731358
11
92.014206
21
5.138005
0
LINE
8
Layer 1
10
92.014206
20
5.138005
11
91.053118
21
4.832519
0
LINE
8
Layer 1
10
91.053118
20
4.832519
11
90.074155
21
4.837877
0
LINE
8
Layer 1
10
90.074155
20
4.837877
11
89.225842
21
5.177056
0
LINE
8
Layer 1
10
89.225842
20
5.177056
11
89.225842
21
5.177056
0
LINE
8
Layer 1
10
72.250568
20
5.274787
11
72.249693
21
15.152565
0
LINE
8
Layer 1
10
72.249693
20
15.152565
11
72.269217
21
25.242009
0
LINE
8
Layer 1
10
72.269217
20
25.242009
11
72.456706
21
25.408605
0
LINE
8
Layer 1
10
72.456706
20
25.408605
11
73.076548
21
25.517487
0
LINE
8
Layer 1
10
73.076548
20
25.517487
11
75.954726
21
25.594787
0
LINE
8
Layer 1
10
75.954726
20
25.594787
11
79.640650
21
25.594787
0
LINE
8
Layer 1
10
79.640650
20
25.594787
11
79.553060
21
24.559297
0
LINE
8
Layer 1
10
79.553060
20
24.559297
11
79.465466
21
23.523809
0
LINE
8
Layer 1
10
79.465466
20
23.523809
11
78.054355
21
23.500963
0
LINE
8
Layer 1
10
78.054355
20
23.500963
11
76.643244
21
23.478120
0
LINE
8
Layer 1
10
76.643244
20
23.478120
11
76.643244
21
21.784787
0
LINE
8
Layer 1
10
76.643244
20
21.784787
11
76.643244
21
20.091454
0
LINE
8
Layer 1
10
76.643244
20
20.091454
11
78.111172
21
20.169127
0
LINE
8
Layer 1
10
78.111172
20
20.169127
11
79.363602
21
20.126399
0
LINE
8
Layer 1
10
79.363602
20
20.126399
11
79.672737
21
19.963829
0
LINE
8
Layer 1
10
79.672737
20
19.963829
11
79.884990
21
19.675238
0
LINE
8
Layer 1
10
79.884990
20
19.675238
11
80.046485
21
19.043826
0
LINE
8
Layer 1
10
80.046485
20
19.043826
11
79.909908
21
18.502444
0
LINE
8
Layer 1
10
79.909908
20
18.502444
11
79.555281
21
18.190160
0
LINE
8
Layer 1
10
79.555281
20
18.190160
11
79.062622
21
18.246042
0
LINE
8
Layer 1
10
79.062622
20
18.246042
11
78.395534
21
18.431420
0
LINE
8
Layer 1
10
78.395534
20
18.431420
11
77.522251
21
18.486126
0
LINE
8
Layer 1
10
77.522251
20
18.486126
11
76.502133
21
18.447774
0
LINE
8
Layer 1
10
76.502133
20
18.447774
11
76.502133
21
12.707947
0
LINE
8
Layer 1
10
76.502133
20
12.707947
11
76.502133
21
6.968120
0
LINE
8
Layer 1
10
76.502133
20
6.968120
11
78.019800
21
6.968120
0
LINE
8
Layer 1
10
78.019800
20
6.968120
11
79.053835
21
6.888667
0
LINE
8
Layer 1
10
79.053835
20
6.888667
11
79.741128
21
6.645662
0
LINE
8
Layer 1
10
79.741128
20
6.645662
11
80.092703
21
6.232137
0
LINE
8
Layer 1
10
80.092703
20
6.232137
11
80.119587
21
5.641123
0
LINE
8
Layer 1
10
80.119587
20
5.641123
11
79.954328
21
5.368173
0
LINE
8
Layer 1
10
79.954328
20
5.368173
11
79.414324
21
5.215256
0
LINE
8
Layer 1
10
79.414324
20
5.215256
11
76.146462
21
5.133676
0
LINE
8
Layer 1
10
76.146462
20
5.133676
11
72.250568
21
5.274787
0
LINE
8
Layer 1
10
72.250568
20
5.274787
11
72.250568
21
5.274787
0
LINE
8
Layer 1
10
64.511132
20
6.474231
11
65.253568
21
9.253553
0
LINE
8
Layer 1
10
65.253568
20
9.253553
11
65.665233
21
11.090724
0
LINE
8
Layer 1
10
65.665233
20
11.090724
11
65.559706
21
11.791502
0
LINE
8
Layer 1
10
65.559706
20
11.791502
11
65.245629
21
12.781331
0
LINE
8
Layer 1
10
65.245629
20
12.781331
11
64.072832
21
16.563676
0
LINE
8
Layer 1
10
64.072832
20
16.563676
11
63.232239
21
18.962565
0
LINE
8
Layer 1
10
63.232239
20
18.962565
11
62.980923
21
19.527009
0
LINE
8
Layer 1
10
62.980923
20
19.527009
11
61.099265
21
25.828797
0
LINE
8
Layer 1
10
61.099265
20
25.828797
11
61.259365
21
26.008655
0
LINE
8
Layer 1
10
61.259365
20
26.008655
11
61.797854
21
26.118144
0
LINE
8
Layer 1
10
61.797854
20
26.118144
11
63.535237
21
26.147262
0
LINE
8
Layer 1
10
63.535237
20
26.147262
11
65.361899
21
25.958646
0
LINE
8
Layer 1
10
65.361899
20
25.958646
11
66.011986
21
25.795966
0
LINE
8
Layer 1
10
66.011986
20
25.795966
11
66.328324
21
25.594787
0
LINE
8
Layer 1
10
66.328324
20
25.594787
11
67.358839
21
22.279740
0
LINE
8
Layer 1
10
67.358839
20
22.279740
11
68.325275
21
19.386962
0
LINE
8
Layer 1
10
68.325275
20
19.386962
11
69.285894
21
22.350690
0
LINE
8
Layer 1
10
69.285894
20
22.350690
11
69.866955
21
24.286000
0
LINE
8
Layer 1
10
69.866955
20
24.286000
11
70.337360
21
25.391919
0
LINE
8
Layer 1
10
70.337360
20
25.391919
11
70.736651
21
25.734294
0
LINE
8
Layer 1
10
70.736651
20
25.734294
11
71.104368
21
25.378974
0
LINE
8
Layer 1
10
71.104368
20
25.378974
11
71.196346
21
24.991779
0
LINE
8
Layer 1
10
71.196346
20
24.991779
11
71.139824
21
24.382187
0
LINE
8
Layer 1
10
71.139824
20
24.382187
11
70.525030
21
22.185754
0
LINE
8
Layer 1
10
70.525030
20
22.185754
11
68.738276
21
16.704787
0
LINE
8
Layer 1
10
68.738276
20
16.704787
11
65.332424
21
5.909787
0
LINE
8
Layer 1
10
65.332424
20
5.909787
11
65.127221
21
5.660638
0
LINE
8
Layer 1
10
65.127221
20
5.660638
11
64.776344
21
5.557009
0
LINE
8
Layer 1
10
64.776344
20
5.557009
11
64.560207
21
5.597163
0
LINE
8
Layer 1
10
64.560207
20
5.597163
11
64.450579
21
5.740521
0
LINE
8
Layer 1
10
64.450579
20
5.740521
11
64.511132
21
6.474231
0
LINE
8
Layer 1
10
64.511132
20
6.474231
11
64.511132
21
6.474231
0
LINE
8
Layer 1
10
60.366918
20
5.981852
11
58.269068
21
6.250742
0
LINE
8
Layer 1
10
58.269068
20
6.250742
11
56.182133
21
6.428627
0
LINE
8
Layer 1
10
56.182133
20
6.428627
11
55.506590
21
6.583725
0
LINE
8
Layer 1
10
55.506590
20
6.583725
11
54.136022
21
6.653344
0
LINE
8
Layer 1
10
54.136022
20
6.653344
11
52.795466
21
6.685898
0
LINE
8
Layer 1
10
52.795466
20
6.685898
11
52.795466
21
16.887673
0
LINE
8
Layer 1
10
52.795466
20
16.887673
11
52.795466
21
27.089447
0
LINE
8
Layer 1
10
52.795466
20
27.089447
11
55.406022
21
26.881232
0
LINE
8
Layer 1
10
55.406022
20
26.881232
11
58.722133
21
26.580163
0
LINE
8
Layer 1
10
58.722133
20
26.580163
11
59.770538
21
26.464381
0
LINE
8
Layer 1
10
59.770538
20
26.464381
11
60.104246
21
26.277084
0
LINE
8
Layer 1
10
60.104246
20
26.277084
11
60.425121
21
25.858970
0
LINE
8
Layer 1
10
60.425121
20
25.858970
11
60.559900
21
25.310154
0
LINE
8
Layer 1
10
60.559900
20
25.310154
11
60.399220
21
24.856058
0
LINE
8
Layer 1
10
60.399220
20
24.856058
11
60.007367
21
24.581465
0
LINE
8
Layer 1
10
60.007367
20
24.581465
11
59.448629
21
24.571158
0
LINE
8
Layer 1
10
59.448629
20
24.571158
11
58.073462
21
24.905549
0
LINE
8
Layer 1
10
58.073462
20
24.905549
11
57.283680
21
25.098395
0
LINE
8
Layer 1
10
57.283680
20
25.098395
11
57.367907
21
23.159370
0
LINE
8
Layer 1
10
57.367907
20
23.159370
11
57.452133
21
21.220343
0
LINE
8
Layer 1
10
57.452133
20
21.220343
11
58.748704
21
21.193627
0
LINE
8
Layer 1
10
58.748704
20
21.193627
11
59.750929
21
21.126485
0
LINE
8
Layer 1
10
59.750929
20
21.126485
11
60.343370
21
20.931869
0
LINE
8
Layer 1
10
60.343370
20
20.931869
11
60.625725
21
20.543319
0
LINE
8
Layer 1
10
60.625725
20
20.543319
11
60.697689
21
19.894375
0
LINE
8
Layer 1
10
60.697689
20
19.894375
11
60.697689
21
19.025054
0
LINE
8
Layer 1
10
60.697689
20
19.025054
11
59.348452
21
19.184851
0
LINE
8
Layer 1
10
59.348452
20
19.184851
11
57.584563
21
19.435829
0
LINE
8
Layer 1
10
57.584563
20
19.435829
11
57.368294
21
19.268163
0
LINE
8
Layer 1
10
57.368294
20
19.268163
11
57.231257
21
18.451272
0
LINE
8
Layer 1
10
57.231257
20
18.451272
11
57.093668
21
13.683923
0
LINE
8
Layer 1
10
57.093668
20
13.683923
11
57.017426
21
7.840836
0
LINE
8
Layer 1
10
57.017426
20
7.840836
11
58.928113
21
7.757256
0
LINE
8
Layer 1
10
58.928113
20
7.757256
11
60.560157
21
7.584084
0
LINE
8
Layer 1
10
60.560157
20
7.584084
11
60.831449
21
7.372907
0
LINE
8
Layer 1
10
60.831449
20
7.372907
11
60.933248
21
7.006124
0
LINE
8
Layer 1
10
60.933248
20
7.006124
11
60.795626
21
6.136180
0
LINE
8
Layer 1
10
60.795626
20
6.136180
11
60.592906
21
5.924797
0
LINE
8
Layer 1
10
60.592906
20
5.924797
11
60.366918
21
5.981852
0
LINE
8
Layer 1
10
60.366918
20
5.981852
11
60.366918
21
5.981852
0
LINE
8
Layer 1
10
96.227923
20
6.077133
11
96.252835
21
16.293854
0
LINE
8
Layer 1
10
96.252835
20
16.293854
11
96.426641
21
26.140037
0
LINE
8
Layer 1
10
96.426641
20
26.140037
11
98.553019
21
26.282591
0
LINE
8
Layer 1
10
98.553019
20
26.282591
11
100.554592
21
26.300343
0
LINE
8
Layer 1
10
100.554592
20
26.300343
11
100.540447
21
24.677565
0
LINE
8
Layer 1
10
100.540447
20
24.677565
11
100.508661
21
14.451485
0
LINE
8
Layer 1
10
100.508661
20
14.451485
11
100.491022
21
5.848186
0
LINE
8
Layer 1
10
100.491022
20
5.848186
11
98.374355
21
5.869946
0
LINE
8
Layer 1
10
98.374355
20
5.869946
11
96.227923
21
6.077133
0
LINE
8
Layer 1
10
96.227923
20
6.077133
11
96.227923
21
6.077133
0
LINE
8
Layer 1
10
102.338310
20
6.665115
11
102.223378
21
9.748659
0
LINE
8
Layer 1
10
102.223378
20
9.748659
11
102.216627
21
16.726106
0
LINE
8
Layer 1
10
102.216627
20
16.726106
11
102.267963
21
23.135155
0
LINE
8
Layer 1
10
102.267963
20
23.135155
11
102.372924
21
24.989673
0
LINE
8
Layer 1
10
102.372924
20
24.989673
11
102.607980
21
26.155662
0
LINE
8
Layer 1
10
102.607980
20
26.155662
11
103.031058
21
26.791728
0
LINE
8
Layer 1
10
103.031058
20
26.791728
11
103.700083
21
27.056479
0
LINE
8
Layer 1
10
103.700083
20
27.056479
11
106.007673
21
27.106462
0
LINE
8
Layer 1
10
106.007673
20
27.106462
11
108.327432
21
27.035738
0
LINE
8
Layer 1
10
108.327432
20
27.035738
11
108.880782
21
26.840083
0
LINE
8
Layer 1
10
108.880782
20
26.840083
11
109.339264
21
26.479305
0
LINE
8
Layer 1
10
109.339264
20
26.479305
11
110.112289
21
25.338215
0
LINE
8
Layer 1
10
110.112289
20
25.338215
11
110.723601
21
23.627334
0
LINE
8
Layer 1
10
110.723601
20
23.627334
11
111.114084
21
21.569087
0
LINE
8
Layer 1
10
111.114084
20
21.569087
11
111.224619
21
19.385898
0
LINE
8
Layer 1
10
111.224619
20
19.385898
11
111.109644
21
16.598467
0
LINE
8
Layer 1
10
111.109644
20
16.598467
11
110.933984
21
15.505343
0
LINE
8
Layer 1
10
110.933984
20
15.505343
11
110.827064
21
15.223120
0
LINE
8
Layer 1
10
110.827064
20
15.223120
11
110.522237
21
14.109105
0
LINE
8
Layer 1
10
110.522237
20
14.109105
11
110.014251
21
12.857375
0
LINE
8
Layer 1
10
110.014251
20
12.857375
11
109.432197
21
11.747602
0
LINE
8
Layer 1
10
109.432197
20
11.747602
11
108.905170
21
11.059459
0
LINE
8
Layer 1
10
108.905170
20
11.059459
11
108.145809
21
10.420497
0
LINE
8
Layer 1
10
108.145809
20
10.420497
11
108.763415
21
9.875303
0
LINE
8
Layer 1
10
108.763415
20
9.875303
11
110.161905
21
8.845034
0
LINE
8
Layer 1
10
110.161905
20
8.845034
11
110.742052
21
8.346974
0
LINE
8
Layer 1
10
110.742052
20
8.346974
11
110.645866
21
7.805152
0
LINE
8
Layer 1
10
110.645866
20
7.805152
11
110.163905
21
7.308537
0
LINE
8
Layer 1
10
110.163905
20
7.308537
11
109.516729
21
7.290490
0
LINE
8
Layer 1
10
109.516729
20
7.290490
11
108.718568
21
7.746697
0
LINE
8
Layer 1
10
108.718568
20
7.746697
11
107.783653
21
8.672844
0
LINE
8
Layer 1
10
107.783653
20
8.672844
11
106.558800
21
10.095343
0
LINE
8
Layer 1
10
106.558800
20
10.095343
11
106.653059
21
8.573375
0
LINE
8
Layer 1
10
106.653059
20
8.573375
11
106.747321
21
7.051407
0
LINE
8
Layer 1
10
106.747321
20
7.051407
11
105.241948
21
6.867762
0
LINE
8
Layer 1
10
105.241948
20
6.867762
11
103.133429
21
6.519308
0
LINE
8
Layer 1
10
103.133429
20
6.519308
11
102.651063
21
6.494157
0
LINE
8
Layer 1
10
102.651063
20
6.494157
11
102.338310
21
6.665115
0
LINE
8
Layer 1
10
102.338310
20
6.665115
11
102.338310
21
6.665115
0
LINE
8
Layer 1
10
108.158373
20
12.498121
11
108.576689
21
12.825060
0
LINE
8
Layer 1
10
108.576689
20
12.825060
11
108.990170
21
13.464660
0
LINE
8
Layer 1
10
108.990170
20
13.464660
11
109.726063
21
15.410735
0
LINE
8
Layer 1
10
109.726063
20
15.410735
11
110.212918
21
17.794135
0
LINE
8
Layer 1
10
110.212918
20
17.794135
11
110.297601
21
20.072649
0
LINE
8
Layer 1
10
110.297601
20
20.072649
11
109.935893
21
22.355540
0
LINE
8
Layer 1
10
109.935893
20
22.355540
11
109.295506
21
24.095991
0
LINE
8
Layer 1
10
109.295506
20
24.095991
11
108.423512
21
25.205305
0
LINE
8
Layer 1
10
108.423512
20
25.205305
11
107.915372
21
25.495569
0
LINE
8
Layer 1
10
107.915372
20
25.495569
11
107.366983
21
25.594787
0
LINE
8
Layer 1
10
107.366983
20
25.594787
11
106.699911
21
25.594787
0
LINE
8
Layer 1
10
106.699911
20
25.594787
11
106.699911
21
19.267870
0
LINE
8
Layer 1
10
106.699911
20
19.267870
11
106.818272
21
13.222025
0
LINE
8
Layer 1
10
106.818272
20
13.222025
11
107.021440
21
12.269316
0
LINE
8
Layer 1
10
107.021440
20
12.269316
11
107.175127
21
12.140012
0
LINE
8
Layer 1
10
107.175127
20
12.140012
11
107.369683
21
12.177121
0
LINE
8
Layer 1
10
107.369683
20
12.177121
11
108.158373
21
12.498121
0
LINE
8
Layer 1
10
108.158373
20
12.498121
11
108.158373
21
12.498121
0
LINE
8
Layer 1
10
50.473429
20
7.126453
11
48.675905
21
7.536931
0
LINE
8
Layer 1
10
48.675905
20
7.536931
11
45.457689
21
7.975394
0
LINE
8
Layer 1
10
45.457689
20
7.975394
11
43.905466
21
8.205103
0
LINE
8
Layer 1
10
43.905466
20
8.205103
11
43.731075
21
10.860200
0
LINE
8
Layer 1
10
43.731075
20
10.860200
11
43.764355
21
18.432554
0
LINE
8
Layer 1
10
43.764355
20
18.432554
11
43.905466
21
28.558120
0
LINE
8
Layer 1
10
43.905466
20
28.558120
11
44.752133
21
28.504162
0
LINE
8
Layer 1
10
44.752133
20
28.504162
11
46.798244
21
28.255335
0
LINE
8
Layer 1
10
46.798244
20
28.255335
11
47.997689
21
28.060467
0
LINE
8
Layer 1
10
47.997689
20
28.060467
11
47.997689
21
18.682665
0
LINE
8
Layer 1
10
47.997689
20
18.682665
11
47.997689
21
9.304867
0
LINE
8
Layer 1
10
47.997689
20
9.304867
11
49.542655
21
9.145411
0
LINE
8
Layer 1
10
49.542655
20
9.145411
11
50.689652
21
8.995082
0
LINE
8
Layer 1
10
50.689652
20
8.995082
11
51.329180
21
8.781824
0
LINE
8
Layer 1
10
51.329180
20
8.781824
11
51.606426
21
8.413539
0
LINE
8
Layer 1
10
51.606426
20
8.413539
11
51.666577
21
7.798130
0
LINE
8
Layer 1
10
51.666577
20
7.798130
11
51.552039
21
7.151859
0
LINE
8
Layer 1
10
51.552039
20
7.151859
11
51.149171
21
6.968120
0
LINE
8
Layer 1
10
51.149171
20
6.968120
11
50.473429
21
7.126453
0
LINE
8
Layer 1
10
50.473429
20
7.126453
11
50.473429
21
7.126453
0
LINE
8
Layer 1
10
115.049193
20
8.960702
11
114.454466
21
9.601054
0
LINE
8
Layer 1
10
114.454466
20
9.601054
11
113.937718
21
10.408532
0
LINE
8
Layer 1
10
113.937718
20
10.408532
11
113.139710
21
12.518957
0
LINE
8
Layer 1
10
113.139710
20
12.518957
11
112.658272
21
15.280164
0
LINE
8
Layer 1
10
112.658272
20
15.280164
11
112.496507
21
18.680343
0
LINE
8
Layer 1
10
112.496507
20
18.680343
11
112.651638
21
21.485997
0
LINE
8
Layer 1
10
112.651638
20
21.485997
11
112.906875
21
23.195898
0
LINE
8
Layer 1
10
112.906875
20
23.195898
11
113.050955
21
23.719914
0
LINE
8
Layer 1
10
113.050955
20
23.719914
11
113.899816
21
26.083426
0
LINE
8
Layer 1
10
113.899816
20
26.083426
11
115.088357
21
28.316685
0
LINE
8
Layer 1
10
115.088357
20
28.316685
11
115.774969
21
29.033242
0
LINE
8
Layer 1
10
115.774969
20
29.033242
11
116.570579
21
29.516766
0
LINE
8
Layer 1
10
116.570579
20
29.516766
11
117.437207
21
29.750861
0
LINE
8
Layer 1
10
117.437207
20
29.750861
11
118.336873
21
29.719129
0
LINE
8
Layer 1
10
118.336873
20
29.719129
11
119.217555
21
29.321598
0
LINE
8
Layer 1
10
119.217555
20
29.321598
11
119.991830
21
28.346281
0
LINE
8
Layer 1
10
119.991830
20
28.346281
11
121.145981
21
26.068015
0
LINE
8
Layer 1
10
121.145981
20
26.068015
11
121.261159
21
25.360266
0
LINE
8
Layer 1
10
121.261159
20
25.360266
11
121.086903
21
24.881589
0
LINE
8
Layer 1
10
121.086903
20
24.881589
11
120.869938
21
24.710949
0
LINE
8
Layer 1
10
120.869938
20
24.710949
11
120.634364
21
24.792077
0
LINE
8
Layer 1
10
120.634364
20
24.792077
11
119.836348
21
25.938765
0
LINE
8
Layer 1
10
119.836348
20
25.938765
11
119.037276
21
27.065513
0
LINE
8
Layer 1
10
119.037276
20
27.065513
11
118.261606
21
27.802508
0
LINE
8
Layer 1
10
118.261606
20
27.802508
11
117.599063
21
28.086082
0
LINE
8
Layer 1
10
117.599063
20
28.086082
11
117.338253
21
28.037939
0
LINE
8
Layer 1
10
117.338253
20
28.037939
11
117.139370
21
27.852565
0
LINE
8
Layer 1
10
117.139370
20
27.852565
11
116.944387
21
24.864835
0
LINE
8
Layer 1
10
116.944387
20
24.864835
11
116.867115
21
18.787056
0
LINE
8
Layer 1
10
116.867115
20
18.787056
11
116.915162
21
12.768860
0
LINE
8
Layer 1
10
116.915162
20
12.768860
11
117.096139
21
9.959879
0
LINE
8
Layer 1
10
117.096139
20
9.959879
11
117.514792
21
9.974220
0
LINE
8
Layer 1
10
117.514792
20
9.974220
11
118.052962
21
10.357227
0
LINE
8
Layer 1
10
118.052962
20
10.357227
11
118.611437
21
11.014766
0
LINE
8
Layer 1
10
118.611437
20
11.014766
11
119.091007
21
11.852701
0
LINE
8
Layer 1
10
119.091007
20
11.852701
11
120.127296
21
14.588120
0
LINE
8
Layer 1
10
120.127296
20
14.588120
11
120.573565
21
15.782635
0
LINE
8
Layer 1
10
120.573565
20
15.782635
11
120.929710
21
16.308241
0
LINE
8
Layer 1
10
120.929710
20
16.308241
11
121.074471
21
16.320501
0
LINE
8
Layer 1
10
121.074471
20
16.320501
11
121.197280
21
16.165891
0
LINE
8
Layer 1
10
121.197280
20
16.165891
11
121.377820
21
15.356532
0
LINE
8
Layer 1
10
121.377820
20
15.356532
11
121.370641
21
14.573053
0
LINE
8
Layer 1
10
121.370641
20
14.573053
11
121.196355
21
13.668379
0
LINE
8
Layer 1
10
121.196355
20
13.668379
11
120.449034
21
11.704666
0
LINE
8
Layer 1
10
120.449034
20
11.704666
11
119.340999
21
9.883838
0
LINE
8
Layer 1
10
119.340999
20
9.883838
11
118.715819
21
9.157771
0
LINE
8
Layer 1
10
118.715819
20
9.157771
11
118.077389
21
8.624341
0
LINE
8
Layer 1
10
118.077389
20
8.624341
11
117.288641
21
8.224569
0
LINE
8
Layer 1
10
117.288641
20
8.224569
11
116.565207
21
8.142465
0
LINE
8
Layer 1
10
116.565207
20
8.142465
11
115.840814
21
8.385389
0
LINE
8
Layer 1
10
115.840814
20
8.385389
11
115.049193
21
8.960702
0
LINE
8
Layer 1
10
115.049193
20
8.960702
11
115.049193
21
8.960702
0
LINE
8
Layer 1
10
40.659911
20
8.948070
11
37.978800
21
9.537059
0
LINE
8
Layer 1
10
37.978800
20
9.537059
11
36.073800
21
9.949891
0
LINE
8
Layer 1
10
36.073800
20
9.949891
11
35.297689
21
10.037287
0
LINE
8
Layer 1
10
35.297689
20
10.037287
11
35.114621
21
10.076296
0
LINE
8
Layer 1
10
35.114621
20
10.076296
11
34.976197
21
10.240724
0
LINE
8
Layer 1
10
34.976197
20
10.240724
11
34.808593
21
11.385822
0
LINE
8
Layer 1
10
34.808593
20
11.385822
11
34.737565
21
20.020898
0
LINE
8
Layer 1
10
34.737565
20
20.020898
11
34.815912
21
27.165898
0
LINE
8
Layer 1
10
34.815912
20
27.165898
11
34.998208
21
30.374305
0
LINE
8
Layer 1
10
34.998208
20
30.374305
11
35.413413
21
30.639389
0
LINE
8
Layer 1
10
35.413413
20
30.639389
11
36.334443
21
30.458811
0
LINE
8
Layer 1
10
36.334443
20
30.458811
11
38.166794
21
29.983746
0
LINE
8
Layer 1
10
38.166794
20
29.983746
11
38.919232
21
29.829249
0
LINE
8
Layer 1
10
38.919232
20
29.829249
11
38.768150
21
20.339507
0
LINE
8
Layer 1
10
38.768150
20
20.339507
11
38.716808
21
12.635586
0
LINE
8
Layer 1
10
38.716808
20
12.635586
11
38.812209
21
11.279357
0
LINE
8
Layer 1
10
38.812209
20
11.279357
11
39.003489
21
10.984066
0
LINE
8
Layer 1
10
39.003489
20
10.984066
11
39.676090
21
10.956895
0
LINE
8
Layer 1
10
39.676090
20
10.956895
11
40.757412
21
10.714017
0
LINE
8
Layer 1
10
40.757412
20
10.714017
11
41.850646
21
10.363680
0
LINE
8
Layer 1
10
41.850646
20
10.363680
11
42.558981
21
10.014133
0
LINE
8
Layer 1
10
42.558981
20
10.014133
11
42.758596
21
9.672525
0
LINE
8
Layer 1
10
42.758596
20
9.672525
11
42.619605
21
9.196262
0
LINE
8
Layer 1
10
42.619605
20
9.196262
11
42.394511
21
8.865378
0
LINE
8
Layer 1
10
42.394511
20
8.865378
11
42.087504
21
8.725704
0
LINE
8
Layer 1
10
42.087504
20
8.725704
11
40.659911
21
8.948070
0
LINE
8
Layer 1
10
40.659911
20
8.948070
11
40.659911
21
8.948070
0
LINE
8
Layer 1
10
30.855830
20
11.291082
11
28.530640
21
11.865079
0
LINE
8
Layer 1
10
28.530640
20
11.865079
11
28.345525
21
13.260544
0
LINE
8
Layer 1
10
28.345525
20
13.260544
11
28.214618
21
14.040003
0
LINE
8
Layer 1
10
28.214618
20
14.040003
11
28.013831
21
14.522652
0
LINE
8
Layer 1
10
28.013831
20
14.522652
11
27.642967
21
14.850565
0
LINE
8
Layer 1
10
27.642967
20
14.850565
11
27.001827
21
15.165815
0
LINE
8
Layer 1
10
27.001827
20
15.165815
11
25.100428
21
15.859664
0
LINE
8
Layer 1
10
25.100428
20
15.859664
11
24.690998
21
15.929381
0
LINE
8
Layer 1
10
24.690998
20
15.929381
11
24.434393
21
15.844926
0
LINE
8
Layer 1
10
24.434393
20
15.844926
11
24.102516
21
14.965051
0
LINE
8
Layer 1
10
24.102516
20
14.965051
11
23.779142
21
14.138227
0
LINE
8
Layer 1
10
23.779142
20
14.138227
11
23.327051
21
13.786177
0
LINE
8
Layer 1
10
23.327051
20
13.786177
11
23.058690
21
13.768518
0
LINE
8
Layer 1
10
23.058690
20
13.768518
11
22.927717
21
13.887419
0
LINE
8
Layer 1
10
22.927717
20
13.887419
11
22.999032
21
14.772042
0
LINE
8
Layer 1
10
22.999032
20
14.772042
11
23.720976
21
17.692565
0
LINE
8
Layer 1
10
23.720976
20
17.692565
11
25.845410
21
25.594787
0
LINE
8
Layer 1
10
25.845410
20
25.594787
11
27.218832
21
30.384355
0
LINE
8
Layer 1
10
27.218832
20
30.384355
11
27.971481
21
32.576669
0
LINE
8
Layer 1
10
27.971481
20
32.576669
11
28.400446
21
33.496964
0
LINE
8
Layer 1
10
28.400446
20
33.496964
11
28.624573
21
33.291197
0
LINE
8
Layer 1
10
28.624573
20
33.291197
11
28.882796
21
32.583684
0
LINE
8
Layer 1
10
28.882796
20
32.583684
11
29.656873
21
29.122565
0
LINE
8
Layer 1
10
29.656873
20
29.122565
11
30.146529
21
27.005898
0
LINE
8
Layer 1
10
30.146529
20
27.005898
11
30.362864
21
26.159231
0
LINE
8
Layer 1
10
30.362864
20
26.159231
11
31.510642
21
20.232565
0
LINE
8
Layer 1
10
31.510642
20
20.232565
11
32.020375
21
17.833676
0
LINE
8
Layer 1
10
32.020375
20
17.833676
11
32.254461
21
17.253574
0
LINE
8
Layer 1
10
32.254461
20
17.253574
11
32.591968
21
15.842463
0
LINE
8
Layer 1
10
32.591968
20
15.842463
11
33.173687
21
12.753780
0
LINE
8
Layer 1
10
33.173687
20
12.753780
11
33.604355
21
10.707669
0
LINE
8
Layer 1
10
33.604355
20
10.707669
11
30.855830
21
11.291082
0
LINE
8
Layer 1
10
30.855830
20
11.291082
11
30.855830
21
11.291082
0
LINE
8
Layer 1
10
27.677690
20
17.157940
11
27.271857
21
19.062940
0
LINE
8
Layer 1
10
27.271857
20
19.062940
11
26.683474
21
21.925898
0
LINE
8
Layer 1
10
26.683474
20
21.925898
11
26.401177
21
23.253604
0
LINE
8
Layer 1
10
26.401177
20
23.253604
11
26.304025
21
23.295727
0
LINE
8
Layer 1
10
26.304025
20
23.295727
11
26.266579
21
22.855626
0
LINE
8
Layer 1
10
26.266579
20
22.855626
11
25.551594
21
20.089870
0
LINE
8
Layer 1
10
25.551594
20
20.089870
11
24.966149
21
17.770032
0
LINE
8
Layer 1
10
24.966149
20
17.770032
11
27.466023
21
16.858285
0
LINE
8
Layer 1
10
27.466023
20
16.858285
11
27.677690
21
17.157940
0
LINE
8
Layer 1
10
27.677690
20
17.157940
11
27.677690
21
17.157940
0
LINE
8
Layer 1
10
123.720392
20
11.378345
11
123.076259
21
12.544304
0
LINE
8
Layer 1
10
123.076259
20
12.544304
11
122.722330
21
14.215140
0
LINE
8
Layer 1
10
122.722330
20
14.215140
11
122.574234
21
17.167888
0
LINE
8
Layer 1
10
122.574234
20
17.167888
11
122.547603
21
22.179582
0
LINE
8
Layer 1
10
122.547603
20
22.179582
11
122.555356
21
30.353079
0
LINE
8
Layer 1
10
122.555356
20
30.353079
11
124.478666
21
30.937265
0
LINE
8
Layer 1
10
124.478666
20
30.937265
11
126.674143
21
31.521454
0
LINE
8
Layer 1
10
126.674143
20
31.521454
11
126.836660
21
29.001014
0
LINE
8
Layer 1
10
126.836660
20
29.001014
11
126.801036
21
21.925898
0
LINE
8
Layer 1
10
126.801036
20
21.925898
11
126.732487
21
15.934391
0
LINE
8
Layer 1
10
126.732487
20
15.934391
11
126.847256
21
13.007157
0
LINE
8
Layer 1
10
126.847256
20
13.007157
11
127.012768
21
12.426481
0
LINE
8
Layer 1
10
127.012768
20
12.426481
11
127.271369
21
12.292478
0
LINE
8
Layer 1
10
127.271369
20
12.292478
11
128.130850
21
12.938636
0
LINE
8
Layer 1
10
128.130850
20
12.938636
11
129.033483
21
14.044329
0
LINE
8
Layer 1
10
129.033483
20
14.044329
11
129.611041
21
15.600908
0
LINE
8
Layer 1
10
129.611041
20
15.600908
11
129.963555
21
18.037889
0
LINE
8
Layer 1
10
129.963555
20
18.037889
11
130.191056
21
21.784787
0
LINE
8
Layer 1
10
130.191056
20
21.784787
11
130.317821
21
26.405062
0
LINE
8
Layer 1
10
130.317821
20
26.405062
11
130.276704
21
29.587142
0
LINE
8
Layer 1
10
130.276704
20
29.587142
11
130.233731
21
31.255554
0
LINE
8
Layer 1
10
130.233731
20
31.255554
11
130.374804
21
32.415500
0
LINE
8
Layer 1
10
130.374804
20
32.415500
11
130.680949
21
32.993255
0
LINE
8
Layer 1
10
130.680949
20
32.993255
11
130.889993
21
33.040770
0
LINE
8
Layer 1
10
130.889993
20
33.040770
11
131.133190
21
32.915090
0
LINE
8
Layer 1
10
131.133190
20
32.915090
11
131.353789
21
32.535007
0
LINE
8
Layer 1
10
131.353789
20
32.535007
11
131.461608
21
31.644910
0
LINE
8
Layer 1
10
131.461608
20
31.644910
11
131.397575
21
27.028304
0
LINE
8
Layer 1
10
131.397575
20
27.028304
11
130.992239
21
16.971396
0
LINE
8
Layer 1
10
130.992239
20
16.971396
11
130.718255
21
15.047045
0
LINE
8
Layer 1
10
130.718255
20
15.047045
11
130.262130
21
13.600343
0
LINE
8
Layer 1
10
130.262130
20
13.600343
11
129.647760
21
12.315341
0
LINE
8
Layer 1
10
129.647760
20
12.315341
11
128.835476
21
11.454325
0
LINE
8
Layer 1
10
128.835476
20
11.454325
11
127.719934
21
10.942264
0
LINE
8
Layer 1
10
127.719934
20
10.942264
11
126.195791
21
10.704130
0
LINE
8
Layer 1
10
126.195791
20
10.704130
11
124.469433
21
10.696948
0
LINE
8
Layer 1
10
124.469433
20
10.696948
11
124.077963
21
10.922917
0
LINE
8
Layer 1
10
124.077963
20
10.922917
11
123.720392
21
11.378345
0
LINE
8
Layer 1
10
123.720392
20
11.378345
11
123.720392
21
11.378345
0
LINE
8
Layer 1
10
132.936674
20
13.356807
11
132.926771
21
20.232565
0
LINE
8
Layer 1
10
132.926771
20
20.232565
11
132.936674
21
30.335037
0
LINE
8
Layer 1
10
132.936674
20
30.335037
11
132.946577
21
33.664172
0
LINE
8
Layer 1
10
132.946577
20
33.664172
11
134.428244
21
34.163020
0
LINE
8
Layer 1
10
134.428244
20
34.163020
11
136.689211
21
34.817493
0
LINE
8
Layer 1
10
136.689211
20
34.817493
11
137.320055
21
34.837740
0
LINE
8
Layer 1
10
137.320055
20
34.837740
11
137.345183
21
34.305621
0
LINE
8
Layer 1
10
137.345183
20
34.305621
11
137.200883
21
24.147359
0
LINE
8
Layer 1
10
137.200883
20
24.147359
11
137.179911
21
14.656599
0
LINE
8
Layer 1
10
137.179911
20
14.656599
11
136.403800
21
14.366827
0
LINE
8
Layer 1
10
136.403800
20
14.366827
11
134.171714
21
13.634144
0
LINE
8
Layer 1
10
134.171714
20
13.634144
11
132.936674
21
13.356807
0
LINE
8
Layer 1
10
132.936674
20
13.356807
11
132.936674
21
13.356807
0
LINE
8
Layer 1
10
17.665156
20
15.490907
11
17.101087
21
18.398120
0
LINE
8
Layer 1
10
17.101087
20
18.398120
11
16.412894
21
21.643676
0
LINE
8
Layer 1
10
16.412894
20
21.643676
11
15.688339
21
25.030343
0
LINE
8
Layer 1
10
15.688339
20
25.030343
11
15.545837
21
25.735898
0
LINE
8
Layer 1
10
15.545837
20
25.735898
11
15.498674
21
25.833935
0
LINE
8
Layer 1
10
15.498674
20
25.833935
11
15.414925
21
25.748389
0
LINE
8
Layer 1
10
15.414925
20
25.748389
11
15.157011
21
25.086658
0
LINE
8
Layer 1
10
15.157011
20
25.086658
11
14.414913
21
22.221407
0
LINE
8
Layer 1
10
14.414913
20
22.221407
11
13.476637
21
18.680343
0
LINE
8
Layer 1
10
13.476637
20
18.680343
11
13.039546
21
17.339787
0
LINE
8
Layer 1
10
13.039546
20
17.339787
11
12.861023
21
17.128120
0
LINE
8
Layer 1
10
12.861023
20
17.128120
11
12.476221
21
17.128120
0
LINE
8
Layer 1
10
12.476221
20
17.128120
11
12.317299
21
17.314652
0
LINE
8
Layer 1
10
12.317299
20
17.314652
11
12.277404
21
17.763120
0
LINE
8
Layer 1
10
12.277404
20
17.763120
11
12.110414
21
19.244787
0
LINE
8
Layer 1
10
12.110414
20
19.244787
11
11.744927
21
21.718936
0
LINE
8
Layer 1
10
11.744927
20
21.718936
11
11.303633
21
24.630072
0
LINE
8
Layer 1
10
11.303633
20
24.630072
11
11.166984
21
26.158088
0
LINE
8
Layer 1
10
11.166984
20
26.158088
11
11.197680
21
26.377618
0
LINE
8
Layer 1
10
11.197680
20
26.377618
11
11.059404
21
26.562279
0
LINE
8
Layer 1
10
11.059404
20
26.562279
11
10.868641
21
26.944820
0
LINE
8
Layer 1
10
10.868641
20
26.944820
11
10.773143
21
27.640111
0
LINE
8
Layer 1
10
10.773143
20
27.640111
11
10.446728
21
30.674787
0
LINE
8
Layer 1
10
10.446728
20
30.674787
11
10.434730
21
31.045616
0
LINE
8
Layer 1
10
10.434730
20
31.045616
11
10.198460
21
32.315616
0
LINE
8
Layer 1
10
10.198460
20
32.315616
11
9.611818
21
35.775070
0
LINE
8
Layer 1
10
9.611818
20
35.775070
11
9.284223
21
38.987335
0
LINE
8
Layer 1
10
9.284223
20
38.987335
11
9.208103
21
39.487752
0
LINE
8
Layer 1
10
9.208103
20
39.487752
11
8.993334
21
39.916521
0
LINE
8
Layer 1
10
8.993334
20
39.916521
11
8.824174
21
40.275915
0
LINE
8
Layer 1
10
8.824174
20
40.275915
11
8.979615
21
40.594046
0
LINE
8
Layer 1
10
8.979615
20
40.594046
11
9.209755
21
40.678653
0
LINE
8
Layer 1
10
9.209755
20
40.678653
11
9.597109
21
40.610717
0
LINE
8
Layer 1
10
9.597109
20
40.610717
11
10.929099
21
39.990714
0
LINE
8
Layer 1
10
10.929099
20
39.990714
11
12.241312
21
39.246795
0
LINE
8
Layer 1
10
12.241312
20
39.246795
11
12.946020
21
38.724241
0
LINE
8
Layer 1
10
12.946020
20
38.724241
11
13.231082
21
38.230078
0
LINE
8
Layer 1
10
13.231082
20
38.230078
11
13.284356
21
37.571330
0
LINE
8
Layer 1
10
13.284356
20
37.571330
11
13.359875
21
36.863209
0
LINE
8
Layer 1
10
13.359875
20
36.863209
11
13.541441
21
36.475879
0
LINE
8
Layer 1
10
13.541441
20
36.475879
11
13.702019
21
36.220653
0
LINE
8
Layer 1
10
13.702019
20
36.220653
11
13.727073
21
35.830146
0
LINE
8
Layer 1
10
13.727073
20
35.830146
11
13.900405
21
34.253842
0
LINE
8
Layer 1
10
13.900405
20
34.253842
11
14.315154
21
31.626435
0
LINE
8
Layer 1
10
14.315154
20
31.626435
11
14.498759
21
29.156124
0
LINE
8
Layer 1
10
14.498759
20
29.156124
11
14.563095
21
28.676201
0
LINE
8
Layer 1
10
14.563095
20
28.676201
11
14.728453
21
28.754904
0
LINE
8
Layer 1
10
14.728453
20
28.754904
11
15.099480
21
30.152413
0
LINE
8
Layer 1
10
15.099480
20
30.152413
11
15.628429
21
32.227009
0
LINE
8
Layer 1
10
15.628429
20
32.227009
11
16.077287
21
33.638120
0
LINE
8
Layer 1
10
16.077287
20
33.638120
11
16.429590
21
35.049231
0
LINE
8
Layer 1
10
16.429590
20
35.049231
11
16.801150
21
36.601454
0
LINE
8
Layer 1
10
16.801150
20
36.601454
11
16.968128
21
36.936662
0
LINE
8
Layer 1
10
16.968128
20
36.936662
11
17.245866
21
37.011938
0
LINE
8
Layer 1
10
17.245866
20
37.011938
11
17.516127
21
36.846695
0
LINE
8
Layer 1
10
17.516127
20
36.846695
11
17.660672
21
36.460343
0
LINE
8
Layer 1
10
17.660672
20
36.460343
11
17.902138
21
35.049231
0
LINE
8
Layer 1
10
17.902138
20
35.049231
11
18.239270
21
33.355898
0
LINE
8
Layer 1
10
18.239270
20
33.355898
11
18.769238
21
31.098120
0
LINE
8
Layer 1
10
18.769238
20
31.098120
11
19.342177
21
28.340993
0
LINE
8
Layer 1
10
19.342177
20
28.340993
11
19.533963
21
27.435988
0
LINE
8
Layer 1
10
19.533963
20
27.435988
11
19.748985
21
27.187007
0
LINE
8
Layer 1
10
19.748985
20
27.187007
11
19.962630
21
27.585469
0
LINE
8
Layer 1
10
19.962630
20
27.585469
11
20.150287
21
28.622792
0
LINE
8
Layer 1
10
20.150287
20
28.622792
11
20.612287
21
31.239231
0
LINE
8
Layer 1
10
20.612287
20
31.239231
11
21.071720
21
33.497009
0
LINE
8
Layer 1
10
21.071720
20
33.497009
11
21.400276
21
34.899721
0
LINE
8
Layer 1
10
21.400276
20
34.899721
11
21.606511
21
35.064707
0
LINE
8
Layer 1
10
21.606511
20
35.064707
11
21.913371
21
35.002030
0
LINE
8
Layer 1
10
21.913371
20
35.002030
11
22.194665
21
34.733322
0
LINE
8
Layer 1
10
22.194665
20
34.733322
11
22.249793
21
34.050501
0
LINE
8
Layer 1
10
22.249793
20
34.050501
11
21.613174
21
30.392565
0
LINE
8
Layer 1
10
21.613174
20
30.392565
11
21.018950
21
27.147009
0
LINE
8
Layer 1
10
21.018950
20
27.147009
11
20.700823
21
25.594787
0
LINE
8
Layer 1
10
20.700823
20
25.594787
11
20.478390
21
24.748120
0
LINE
8
Layer 1
10
20.478390
20
24.748120
11
19.498543
21
19.950343
0
LINE
8
Layer 1
10
19.498543
20
19.950343
11
18.544767
21
15.034830
0
LINE
8
Layer 1
10
18.544767
20
15.034830
11
18.400982
21
14.480755
0
LINE
8
Layer 1
10
18.400982
20
14.480755
11
18.146709
21
14.403053
0
LINE
8
Layer 1
10
18.146709
20
14.403053
11
17.871562
21
14.755259
0
LINE
8
Layer 1
10
17.871562
20
14.755259
11
17.665156
21
15.490907
0
LINE
8
Layer 1
10
17.665156
20
15.490907
11
17.665156
21
15.490907
0
LINE
8
Layer 1
10
140.669191
20
16.703339
11
140.617073
21
25.996381
0
LINE
8
Layer 1
10
140.617073
20
25.996381
11
140.719000
21
34.887989
0
LINE
8
Layer 1
10
140.719000
20
34.887989
11
140.088273
21
34.474720
0
LINE
8
Layer 1
10
140.088273
20
34.474720
11
139.394953
21
34.131422
0
LINE
8
Layer 1
10
139.394953
20
34.131422
11
138.829401
21
34.063703
0
LINE
8
Layer 1
10
138.829401
20
34.063703
11
138.448417
21
34.263629
0
LINE
8
Layer 1
10
138.448417
20
34.263629
11
138.308800
21
34.723268
0
LINE
8
Layer 1
10
138.308800
20
34.723268
11
138.437304
21
35.244523
0
LINE
8
Layer 1
10
138.437304
20
35.244523
11
138.759141
21
35.762926
0
LINE
8
Layer 1
10
138.759141
20
35.762926
11
139.178800
21
36.160491
0
LINE
8
Layer 1
10
139.178800
20
36.160491
11
139.600768
21
36.319231
0
LINE
8
Layer 1
10
139.600768
20
36.319231
11
143.468084
21
38.050617
0
LINE
8
Layer 1
10
143.468084
20
38.050617
11
147.180190
21
39.673395
0
LINE
8
Layer 1
10
147.180190
20
39.673395
11
147.382871
21
38.859231
0
LINE
8
Layer 1
10
147.382871
20
38.859231
11
147.386959
21
38.478160
0
LINE
8
Layer 1
10
147.386959
20
38.478160
11
147.241259
21
38.179956
0
LINE
8
Layer 1
10
147.241259
20
38.179956
11
146.291805
21
37.589231
0
LINE
8
Layer 1
10
146.291805
20
37.589231
11
145.102588
21
37.024787
0
LINE
8
Layer 1
10
145.102588
20
37.024787
11
145.059521
21
28.840343
0
LINE
8
Layer 1
10
145.059521
20
28.840343
11
145.021220
21
22.271883
0
LINE
8
Layer 1
10
145.021220
20
22.271883
11
144.885433
21
19.095661
0
LINE
8
Layer 1
10
144.885433
20
19.095661
11
144.728198
21
18.356252
0
LINE
8
Layer 1
10
144.728198
20
18.356252
11
144.483249
21
17.956835
0
LINE
8
Layer 1
10
144.483249
20
17.956835
11
143.645752
21
17.500558
0
LINE
8
Layer 1
10
143.645752
20
17.500558
11
141.439335
21
16.530131
0
LINE
8
Layer 1
10
141.439335
20
16.530131
11
140.914495
21
16.484431
0
LINE
8
Layer 1
10
140.914495
20
16.484431
11
140.669191
21
16.703339
0
LINE
8
Layer 1
10
140.669191
20
16.703339
11
140.669191
21
16.703339
0
LINE
8
Layer 1
10
31.683723
20
29.757565
11
30.998827
21
31.780207
0
LINE
8
Layer 1
10
30.998827
20
31.780207
11
30.652682
21
33.929143
0
LINE
8
Layer 1
10
30.652682
20
33.929143
11
30.665598
21
35.950207
0
LINE
8
Layer 1
10
30.665598
20
35.950207
11
31.057887
21
37.589231
0
LINE
8
Layer 1
10
31.057887
20
37.589231
11
31.867998
21
39.982904
0
LINE
8
Layer 1
10
31.867998
20
39.982904
11
32.371315
21
42.391844
0
LINE
8
Layer 1
10
32.371315
20
42.391844
11
32.409684
21
43.602771
0
LINE
8
Layer 1
10
32.409684
20
43.602771
11
32.078543
21
44.199536
0
LINE
8
Layer 1
10
32.078543
20
44.199536
11
31.620376
21
44.375870
0
LINE
8
Layer 1
10
31.620376
20
44.375870
11
31.130753
21
44.147155
0
LINE
8
Layer 1
10
31.130753
20
44.147155
11
30.588886
21
43.495650
0
LINE
8
Layer 1
10
30.588886
20
43.495650
11
29.973984
21
42.403612
0
LINE
8
Layer 1
10
29.973984
20
42.403612
11
29.416946
21
41.525333
0
LINE
8
Layer 1
10
29.416946
20
41.525333
11
28.980059
21
41.284751
0
LINE
8
Layer 1
10
28.980059
20
41.284751
11
28.662531
21
41.793777
0
LINE
8
Layer 1
10
28.662531
20
41.793777
11
28.584226
21
42.824377
0
LINE
8
Layer 1
10
28.584226
20
42.824377
11
28.737515
21
44.137995
0
LINE
8
Layer 1
10
28.737515
20
44.137995
11
29.114767
21
45.496076
0
LINE
8
Layer 1
10
29.114767
20
45.496076
11
29.708594
21
47.083218
0
LINE
8
Layer 1
10
29.708594
20
47.083218
11
28.641096
21
49.532890
0
LINE
8
Layer 1
10
28.641096
20
49.532890
11
27.219841
21
52.381433
0
LINE
8
Layer 1
10
27.219841
20
52.381433
11
25.848610
21
54.194659
0
LINE
8
Layer 1
10
25.848610
20
54.194659
11
25.137398
21
55.333258
0
LINE
8
Layer 1
10
25.137398
20
55.333258
11
24.800872
21
56.400497
0
LINE
8
Layer 1
10
24.800872
20
56.400497
11
24.423111
21
56.928941
0
LINE
8
Layer 1
10
24.423111
20
56.928941
11
24.130504
21
57.350443
0
LINE
8
Layer 1
10
24.130504
20
57.350443
11
24.008801
21
57.880992
0
LINE
8
Layer 1
10
24.008801
20
57.880992
11
23.877052
21
58.498633
0
LINE
8
Layer 1
10
23.877052
20
58.498633
11
23.560296
21
59.129524
0
LINE
8
Layer 1
10
23.560296
20
59.129524
11
23.289800
21
59.685744
0
LINE
8
Layer 1
10
23.289800
20
59.685744
11
23.283997
21
60.151459
0
LINE
8
Layer 1
10
23.283997
20
60.151459
11
23.526254
21
60.471412
0
LINE
8
Layer 1
10
23.526254
20
60.471412
11
23.999942
21
60.590343
0
LINE
8
Layer 1
10
23.999942
20
60.590343
11
24.378648
21
60.638462
0
LINE
8
Layer 1
10
24.378648
20
60.638462
11
24.567189
21
61.074577
0
LINE
8
Layer 1
10
24.567189
20
61.074577
11
24.633423
21
64.861324
0
LINE
8
Layer 1
10
24.633423
20
64.861324
11
24.721271
21
67.309350
0
LINE
8
Layer 1
10
24.721271
20
67.309350
11
25.016204
21
69.466147
0
LINE
8
Layer 1
10
25.016204
20
69.466147
11
25.551852
21
71.501448
0
LINE
8
Layer 1
10
25.551852
20
71.501448
11
26.361846
21
73.584985
0
LINE
8
Layer 1
10
26.361846
20
73.584985
11
26.890698
21
75.064036
0
LINE
8
Layer 1
10
26.890698
20
75.064036
11
26.844614
21
75.546996
0
LINE
8
Layer 1
10
26.844614
20
75.546996
11
26.618397
21
76.124985
0
LINE
8
Layer 1
10
26.618397
20
76.124985
11
26.287210
21
77.558972
0
LINE
8
Layer 1
10
26.287210
20
77.558972
11
26.181709
21
79.977601
0
LINE
8
Layer 1
10
26.181709
20
79.977601
11
26.257672
21
82.106438
0
LINE
8
Layer 1
10
26.257672
20
82.106438
11
26.556641
21
83.398963
0
LINE
8
Layer 1
10
26.556641
20
83.398963
11
26.822743
21
83.801884
0
LINE
8
Layer 1
10
26.822743
20
83.801884
11
27.184186
21
84.080058
0
LINE
8
Layer 1
10
27.184186
20
84.080058
11
28.245878
21
84.374609
0
LINE
8
Layer 1
10
28.245878
20
84.374609
11
29.557128
21
84.671264
0
LINE
8
Layer 1
10
29.557128
20
84.671264
11
29.698033
21
87.023327
0
LINE
8
Layer 1
10
29.698033
20
87.023327
11
29.788711
21
108.709231
0
LINE
8
Layer 1
10
29.788711
20
108.709231
11
29.900203
21
115.570706
0
LINE
8
Layer 1
10
29.900203
20
115.570706
11
30.669525
21
115.781457
0
LINE
8
Layer 1
10
30.669525
20
115.781457
11
33.305882
21
115.905064
0
LINE
8
Layer 1
10
33.305882
20
115.905064
11
46.445466
21
115.941639
0
LINE
8
Layer 1
10
46.445466
20
115.941639
11
55.695485
21
115.776173
0
LINE
8
Layer 1
10
55.695485
20
115.776173
11
61.167826
21
115.513127
0
LINE
8
Layer 1
10
61.167826
20
115.513127
11
61.653511
21
115.461561
0
LINE
8
Layer 1
10
61.653511
20
115.461561
11
61.961065
21
115.612960
0
LINE
8
Layer 1
10
61.961065
20
115.612960
11
62.222364
21
115.761829
0
LINE
8
Layer 1
10
62.222364
20
115.761829
11
62.619817
21
115.660751
0
LINE
8
Layer 1
10
62.619817
20
115.660751
11
65.152332
21
115.238773
0
LINE
8
Layer 1
10
65.152332
20
115.238773
11
66.705006
21
115.032688
0
LINE
8
Layer 1
10
66.705006
20
115.032688
11
67.551221
21
114.783382
0
LINE
8
Layer 1
10
67.551221
20
114.783382
11
69.308990
21
113.424479
0
LINE
8
Layer 1
10
69.308990
20
113.424479
11
70.097229
21
113.083676
0
LINE
8
Layer 1
10
70.097229
20
113.083676
11
70.608823
21
112.834968
0
LINE
8
Layer 1
10
70.608823
20
112.834968
11
71.237715
21
112.237009
0
LINE
8
Layer 1
10
71.237715
20
112.237009
11
72.161835
21
111.390343
0
LINE
8
Layer 1
10
72.161835
20
111.390343
11
73.016226
21
110.786562
0
LINE
8
Layer 1
10
73.016226
20
110.786562
11
73.678167
21
110.331832
0
LINE
8
Layer 1
10
73.678167
20
110.331832
11
74.445526
21
110.693454
0
LINE
8
Layer 1
10
74.445526
20
110.693454
11
75.600913
21
111.720565
0
LINE
8
Layer 1
10
75.600913
20
111.720565
11
76.012471
21
112.075568
0
LINE
8
Layer 1
10
76.012471
20
112.075568
11
76.496010
21
112.223040
0
LINE
8
Layer 1
10
76.496010
20
112.223040
11
76.898417
21
112.150102
0
LINE
8
Layer 1
10
76.898417
20
112.150102
11
77.066577
21
111.843871
0
LINE
8
Layer 1
10
77.066577
20
111.843871
11
77.175714
21
111.536944
0
LINE
8
Layer 1
10
77.175714
20
111.536944
11
77.488883
21
111.305359
0
LINE
8
Layer 1
10
77.488883
20
111.305359
11
78.641883
21
111.108120
0
LINE
8
Layer 1
10
78.641883
20
111.108120
11
79.123878
21
111.020324
0
LINE
8
Layer 1
10
79.123878
20
111.020324
11
79.324355
21
110.809241
0
LINE
8
Layer 1
10
79.324355
20
110.809241
11
79.401930
21
110.646103
0
LINE
8
Layer 1
10
79.401930
20
110.646103
11
79.588439
21
110.673577
0
LINE
8
Layer 1
10
79.588439
20
110.673577
11
79.686648
21
110.540466
0
LINE
8
Layer 1
10
79.686648
20
110.540466
11
79.623590
21
110.049243
0
LINE
8
Layer 1
10
79.623590
20
110.049243
11
79.205193
21
108.885855
0
LINE
8
Layer 1
10
79.205193
20
108.885855
11
79.249959
21
108.740457
0
LINE
8
Layer 1
10
79.249959
20
108.740457
11
79.589190
21
108.764022
0
LINE
8
Layer 1
10
79.589190
20
108.764022
11
80.443624
21
108.651160
0
LINE
8
Layer 1
10
80.443624
20
108.651160
11
81.728601
21
108.178637
0
LINE
8
Layer 1
10
81.728601
20
108.178637
11
83.320176
21
107.449990
0
LINE
8
Layer 1
10
83.320176
20
107.449990
11
84.910817
21
108.009055
0
LINE
8
Layer 1
10
84.910817
20
108.009055
11
87.146240
21
108.568120
0
LINE
8
Layer 1
10
87.146240
20
108.568120
11
87.601617
21
108.643262
0
LINE
8
Layer 1
10
87.601617
20
108.643262
11
87.791022
21
108.823921
0
LINE
8
Layer 1
10
87.791022
20
108.823921
11
87.946481
21
108.963927
0
LINE
8
Layer 1
10
87.946481
20
108.963927
11
88.320245
21
108.941328
0
LINE
8
Layer 1
10
88.320245
20
108.941328
11
89.017642
21
109.008693
0
LINE
8
Layer 1
10
89.017642
20
109.008693
11
89.951204
21
109.364997
0
LINE
8
Layer 1
10
89.951204
20
109.364997
11
91.099966
21
109.784221
0
LINE
8
Layer 1
10
91.099966
20
109.784221
11
92.314759
21
110.002862
0
LINE
8
Layer 1
10
92.314759
20
110.002862
11
93.308689
21
110.134134
0
LINE
8
Layer 1
10
93.308689
20
110.134134
11
93.926437
21
110.343301
0
LINE
8
Layer 1
10
93.926437
20
110.343301
11
94.660553
21
110.611085
0
LINE
8
Layer 1
10
94.660553
20
110.611085
11
95.741490
21
110.712245
0
LINE
8
Layer 1
10
95.741490
20
110.712245
11
96.874033
21
110.642579
0
LINE
8
Layer 1
10
96.874033
20
110.642579
11
97.762969
21
110.397888
0
LINE
8
Layer 1
10
97.762969
20
110.397888
11
98.844008
21
110.057202
0
LINE
8
Layer 1
10
98.844008
20
110.057202
11
100.075169
21
109.990003
0
LINE
8
Layer 1
10
100.075169
20
109.990003
11
101.323769
21
110.189227
0
LINE
8
Layer 1
10
101.323769
20
110.189227
11
102.457126
21
110.647810
0
LINE
8
Layer 1
10
102.457126
20
110.647810
11
103.864178
21
111.669724
0
LINE
8
Layer 1
10
103.864178
20
111.669724
11
105.594201
21
113.187810
0
LINE
8
Layer 1
10
105.594201
20
113.187810
11
107.779823
21
115.059231
0
LINE
8
Layer 1
10
107.779823
20
115.059231
11
108.834332
21
115.936003
0
LINE
8
Layer 1
10
108.834332
20
115.936003
11
110.289962
21
117.125387
0
LINE
8
Layer 1
10
110.289962
20
117.125387
11
112.908800
21
118.709745
0
LINE
8
Layer 1
10
112.908800
20
118.709745
11
115.400893
21
119.794364
0
LINE
8
Layer 1
10
115.400893
20
119.794364
11
116.528581
21
120.115404
0
LINE
8
Layer 1
10
116.528581
20
120.115404
11
117.242395
21
120.175624
0
LINE
8
Layer 1
10
117.242395
20
120.175624
11
117.824637
21
120.402322
0
LINE
8
Layer 1
10
117.824637
20
120.402322
11
119.135485
21
120.816878
0
LINE
8
Layer 1
10
119.135485
20
120.816878
11
120.952133
21
121.117572
0
LINE
8
Layer 1
10
120.952133
20
121.117572
11
122.645466
21
121.371264
0
LINE
8
Layer 1
10
122.645466
20
121.371264
11
124.621022
21
121.962855
0
LINE
8
Layer 1
10
124.621022
20
121.962855
11
125.937303
21
122.400511
0
LINE
8
Layer 1
10
125.937303
20
122.400511
11
127.384438
21
122.665875
0
LINE
8
Layer 1
10
127.384438
20
122.665875
11
128.618473
21
122.718193
0
LINE
8
Layer 1
10
128.618473
20
122.718193
11
129.295457
21
122.516711
0
LINE
8
Layer 1
10
129.295457
20
122.516711
11
129.481000
21
121.612586
0
LINE
8
Layer 1
10
129.481000
20
121.612586
11
129.636194
21
118.883762
0
LINE
8
Layer 1
10
129.636194
20
118.883762
11
129.976539
21
104.805322
0
LINE
8
Layer 1
10
129.976539
20
104.805322
11
130.257019
21
97.292899
0
LINE
8
Layer 1
10
130.257019
20
97.292899
11
130.456903
21
92.631898
0
LINE
8
Layer 1
10
130.456903
20
92.631898
11
130.427568
21
88.811822
0
LINE
8
Layer 1
10
130.427568
20
88.811822
11
130.270278
21
88.161022
0
LINE
8
Layer 1
10
130.270278
20
88.161022
11
129.969240
21
87.875023
0
LINE
8
Layer 1
10
129.969240
20
87.875023
11
129.140444
21
87.549934
0
LINE
8
Layer 1
10
129.140444
20
87.549934
11
128.867867
21
87.378049
0
LINE
8
Layer 1
10
128.867867
20
87.378049
11
128.772526
21
86.958302
0
LINE
8
Layer 1
10
128.772526
20
86.958302
11
128.855845
21
86.405905
0
LINE
8
Layer 1
10
128.855845
20
86.405905
11
129.119249
21
85.836069
0
LINE
8
Layer 1
10
129.119249
20
85.836069
11
129.466355
21
84.784985
0
LINE
8
Layer 1
10
129.466355
20
84.784985
11
129.585621
21
82.957168
0
LINE
8
Layer 1
10
129.585621
20
82.957168
11
129.609396
21
79.640343
0
LINE
8
Layer 1
10
129.609396
20
79.640343
11
129.493699
21
78.421295
0
LINE
8
Layer 1
10
129.493699
20
78.421295
11
129.172155
21
76.873332
0
LINE
8
Layer 1
10
129.172155
20
76.873332
11
128.169185
21
73.830118
0
LINE
8
Layer 1
10
128.169185
20
73.830118
11
127.835131
21
72.830126
0
LINE
8
Layer 1
10
127.835131
20
72.830126
11
127.740687
21
72.008831
0
LINE
8
Layer 1
10
127.740687
20
72.008831
11
127.714000
21
71.518662
0
LINE
8
Layer 1
10
127.714000
20
71.518662
11
127.542849
21
71.314787
0
LINE
8
Layer 1
10
127.542849
20
71.314787
11
127.404980
21
71.224721
0
LINE
8
Layer 1
10
127.404980
20
71.224721
11
127.458315
21
71.008178
0
LINE
8
Layer 1
10
127.458315
20
71.008178
11
127.317854
21
70.508640
0
LINE
8
Layer 1
10
127.317854
20
70.508640
11
126.714052
21
69.738178
0
LINE
8
Layer 1
10
126.714052
20
69.738178
11
126.110971
21
69.057784
0
LINE
8
Layer 1
10
126.110971
20
69.057784
11
125.972240
21
68.774787
0
LINE
8
Layer 1
10
125.972240
20
68.774787
11
125.926991
21
68.427896
0
LINE
8
Layer 1
10
125.926991
20
68.427896
11
125.548661
21
67.593879
0
LINE
8
Layer 1
10
125.548661
20
67.593879
11
125.193000
21
66.727233
0
LINE
8
Layer 1
10
125.193000
20
66.727233
11
125.216107
21
66.318646
0
LINE
8
Layer 1
10
125.216107
20
66.318646
11
125.353538
21
65.758808
0
LINE
8
Layer 1
10
125.353538
20
65.758808
11
125.201161
21
64.272022
0
LINE
8
Layer 1
10
125.201161
20
64.272022
11
125.003243
21
63.173483
0
LINE
8
Layer 1
10
125.003243
20
63.173483
11
124.743366
21
62.423707
0
LINE
8
Layer 1
10
124.743366
20
62.423707
11
124.304185
21
61.790551
0
LINE
8
Layer 1
10
124.304185
20
61.790551
11
123.568356
21
61.041875
0
LINE
8
Layer 1
10
123.568356
20
61.041875
11
121.389498
21
59.327598
0
LINE
8
Layer 1
10
121.389498
20
59.327598
11
120.705170
21
58.854422
0
LINE
8
Layer 1
10
120.705170
20
58.854422
11
120.245014
21
58.329644
0
LINE
8
Layer 1
10
120.245014
20
58.329644
11
119.917258
21
57.933068
0
LINE
8
Layer 1
10
119.917258
20
57.933068
11
119.551250
21
57.768120
0
LINE
8
Layer 1
10
119.551250
20
57.768120
11
119.131592
21
57.626191
0
LINE
8
Layer 1
10
119.131592
20
57.626191
11
118.674842
21
57.284959
0
LINE
8
Layer 1
10
118.674842
20
57.284959
11
117.784290
21
56.742003
0
LINE
8
Layer 1
10
117.784290
20
56.742003
11
117.047848
21
56.250095
0
LINE
8
Layer 1
10
117.047848
20
56.250095
11
116.600621
21
55.868362
0
LINE
8
Layer 1
10
116.600621
20
55.868362
11
115.901967
21
55.521175
0
LINE
8
Layer 1
10
115.901967
20
55.521175
11
114.055485
21
55.052539
0
LINE
8
Layer 1
10
114.055485
20
55.052539
11
112.755333
21
54.653423
0
LINE
8
Layer 1
10
112.755333
20
54.653423
11
112.267055
21
54.519879
0
LINE
8
Layer 1
10
112.267055
20
54.519879
11
111.561418
21
54.559919
0
LINE
8
Layer 1
10
111.561418
20
54.559919
11
110.926661
21
54.728650
0
LINE
8
Layer 1
10
110.926661
20
54.728650
11
110.651022
21
54.981176
0
LINE
8
Layer 1
10
110.651022
20
54.981176
11
110.511487
21
55.200729
0
LINE
8
Layer 1
10
110.511487
20
55.200729
11
110.161337
21
55.205595
0
LINE
8
Layer 1
10
110.161337
20
55.205595
11
109.703251
21
55.018877
0
LINE
8
Layer 1
10
109.703251
20
55.018877
11
109.239911
21
54.663676
0
LINE
8
Layer 1
10
109.239911
20
54.663676
11
108.841272
21
54.067006
0
LINE
8
Layer 1
10
108.841272
20
54.067006
11
108.675466
21
53.425084
0
LINE
8
Layer 1
10
108.675466
20
53.425084
11
108.632836
21
53.077297
0
LINE
8
Layer 1
10
108.632836
20
53.077297
11
108.473591
21
52.842067
0
LINE
8
Layer 1
10
108.473591
20
52.842067
11
107.617133
21
52.554539
0
LINE
8
Layer 1
10
107.617133
20
52.554539
11
106.716118
21
52.277961
0
LINE
8
Layer 1
10
106.716118
20
52.277961
11
106.036017
21
51.888796
0
LINE
8
Layer 1
10
106.036017
20
51.888796
11
105.115309
21
50.630439
0
LINE
8
Layer 1
10
105.115309
20
50.630439
11
104.585293
21
49.187681
0
LINE
8
Layer 1
10
104.585293
20
49.187681
11
104.213890
21
47.228841
0
LINE
8
Layer 1
10
104.213890
20
47.228841
11
103.682995
21
45.811169
0
LINE
8
Layer 1
10
103.682995
20
45.811169
11
103.226960
21
44.785898
0
LINE
8
Layer 1
10
103.226960
20
44.785898
11
102.804245
21
44.334822
0
LINE
8
Layer 1
10
102.804245
20
44.334822
11
102.562005
21
44.023455
0
LINE
8
Layer 1
10
102.562005
20
44.023455
11
102.574866
21
43.710118
0
LINE
8
Layer 1
10
102.574866
20
43.710118
11
102.543418
21
43.319001
0
LINE
8
Layer 1
10
102.543418
20
43.319001
11
102.194648
21
42.820635
0
LINE
8
Layer 1
10
102.194648
20
42.820635
11
101.545706
21
42.433964
0
LINE
8
Layer 1
10
101.545706
20
42.433964
11
100.725891
21
42.254798
0
LINE
8
Layer 1
10
100.725891
20
42.254798
11
99.974375
21
42.303060
0
LINE
8
Layer 1
10
99.974375
20
42.303060
11
99.530332
21
42.598676
0
LINE
8
Layer 1
10
99.530332
20
42.598676
11
98.596819
21
44.125115
0
LINE
8
Layer 1
10
98.596819
20
44.125115
11
97.564866
21
45.186524
0
LINE
8
Layer 1
10
97.564866
20
45.186524
11
96.776131
21
45.773676
0
LINE
8
Layer 1
10
96.776131
20
45.773676
11
96.093576
21
44.981828
0
LINE
8
Layer 1
10
96.093576
20
44.981828
11
95.597374
21
44.159647
0
LINE
8
Layer 1
10
95.597374
20
44.159647
11
95.402047
21
43.288495
0
LINE
8
Layer 1
10
95.402047
20
43.288495
11
95.275394
21
42.492817
0
LINE
8
Layer 1
10
95.275394
20
42.492817
11
94.983495
21
41.845718
0
LINE
8
Layer 1
10
94.983495
20
41.845718
11
94.734617
21
41.342082
0
LINE
8
Layer 1
10
94.734617
20
41.342082
11
94.883337
21
40.931606
0
LINE
8
Layer 1
10
94.883337
20
40.931606
11
95.188182
21
40.721646
0
LINE
8
Layer 1
10
95.188182
20
40.721646
11
95.486607
21
40.740389
0
LINE
8
Layer 1
10
95.486607
20
40.740389
11
95.641269
21
40.776252
0
LINE
8
Layer 1
10
95.641269
20
40.776252
11
95.559581
21
40.564618
0
LINE
8
Layer 1
10
95.559581
20
40.564618
11
95.510398
21
40.238498
0
LINE
8
Layer 1
10
95.510398
20
40.238498
11
95.727641
21
39.960889
0
LINE
8
Layer 1
10
95.727641
20
39.960889
11
95.947136
21
39.769830
0
LINE
8
Layer 1
10
95.947136
20
39.769830
11
95.763800
21
39.710219
0
LINE
8
Layer 1
10
95.763800
20
39.710219
11
95.500956
21
39.375541
0
LINE
8
Layer 1
10
95.500956
20
39.375541
11
95.411022
21
38.405703
0
LINE
8
Layer 1
10
95.411022
20
38.405703
11
95.324974
21
37.380035
0
LINE
8
Layer 1
10
95.324974
20
37.380035
11
95.183929
21
37.242586
0
LINE
8
Layer 1
10
95.183929
20
37.242586
11
94.947771
21
37.283274
0
LINE
8
Layer 1
10
94.947771
20
37.283274
11
94.642729
21
37.346679
0
LINE
8
Layer 1
10
94.642729
20
37.346679
11
94.810394
21
37.068387
0
LINE
8
Layer 1
10
94.810394
20
37.068387
11
94.930116
21
36.837208
0
LINE
8
Layer 1
10
94.930116
20
36.837208
11
94.890160
21
36.579992
0
LINE
8
Layer 1
10
94.890160
20
36.579992
11
94.253899
21
35.813052
0
LINE
8
Layer 1
10
94.253899
20
35.813052
11
93.515761
21
35.247899
0
LINE
8
Layer 1
10
93.515761
20
35.247899
11
92.980163
21
35.100551
0
LINE
8
Layer 1
10
92.980163
20
35.100551
11
92.743576
21
35.118715
0
LINE
8
Layer 1
10
92.743576
20
35.118715
11
92.595699
21
34.959619
0
LINE
8
Layer 1
10
92.595699
20
34.959619
11
92.570458
21
34.120136
0
LINE
8
Layer 1
10
92.570458
20
34.120136
11
92.380927
21
33.576984
0
LINE
8
Layer 1
10
92.380927
20
33.576984
11
91.819169
21
32.821270
0
LINE
8
Layer 1
10
91.819169
20
32.821270
11
91.045325
21
32.037570
0
LINE
8
Layer 1
10
91.045325
20
32.037570
11
90.219533
21
31.410461
0
LINE
8
Layer 1
10
90.219533
20
31.410461
11
88.980306
21
30.972897
0
LINE
8
Layer 1
10
88.980306
20
30.972897
11
86.913618
21
30.757097
0
LINE
8
Layer 1
10
86.913618
20
30.757097
11
84.699934
21
30.764319
0
LINE
8
Layer 1
10
84.699934
20
30.764319
11
84.157443
21
30.987461
0
LINE
8
Layer 1
10
84.157443
20
30.987461
11
83.621745
21
31.432788
0
LINE
8
Layer 1
10
83.621745
20
31.432788
11
81.074557
21
33.635248
0
LINE
8
Layer 1
10
81.074557
20
33.635248
11
80.237415
21
34.185062
0
LINE
8
Layer 1
10
80.237415
20
34.185062
11
79.479479
21
34.525365
0
LINE
8
Layer 1
10
79.479479
20
34.525365
11
77.943451
21
35.330112
0
LINE
8
Layer 1
10
77.943451
20
35.330112
11
77.505210
21
35.777442
0
LINE
8
Layer 1
10
77.505210
20
35.777442
11
77.348800
21
36.205857
0
LINE
8
Layer 1
10
77.348800
20
36.205857
11
77.164547
21
36.591698
0
LINE
8
Layer 1
10
77.164547
20
36.591698
11
76.721558
21
37.008785
0
LINE
8
Layer 1
10
76.721558
20
37.008785
11
76.351317
21
37.319065
0
LINE
8
Layer 1
10
76.351317
20
37.319065
11
76.341966
21
37.448120
0
LINE
8
Layer 1
10
76.341966
20
37.448120
11
76.358939
21
37.628176
0
LINE
8
Layer 1
10
76.358939
20
37.628176
11
76.051986
21
38.061076
0
LINE
8
Layer 1
10
76.051986
20
38.061076
11
75.775912
21
38.433384
0
LINE
8
Layer 1
10
75.775912
20
38.433384
11
75.867133
21
38.467755
0
LINE
8
Layer 1
10
75.867133
20
38.467755
11
76.116282
21
38.409865
0
LINE
8
Layer 1
10
76.116282
20
38.409865
11
76.219911
21
38.560352
0
LINE
8
Layer 1
10
76.219911
20
38.560352
11
76.021124
21
38.802624
0
LINE
8
Layer 1
10
76.021124
20
38.802624
11
75.523250
21
38.840870
0
LINE
8
Layer 1
10
75.523250
20
38.840870
11
74.874016
21
38.689639
0
LINE
8
Layer 1
10
74.874016
20
38.689639
11
74.221151
21
38.363483
0
LINE
8
Layer 1
10
74.221151
20
38.363483
11
72.753073
21
37.165898
0
LINE
8
Layer 1
10
72.753073
20
37.165898
11
71.559136
21
36.125013
0
LINE
8
Layer 1
10
71.559136
20
36.125013
11
70.539308
21
35.438623
0
LINE
8
Layer 1
10
70.539308
20
35.438623
11
69.725596
21
35.124197
0
LINE
8
Layer 1
10
69.725596
20
35.124197
11
69.150010
21
35.199207
0
LINE
8
Layer 1
10
69.150010
20
35.199207
11
68.687272
21
35.331205
0
LINE
8
Layer 1
10
68.687272
20
35.331205
11
68.142471
21
35.297674
0
LINE
8
Layer 1
10
68.142471
20
35.297674
11
67.297331
21
35.396893
0
LINE
8
Layer 1
10
67.297331
20
35.396893
11
66.072464
21
35.889537
0
LINE
8
Layer 1
10
66.072464
20
35.889537
11
64.869321
21
36.406305
0
LINE
8
Layer 1
10
64.869321
20
36.406305
11
63.775507
21
36.720037
0
LINE
8
Layer 1
10
63.775507
20
36.720037
11
62.980367
21
36.792065
0
LINE
8
Layer 1
10
62.980367
20
36.792065
11
62.673244
21
36.583722
0
LINE
8
Layer 1
10
62.673244
20
36.583722
11
62.489992
21
36.502203
0
LINE
8
Layer 1
10
62.489992
20
36.502203
11
62.046002
21
36.726563
0
LINE
8
Layer 1
10
62.046002
20
36.726563
11
61.438579
21
37.037120
0
LINE
8
Layer 1
10
61.438579
20
37.037120
11
60.829936
21
37.148763
0
LINE
8
Layer 1
10
60.829936
20
37.148763
11
60.286275
21
37.060168
0
LINE
8
Layer 1
10
60.286275
20
37.060168
11
59.873800
21
36.770011
0
LINE
8
Layer 1
10
59.873800
20
36.770011
11
59.692166
21
36.429687
0
LINE
8
Layer 1
10
59.692166
20
36.429687
11
59.909797
21
36.240362
0
LINE
8
Layer 1
10
59.909797
20
36.240362
11
59.938324
21
36.084993
0
LINE
8
Layer 1
10
59.938324
20
36.084993
11
59.494976
21
35.899279
0
LINE
8
Layer 1
10
59.494976
20
35.899279
11
58.553474
21
35.867647
0
LINE
8
Layer 1
10
58.553474
20
35.867647
11
57.325280
21
36.146703
0
LINE
8
Layer 1
10
57.325280
20
36.146703
11
55.378082
21
36.601454
0
LINE
8
Layer 1
10
55.378082
20
36.601454
11
54.790587
21
36.832240
0
LINE
8
Layer 1
10
54.790587
20
36.832240
11
54.160110
21
37.387112
0
LINE
8
Layer 1
10
54.160110
20
37.387112
11
53.214362
21
38.136335
0
LINE
8
Layer 1
10
53.214362
20
38.136335
11
51.868883
21
38.834396
0
LINE
8
Layer 1
10
51.868883
20
38.834396
11
50.385809
21
39.334826
0
LINE
8
Layer 1
10
50.385809
20
39.334826
11
50.026739
21
39.260582
0
LINE
8
Layer 1
10
50.026739
20
39.260582
11
49.676485
21
38.987188
0
LINE
8
Layer 1
10
49.676485
20
38.987188
11
49.338213
21
38.711594
0
LINE
8
Layer 1
10
49.338213
20
38.711594
11
49.046363
21
38.621305
0
LINE
8
Layer 1
10
49.046363
20
38.621305
11
48.062072
21
39.001390
0
LINE
8
Layer 1
10
48.062072
20
39.001390
11
46.629487
21
39.455330
0
LINE
8
Layer 1
10
46.629487
20
39.455330
11
46.223853
21
39.524388
0
LINE
8
Layer 1
10
46.223853
20
39.524388
11
45.782820
21
39.787446
0
LINE
8
Layer 1
10
45.782820
20
39.787446
11
43.764355
21
40.691390
0
LINE
8
Layer 1
10
43.764355
20
40.691390
11
41.604043
21
41.471077
0
LINE
8
Layer 1
10
41.604043
20
41.471077
11
41.082685
21
41.609879
0
LINE
8
Layer 1
10
41.082685
20
41.609879
11
40.683118
21
41.554685
0
LINE
8
Layer 1
10
40.683118
20
41.554685
11
40.023117
21
41.661468
0
LINE
8
Layer 1
10
40.023117
20
41.661468
11
38.838525
21
42.109840
0
LINE
8
Layer 1
10
38.838525
20
42.109840
11
37.650733
21
42.676682
0
LINE
8
Layer 1
10
37.650733
20
42.676682
11
36.981130
21
43.138875
0
LINE
8
Layer 1
10
36.981130
20
43.138875
11
35.811559
21
43.778480
0
LINE
8
Layer 1
10
35.811559
20
43.778480
11
34.913036
21
44.309586
0
LINE
8
Layer 1
10
34.913036
20
44.309586
11
34.183091
21
44.988869
0
LINE
8
Layer 1
10
34.183091
20
44.988869
11
33.719504
21
45.545852
0
LINE
8
Layer 1
10
33.719504
20
45.545852
11
33.920410
21
45.068120
0
LINE
8
Layer 1
10
33.920410
20
45.068120
11
34.479024
21
43.374787
0
LINE
8
Layer 1
10
34.479024
20
43.374787
11
35.155451
21
40.552565
0
LINE
8
Layer 1
10
35.155451
20
40.552565
11
35.510367
21
38.359297
0
LINE
8
Layer 1
10
35.510367
20
38.359297
11
35.629233
21
35.817135
0
LINE
8
Layer 1
10
35.629233
20
35.817135
11
35.511907
21
33.386167
0
LINE
8
Layer 1
10
35.511907
20
33.386167
11
35.158245
21
31.526480
0
LINE
8
Layer 1
10
35.158245
20
31.526480
11
34.655854
21
30.344250
0
LINE
8
Layer 1
10
34.655854
20
30.344250
11
34.031615
21
29.352744
0
LINE
8
Layer 1
10
34.031615
20
29.352744
11
33.376340
21
28.670739
0
LINE
8
Layer 1
10
33.376340
20
28.670739
11
32.780842
21
28.417009
0
LINE
8
Layer 1
10
32.780842
20
28.417009
11
32.259715
21
28.767216
0
LINE
8
Layer 1
10
32.259715
20
28.767216
11
31.683723
21
29.757565
0
LINE
8
Layer 1
10
31.683723
20
29.757565
11
31.683723
21
29.757565
0
LINE
8
Layer 1
10
89.007603
20
32.785022
11
89.826947
21
33.237005
0
LINE
8
Layer 1
10
89.826947
20
33.237005
11
90.350795
21
33.708154
0
LINE
8
Layer 1
10
90.350795
20
33.708154
11
90.640794
21
34.277267
0
LINE
8
Layer 1
10
90.640794
20
34.277267
11
90.758591
21
35.023143
0
LINE
8
Layer 1
10
90.758591
20
35.023143
11
90.852661
21
35.795075
0
LINE
8
Layer 1
10
90.852661
20
35.795075
11
91.047559
21
36.279251
0
LINE
8
Layer 1
10
91.047559
20
36.279251
11
91.382415
21
36.529950
0
LINE
8
Layer 1
10
91.382415
20
36.529950
11
91.896359
21
36.601454
0
LINE
8
Layer 1
10
91.896359
20
36.601454
11
92.592120
21
36.866421
0
LINE
8
Layer 1
10
92.592120
20
36.866421
11
93.312522
21
37.759121
0
LINE
8
Layer 1
10
93.312522
20
37.759121
11
94.043328
21
38.916791
0
LINE
8
Layer 1
10
94.043328
20
38.916791
11
93.386619
21
39.376765
0
LINE
8
Layer 1
10
93.386619
20
39.376765
11
92.621128
21
39.700764
0
LINE
8
Layer 1
10
92.621128
20
39.700764
11
92.269671
21
40.220807
0
LINE
8
Layer 1
10
92.269671
20
40.220807
11
92.164703
21
40.750416
0
LINE
8
Layer 1
10
92.164703
20
40.750416
11
92.262159
21
41.262699
0
LINE
8
Layer 1
10
92.262159
20
41.262699
11
92.572971
21
41.785366
0
LINE
8
Layer 1
10
92.572971
20
41.785366
11
93.108072
21
42.346126
0
LINE
8
Layer 1
10
93.108072
20
42.346126
11
93.464978
21
42.833266
0
LINE
8
Layer 1
10
93.464978
20
42.833266
11
93.520469
21
43.278126
0
LINE
8
Layer 1
10
93.520469
20
43.278126
11
93.630310
21
44.010298
0
LINE
8
Layer 1
10
93.630310
20
44.010298
11
94.117888
21
45.188214
0
LINE
8
Layer 1
10
94.117888
20
45.188214
11
95.002645
21
46.500383
0
LINE
8
Layer 1
10
95.002645
20
46.500383
11
96.020185
21
47.196164
0
LINE
8
Layer 1
10
96.020185
20
47.196164
11
96.580422
21
47.313507
0
LINE
8
Layer 1
10
96.580422
20
47.313507
11
97.175864
21
47.277473
0
LINE
8
Layer 1
10
97.175864
20
47.277473
11
98.475038
21
46.746225
0
LINE
8
Layer 1
10
98.475038
20
46.746225
11
99.184876
21
46.182414
0
LINE
8
Layer 1
10
99.184876
20
46.182414
11
99.561182
21
45.637918
0
LINE
8
Layer 1
10
99.561182
20
45.637918
11
99.766642
21
45.304311
0
LINE
8
Layer 1
10
99.766642
20
45.304311
11
100.065721
21
45.247529
0
LINE
8
Layer 1
10
100.065721
20
45.247529
11
100.416833
21
45.124932
0
LINE
8
Layer 1
10
100.416833
20
45.124932
11
100.745157
21
44.592999
0
LINE
8
Layer 1
10
100.745157
20
44.592999
11
101.058842
21
43.798120
0
LINE
8
Layer 1
10
101.058842
20
43.798120
11
100.909112
21
44.580429
0
LINE
8
Layer 1
10
100.909112
20
44.580429
11
100.898453
21
45.214744
0
LINE
8
Layer 1
10
100.898453
20
45.214744
11
101.189646
21
45.527846
0
LINE
8
Layer 1
10
101.189646
20
45.527846
11
101.493521
21
45.730072
0
LINE
8
Layer 1
10
101.493521
20
45.730072
11
101.619911
21
45.984425
0
LINE
8
Layer 1
10
101.619911
20
45.984425
11
102.113800
21
46.654421
0
LINE
8
Layer 1
10
102.113800
20
46.654421
11
102.401150
21
46.989971
0
LINE
8
Layer 1
10
102.401150
20
46.989971
11
102.325466
21
47.249980
0
LINE
8
Layer 1
10
102.325466
20
47.249980
11
102.122158
21
47.724629
0
LINE
8
Layer 1
10
102.122158
20
47.724629
11
102.049225
21
48.496672
0
LINE
8
Layer 1
10
102.049225
20
48.496672
11
102.109704
21
49.205341
0
LINE
8
Layer 1
10
102.109704
20
49.205341
11
102.306628
21
49.489868
0
LINE
8
Layer 1
10
102.306628
20
49.489868
11
102.614318
21
49.705168
0
LINE
8
Layer 1
10
102.614318
20
49.705168
11
102.984229
21
50.289231
0
LINE
8
Layer 1
10
102.984229
20
50.289231
11
103.777979
21
51.360917
0
LINE
8
Layer 1
10
103.777979
20
51.360917
11
104.098485
21
51.847917
0
LINE
8
Layer 1
10
104.098485
20
51.847917
11
104.336105
21
52.702804
0
LINE
8
Layer 1
10
104.336105
20
52.702804
11
104.642074
21
53.660951
0
LINE
8
Layer 1
10
104.642074
20
53.660951
11
104.935633
21
53.895897
0
LINE
8
Layer 1
10
104.935633
20
53.895897
11
105.395638
21
54.061346
0
LINE
8
Layer 1
10
105.395638
20
54.061346
11
106.098210
21
54.161949
0
LINE
8
Layer 1
10
106.098210
20
54.161949
11
106.544689
21
54.060014
0
LINE
8
Layer 1
10
106.544689
20
54.060014
11
106.863153
21
53.846897
0
LINE
8
Layer 1
10
106.863153
20
53.846897
11
107.087647
21
53.872770
0
LINE
8
Layer 1
10
107.087647
20
53.872770
11
107.264355
21
54.649370
0
LINE
8
Layer 1
10
107.264355
20
54.649370
11
107.487103
21
55.492873
0
LINE
8
Layer 1
10
107.487103
20
55.492873
11
108.181577
21
56.359967
0
LINE
8
Layer 1
10
108.181577
20
56.359967
11
109.155961
21
57.069609
0
LINE
8
Layer 1
10
109.155961
20
57.069609
11
110.368800
21
57.075951
0
LINE
8
Layer 1
10
110.368800
20
57.075951
11
111.293371
21
56.879597
0
LINE
8
Layer 1
10
111.293371
20
56.879597
11
111.732873
21
56.635354
0
LINE
8
Layer 1
10
111.732873
20
56.635354
11
111.978356
21
56.437089
0
LINE
8
Layer 1
10
111.978356
20
56.437089
11
112.473276
21
56.379776
0
LINE
8
Layer 1
10
112.473276
20
56.379776
11
113.881608
21
56.601001
0
LINE
8
Layer 1
10
113.881608
20
56.601001
11
115.298231
21
57.125013
0
LINE
8
Layer 1
10
115.298231
20
57.125013
11
115.803514
21
57.446184
0
LINE
8
Layer 1
10
115.803514
20
57.446184
11
116.063505
21
57.777795
0
LINE
8
Layer 1
10
116.063505
20
57.777795
11
116.275319
21
58.012599
0
LINE
8
Layer 1
10
116.275319
20
58.012599
11
116.642611
21
58.151237
0
LINE
8
Layer 1
10
116.642611
20
58.151237
11
117.128443
21
58.371060
0
LINE
8
Layer 1
10
117.128443
20
58.371060
11
117.625264
21
58.801054
0
LINE
8
Layer 1
10
117.625264
20
58.801054
11
118.172524
21
59.270706
0
LINE
8
Layer 1
10
118.172524
20
59.270706
11
118.779623
21
59.585880
0
LINE
8
Layer 1
10
118.779623
20
59.585880
11
119.496187
21
60.013983
0
LINE
8
Layer 1
10
119.496187
20
60.013983
11
120.306634
21
60.755141
0
LINE
8
Layer 1
10
120.306634
20
60.755141
11
121.418358
21
61.719231
0
LINE
8
Layer 1
10
121.418358
20
61.719231
11
121.926842
21
62.010830
0
LINE
8
Layer 1
10
121.926842
20
62.010830
11
122.568250
21
62.698262
0
LINE
8
Layer 1
10
122.568250
20
62.698262
11
123.117878
21
63.500486
0
LINE
8
Layer 1
10
123.117878
20
63.500486
11
123.351022
21
64.136459
0
LINE
8
Layer 1
10
123.351022
20
64.136459
11
123.454650
21
64.636945
0
LINE
8
Layer 1
10
123.454650
20
64.636945
11
123.703800
21
64.941269
0
LINE
8
Layer 1
10
123.703800
20
64.941269
11
123.915466
21
65.105898
0
LINE
8
Layer 1
10
123.915466
20
65.105898
11
123.703800
21
65.270527
0
LINE
8
Layer 1
10
123.703800
20
65.270527
11
123.454650
21
65.504243
0
LINE
8
Layer 1
10
123.454650
20
65.504243
11
123.351022
21
65.834971
0
LINE
8
Layer 1
10
123.351022
20
65.834971
11
123.262198
21
66.117341
0
LINE
8
Layer 1
10
123.262198
20
66.117341
11
123.048641
21
66.234787
0
LINE
8
Layer 1
10
123.048641
20
66.234787
11
122.957981
21
66.357682
0
LINE
8
Layer 1
10
122.957981
20
66.357682
11
123.164628
21
66.653156
0
LINE
8
Layer 1
10
123.164628
20
66.653156
11
123.420189
21
67.101254
0
LINE
8
Layer 1
10
123.420189
20
67.101254
11
123.447124
21
67.591099
0
LINE
8
Layer 1
10
123.447124
20
67.591099
11
123.522875
21
68.222676
0
LINE
8
Layer 1
10
123.522875
20
68.222676
11
123.912050
21
69.125293
0
LINE
8
Layer 1
10
123.912050
20
69.125293
11
124.516956
21
70.113161
0
LINE
8
Layer 1
10
124.516956
20
70.113161
11
125.239899
21
71.000493
0
LINE
8
Layer 1
10
125.239899
20
71.000493
11
125.699754
21
71.683201
0
LINE
8
Layer 1
10
125.699754
20
71.683201
11
125.891022
21
72.378861
0
LINE
8
Layer 1
10
125.891022
20
72.378861
11
126.210282
21
74.156189
0
LINE
8
Layer 1
10
126.210282
20
74.156189
11
126.723950
21
75.548120
0
LINE
8
Layer 1
10
126.723950
20
75.548120
11
126.919547
21
76.112565
0
LINE
8
Layer 1
10
126.919547
20
76.112565
11
127.248146
21
77.876844
0
LINE
8
Layer 1
10
127.248146
20
77.876844
11
127.774565
21
78.989039
0
LINE
8
Layer 1
10
127.774565
20
78.989039
11
128.072704
21
79.603815
0
LINE
8
Layer 1
10
128.072704
20
79.603815
11
128.001951
21
80.546279
0
LINE
8
Layer 1
10
128.001951
20
80.546279
11
127.737614
21
82.429307
0
LINE
8
Layer 1
10
127.737614
20
82.429307
11
127.774117
21
82.992646
0
LINE
8
Layer 1
10
127.774117
20
82.992646
11
127.921752
21
83.349886
0
LINE
8
Layer 1
10
127.921752
20
83.349886
11
127.980261
21
83.707789
0
LINE
8
Layer 1
10
127.980261
20
83.707789
11
127.715050
21
84.125997
0
LINE
8
Layer 1
10
127.715050
20
84.125997
11
127.451861
21
84.446093
0
LINE
8
Layer 1
10
127.451861
20
84.446093
11
127.455543
21
84.579231
0
LINE
8
Layer 1
10
127.455543
20
84.579231
11
127.471589
21
84.765763
0
LINE
8
Layer 1
10
127.471589
20
84.765763
11
127.238125
21
85.214231
0
LINE
8
Layer 1
10
127.238125
20
85.214231
11
126.705133
21
86.358556
0
LINE
8
Layer 1
10
126.705133
20
86.358556
11
126.679861
21
87.357579
0
LINE
8
Layer 1
10
126.679861
20
87.357579
11
127.161389
21
88.207577
0
LINE
8
Layer 1
10
127.161389
20
88.207577
11
128.148800
21
88.904823
0
LINE
8
Layer 1
10
128.148800
20
88.904823
11
128.530134
21
89.146825
0
LINE
8
Layer 1
10
128.530134
20
89.146825
11
128.743500
21
89.490879
0
LINE
8
Layer 1
10
128.743500
20
89.490879
11
128.861490
21
91.081081
0
LINE
8
Layer 1
10
128.861490
20
91.081081
11
128.627533
21
96.291454
0
LINE
8
Layer 1
10
128.627533
20
96.291454
11
128.293029
21
106.310343
0
LINE
8
Layer 1
10
128.293029
20
106.310343
11
128.170869
21
112.942565
0
LINE
8
Layer 1
10
128.170869
20
112.942565
11
127.993671
21
116.611454
0
LINE
8
Layer 1
10
127.993671
20
116.611454
11
127.695771
21
120.774231
0
LINE
8
Layer 1
10
127.695771
20
120.774231
11
127.505966
21
121.095124
0
LINE
8
Layer 1
10
127.505966
20
121.095124
11
127.191157
21
121.244350
0
LINE
8
Layer 1
10
127.191157
20
121.244350
11
126.764704
21
121.219666
0
LINE
8
Layer 1
10
126.764704
20
121.219666
11
126.239970
21
121.018825
0
LINE
8
Layer 1
10
126.239970
20
121.018825
11
124.754914
21
120.372616
0
LINE
8
Layer 1
10
124.754914
20
120.372616
11
123.351022
21
120.003959
0
LINE
8
Layer 1
10
123.351022
20
120.003959
11
121.443406
21
119.671324
0
LINE
8
Layer 1
10
121.443406
20
119.671324
11
120.368416
21
119.261382
0
LINE
8
Layer 1
10
120.368416
20
119.261382
11
119.980482
21
119.084085
0
LINE
8
Layer 1
10
119.980482
20
119.084085
11
119.265663
21
119.010343
0
LINE
8
Layer 1
10
119.265663
20
119.010343
11
118.562474
21
118.908512
0
LINE
8
Layer 1
10
118.562474
20
118.908512
11
118.202507
21
118.663686
0
LINE
8
Layer 1
10
118.202507
20
118.663686
11
117.919950
21
118.417064
0
LINE
8
Layer 1
10
117.919950
20
118.417064
11
117.402878
21
118.310908
0
LINE
8
Layer 1
10
117.402878
20
118.310908
11
116.925733
21
118.204901
0
LINE
8
Layer 1
10
116.925733
20
118.204901
11
116.796349
21
117.931032
0
LINE
8
Layer 1
10
116.796349
20
117.931032
11
116.769955
21
117.717227
0
LINE
8
Layer 1
10
116.769955
20
117.717227
11
116.597605
21
117.728035
0
LINE
8
Layer 1
10
116.597605
20
117.728035
11
116.054882
21
117.684326
0
LINE
8
Layer 1
10
116.054882
20
117.684326
11
115.046357
21
117.304998
0
LINE
8
Layer 1
10
115.046357
20
117.304998
11
112.317864
21
115.924090
0
LINE
8
Layer 1
10
112.317864
20
115.924090
11
109.784045
21
114.354521
0
LINE
8
Layer 1
10
109.784045
20
114.354521
11
109.018865
21
113.739366
0
LINE
8
Layer 1
10
109.018865
20
113.739366
11
108.816823
21
113.365500
0
LINE
8
Layer 1
10
108.816823
20
113.365500
11
108.812059
21
113.217698
0
LINE
8
Layer 1
10
108.812059
20
113.217698
11
108.549014
21
113.258213
0
LINE
8
Layer 1
10
108.549014
20
113.258213
11
108.239682
21
113.294813
0
LINE
8
Layer 1
10
108.239682
20
113.294813
11
108.111022
21
113.146786
0
LINE
8
Layer 1
10
108.111022
20
113.146786
11
107.934448
21
112.903213
0
LINE
8
Layer 1
10
107.934448
20
112.903213
11
107.509922
21
112.710095
0
LINE
8
Layer 1
10
107.509922
20
112.710095
11
107.104311
21
112.484219
0
LINE
8
Layer 1
10
107.104311
20
112.484219
11
107.072216
21
112.127106
0
LINE
8
Layer 1
10
107.072216
20
112.127106
11
107.096162
21
111.844310
0
LINE
8
Layer 1
10
107.096162
20
111.844310
11
106.833210
21
111.855727
0
LINE
8
Layer 1
10
106.833210
20
111.855727
11
106.449098
21
111.772504
0
LINE
8
Layer 1
10
106.449098
20
111.772504
11
106.096726
21
111.276909
0
LINE
8
Layer 1
10
106.096726
20
111.276909
11
105.755319
21
110.759063
0
LINE
8
Layer 1
10
105.755319
20
110.759063
11
105.403627
21
110.543676
0
LINE
8
Layer 1
10
105.403627
20
110.543676
11
105.097450
21
110.377870
0
LINE
8
Layer 1
10
105.097450
20
110.377870
11
104.865466
21
109.979231
0
LINE
8
Layer 1
10
104.865466
20
109.979231
11
104.639674
21
109.580593
0
LINE
8
Layer 1
10
104.639674
20
109.580593
11
104.348379
21
109.414787
0
LINE
8
Layer 1
10
104.348379
20
109.414787
11
102.950193
21
108.846530
0
LINE
8
Layer 1
10
102.950193
20
108.846530
11
101.779691
21
108.435128
0
LINE
8
Layer 1
10
101.779691
20
108.435128
11
100.334993
21
108.262053
0
LINE
8
Layer 1
10
100.334993
20
108.262053
11
98.755426
21
108.332053
0
LINE
8
Layer 1
10
98.755426
20
108.332053
11
97.180315
21
108.649877
0
LINE
8
Layer 1
10
97.180315
20
108.649877
11
95.712561
21
108.931559
0
LINE
8
Layer 1
10
95.712561
20
108.931559
11
94.265737
21
108.972537
0
LINE
8
Layer 1
10
94.265737
20
108.972537
11
93.076587
21
108.785892
0
LINE
8
Layer 1
10
93.076587
20
108.785892
11
92.381860
21
108.384710
0
LINE
8
Layer 1
10
92.381860
20
108.384710
11
92.129373
21
108.138863
0
LINE
8
Layer 1
10
92.129373
20
108.138863
11
92.024355
21
108.234347
0
LINE
8
Layer 1
10
92.024355
20
108.234347
11
91.984229
21
108.417826
0
LINE
8
Layer 1
10
91.984229
20
108.417826
11
91.760854
21
108.410360
0
LINE
8
Layer 1
10
91.760854
20
108.410360
11
90.146367
21
107.620641
0
LINE
8
Layer 1
10
90.146367
20
107.620641
11
89.195639
21
107.293202
0
LINE
8
Layer 1
10
89.195639
20
107.293202
11
88.159929
21
107.157009
0
LINE
8
Layer 1
10
88.159929
20
107.157009
11
87.066875
21
106.994453
0
LINE
8
Layer 1
10
87.066875
20
106.994453
11
85.978278
21
106.603628
0
LINE
8
Layer 1
10
85.978278
20
106.603628
11
84.841046
21
106.208456
0
LINE
8
Layer 1
10
84.841046
20
106.208456
11
83.620926
21
106.081610
0
LINE
8
Layer 1
10
83.620926
20
106.081610
11
82.488570
21
106.222100
0
LINE
8
Layer 1
10
82.488570
20
106.222100
11
81.614628
21
106.628935
0
LINE
8
Layer 1
10
81.614628
20
106.628935
11
80.998704
21
107.001887
0
LINE
8
Layer 1
10
80.998704
20
107.001887
11
80.463015
21
107.157009
0
LINE
8
Layer 1
10
80.463015
20
107.157009
11
78.666631
21
107.824180
0
LINE
8
Layer 1
10
78.666631
20
107.824180
11
77.703682
21
108.223035
0
LINE
8
Layer 1
10
77.703682
20
108.223035
11
77.348800
21
108.162152
0
LINE
8
Layer 1
10
77.348800
20
108.162152
11
76.939796
21
107.782582
0
LINE
8
Layer 1
10
76.939796
20
107.782582
11
75.956445
21
107.332272
0
LINE
8
Layer 1
10
75.956445
20
107.332272
11
74.539853
21
106.973526
0
LINE
8
Layer 1
10
74.539853
20
106.973526
11
72.998223
21
107.347077
0
LINE
8
Layer 1
10
72.998223
20
107.347077
11
71.954431
21
107.768078
0
LINE
8
Layer 1
10
71.954431
20
107.768078
11
71.369437
21
108.173492
0
LINE
8
Layer 1
10
71.369437
20
108.173492
11
71.279952
21
108.522270
0
LINE
8
Layer 1
10
71.279952
20
108.522270
11
71.722686
21
108.773364
0
LINE
8
Layer 1
10
71.722686
20
108.773364
11
72.110617
21
108.978063
0
LINE
8
Layer 1
10
72.110617
20
108.978063
11
71.529789
21
109.436733
0
LINE
8
Layer 1
10
71.529789
20
109.436733
11
70.910924
21
109.754282
0
LINE
8
Layer 1
10
70.910924
20
109.754282
11
70.515525
21
109.801073
0
LINE
8
Layer 1
10
70.515525
20
109.801073
11
70.360534
21
109.766287
0
LINE
8
Layer 1
10
70.360534
20
109.766287
11
70.319671
21
109.887698
0
LINE
8
Layer 1
10
70.319671
20
109.887698
11
70.321100
21
110.365115
0
LINE
8
Layer 1
10
70.321100
20
110.365115
11
70.092022
21
110.761692
0
LINE
8
Layer 1
10
70.092022
20
110.761692
11
68.670466
21
111.593534
0
LINE
8
Layer 1
10
68.670466
20
111.593534
11
66.906577
21
112.501660
0
LINE
8
Layer 1
10
66.906577
20
112.501660
11
65.793560
21
113.251608
0
LINE
8
Layer 1
10
65.793560
20
113.251608
11
64.474259
21
113.599203
0
LINE
8
Layer 1
10
64.474259
20
113.599203
11
62.955466
21
113.860823
0
LINE
8
Layer 1
10
62.955466
20
113.860823
11
61.345429
21
114.037132
0
LINE
8
Layer 1
10
61.345429
20
114.037132
11
57.308534
21
114.159407
0
LINE
8
Layer 1
10
57.308534
20
114.159407
11
40.377689
21
114.270454
0
LINE
8
Layer 1
10
40.377689
20
114.270454
11
32.052133
21
114.283264
0
LINE
8
Layer 1
10
32.052133
20
114.283264
11
32.001093
21
99.572358
0
LINE
8
Layer 1
10
32.001093
20
99.572358
11
31.950050
21
84.861454
0
LINE
8
Layer 1
10
31.950050
20
84.861454
11
32.578692
21
84.861454
0
LINE
8
Layer 1
10
32.578692
20
84.861454
11
33.074230
21
84.941635
0
LINE
8
Layer 1
10
33.074230
20
84.941635
11
33.657946
21
85.245657
0
LINE
8
Layer 1
10
33.657946
20
85.245657
11
35.664772
21
86.906086
0
LINE
8
Layer 1
10
35.664772
20
86.906086
11
36.590533
21
87.880336
0
LINE
8
Layer 1
10
36.590533
20
87.880336
11
36.644707
21
88.193462
0
LINE
8
Layer 1
10
36.644707
20
88.193462
11
36.495389
21
88.525034
0
LINE
8
Layer 1
10
36.495389
20
88.525034
11
36.228246
21
89.026890
0
LINE
8
Layer 1
10
36.228246
20
89.026890
11
36.178951
21
89.369423
0
LINE
8
Layer 1
10
36.178951
20
89.369423
11
36.357814
21
89.598092
0
LINE
8
Layer 1
10
36.357814
20
89.598092
11
36.775147
21
89.758356
0
LINE
8
Layer 1
10
36.775147
20
89.758356
11
37.251679
21
89.955964
0
LINE
8
Layer 1
10
37.251679
20
89.955964
11
36.845703
21
90.340380
0
LINE
8
Layer 1
10
36.845703
20
90.340380
11
36.490744
21
90.745488
0
LINE
8
Layer 1
10
36.490744
20
90.745488
11
37.216946
21
91.087586
0
LINE
8
Layer 1
10
37.216946
20
91.087586
11
37.944234
21
91.444614
0
LINE
8
Layer 1
10
37.944234
20
91.444614
11
37.919104
21
91.639075
0
LINE
8
Layer 1
10
37.919104
20
91.639075
11
37.683189
21
91.931803
0
LINE
8
Layer 1
10
37.683189
20
91.931803
11
37.401217
21
92.379808
0
LINE
8
Layer 1
10
37.401217
20
92.379808
11
37.427759
21
92.732687
0
LINE
8
Layer 1
10
37.427759
20
92.732687
11
37.748277
21
92.965892
0
LINE
8
Layer 1
10
37.748277
20
92.965892
11
38.348234
21
93.054873
0
LINE
8
Layer 1
10
38.348234
20
93.054873
11
38.909076
21
93.121838
0
LINE
8
Layer 1
10
38.909076
20
93.121838
11
38.613800
21
93.438766
0
LINE
8
Layer 1
10
38.613800
20
93.438766
11
38.262030
21
93.796158
0
LINE
8
Layer 1
10
38.262030
20
93.796158
11
38.136959
21
94.124146
0
LINE
8
Layer 1
10
38.136959
20
94.124146
11
38.240784
21
94.364006
0
LINE
8
Layer 1
10
38.240784
20
94.364006
11
38.575702
21
94.457009
0
LINE
8
Layer 1
10
38.575702
20
94.457009
11
38.882426
21
94.573509
0
LINE
8
Layer 1
10
38.882426
20
94.573509
11
38.553153
21
95.187050
0
LINE
8
Layer 1
10
38.553153
20
95.187050
11
38.167917
21
95.995490
0
LINE
8
Layer 1
10
38.167917
20
95.995490
11
38.896022
21
96.404266
0
LINE
8
Layer 1
10
38.896022
20
96.404266
11
39.353625
21
96.701124
0
LINE
8
Layer 1
10
39.353625
20
96.701124
11
39.495440
21
96.968079
0
LINE
8
Layer 1
10
39.495440
20
96.968079
11
39.319908
21
97.229587
0
LINE
8
Layer 1
10
39.319908
20
97.229587
11
38.825466
21
97.510103
0
LINE
8
Layer 1
10
38.825466
20
97.510103
11
38.316140
21
97.811887
0
LINE
8
Layer 1
10
38.316140
20
97.811887
11
38.152537
21
98.089224
0
LINE
8
Layer 1
10
38.152537
20
98.089224
11
38.334328
21
98.332720
0
LINE
8
Layer 1
10
38.334328
20
98.332720
11
38.861187
21
98.532978
0
LINE
8
Layer 1
10
38.861187
20
98.532978
11
39.602464
21
98.719028
0
LINE
8
Layer 1
10
39.602464
20
98.719028
11
39.002298
21
99.357874
0
LINE
8
Layer 1
10
39.002298
20
99.357874
11
38.551491
21
99.933462
0
LINE
8
Layer 1
10
38.551491
20
99.933462
11
38.439269
21
100.341850
0
LINE
8
Layer 1
10
38.439269
20
100.341850
11
38.666023
21
100.585256
0
LINE
8
Layer 1
10
38.666023
20
100.585256
11
39.232143
21
100.665898
0
LINE
8
Layer 1
10
39.232143
20
100.665898
11
39.924634
21
100.755090
0
LINE
8
Layer 1
10
39.924634
20
100.755090
11
40.224337
21
100.980687
0
LINE
8
Layer 1
10
40.224337
20
100.980687
11
40.109110
21
101.279720
0
LINE
8
Layer 1
10
40.109110
20
101.279720
11
39.556811
21
101.589219
0
LINE
8
Layer 1
10
39.556811
20
101.589219
11
38.841750
21
101.967623
0
LINE
8
Layer 1
10
38.841750
20
101.967623
11
38.697173
21
102.306062
0
LINE
8
Layer 1
10
38.697173
20
102.306062
11
39.099440
21
102.551015
0
LINE
8
Layer 1
10
39.099440
20
102.551015
11
40.024911
21
102.648964
0
LINE
8
Layer 1
10
40.024911
20
102.648964
11
41.365466
21
102.656473
0
LINE
8
Layer 1
10
41.365466
20
102.656473
11
40.589355
21
103.137665
0
LINE
8
Layer 1
10
40.589355
20
103.137665
11
39.894834
21
103.687819
0
LINE
8
Layer 1
10
39.894834
20
103.687819
11
39.803910
21
104.073865
0
LINE
8
Layer 1
10
39.803910
20
104.073865
11
40.295499
21
104.265409
0
LINE
8
Layer 1
10
40.295499
20
104.265409
11
41.348519
21
104.232058
0
LINE
8
Layer 1
10
41.348519
20
104.232058
11
42.395686
21
104.177588
0
LINE
8
Layer 1
10
42.395686
20
104.177588
11
42.988049
21
104.313186
0
LINE
8
Layer 1
10
42.988049
20
104.313186
11
43.124419
21
104.638101
0
LINE
8
Layer 1
10
43.124419
20
104.638101
11
42.803609
21
105.151583
0
LINE
8
Layer 1
10
42.803609
20
105.151583
11
42.540118
21
105.559457
0
LINE
8
Layer 1
10
42.540118
20
105.559457
11
42.540775
21
105.839356
0
LINE
8
Layer 1
10
42.540775
20
105.839356
11
42.963558
21
105.988827
0
LINE
8
Layer 1
10
42.963558
20
105.988827
11
43.643015
21
106.021350
0
LINE
8
Layer 1
10
43.643015
20
106.021350
11
44.327719
21
105.945002
0
LINE
8
Layer 1
10
44.327719
20
105.945002
11
44.766244
21
105.767861
0
LINE
8
Layer 1
10
44.766244
20
105.767861
11
46.117614
21
105.308442
0
LINE
8
Layer 1
10
46.117614
20
105.308442
11
46.998899
21
105.218197
0
LINE
8
Layer 1
10
46.998899
20
105.218197
11
47.019054
21
105.367971
0
LINE
8
Layer 1
10
47.019054
20
105.367971
11
46.838382
21
105.689730
0
LINE
8
Layer 1
10
46.838382
20
105.689730
11
46.391371
21
106.186694
0
LINE
8
Layer 1
10
46.391371
20
106.186694
11
45.825678
21
106.566431
0
LINE
8
Layer 1
10
45.825678
20
106.566431
11
45.216313
21
107.038451
0
LINE
8
Layer 1
10
45.216313
20
107.038451
11
45.199786
21
107.249346
0
LINE
8
Layer 1
10
45.199786
20
107.249346
11
45.344468
21
107.422367
0
LINE
8
Layer 1
10
45.344468
20
107.422367
11
46.024782
21
107.591401
0
LINE
8
Layer 1
10
46.024782
20
107.591401
11
47.071892
21
107.418776
0
LINE
8
Layer 1
10
47.071892
20
107.418776
11
47.762559
21
107.234211
0
LINE
8
Layer 1
10
47.762559
20
107.234211
11
48.127768
21
107.255709
0
LINE
8
Layer 1
10
48.127768
20
107.255709
11
48.186409
21
107.494885
0
LINE
8
Layer 1
10
48.186409
20
107.494885
11
47.957370
21
107.963358
0
LINE
8
Layer 1
10
47.957370
20
107.963358
11
47.732950
21
108.491530
0
LINE
8
Layer 1
10
47.732950
20
108.491530
11
47.915331
21
108.743736
0
LINE
8
Layer 1
10
47.915331
20
108.743736
11
48.534389
21
108.728822
0
LINE
8
Layer 1
10
48.534389
20
108.728822
11
49.620001
21
108.455635
0
LINE
8
Layer 1
10
49.620001
20
108.455635
11
51.517188
21
107.926323
0
LINE
8
Layer 1
10
51.517188
20
107.926323
11
52.433757
21
107.813461
0
LINE
8
Layer 1
10
52.433757
20
107.813461
11
52.560064
21
107.921198
0
LINE
8
Layer 1
10
52.560064
20
107.921198
11
52.484121
21
108.142647
0
LINE
8
Layer 1
10
52.484121
20
108.142647
11
51.782695
21
108.939477
0
LINE
8
Layer 1
10
51.782695
20
108.939477
11
51.325538
21
109.483982
0
LINE
8
Layer 1
10
51.325538
20
109.483982
11
51.212560
21
109.840162
0
LINE
8
Layer 1
10
51.212560
20
109.840162
11
51.410374
21
110.013136
0
LINE
8
Layer 1
10
51.410374
20
110.013136
11
51.885596
21
110.008025
0
LINE
8
Layer 1
10
51.885596
20
110.008025
11
53.534718
21
109.484027
0
LINE
8
Layer 1
10
53.534718
20
109.484027
11
55.892835
21
108.309131
0
LINE
8
Layer 1
10
55.892835
20
108.309131
11
57.914320
21
107.236890
0
LINE
8
Layer 1
10
57.914320
20
107.236890
11
58.133483
21
107.263929
0
LINE
8
Layer 1
10
58.133483
20
107.263929
11
58.051531
21
107.591025
0
LINE
8
Layer 1
10
58.051531
20
107.591025
11
58.044713
21
108.021994
0
LINE
8
Layer 1
10
58.044713
20
108.021994
11
58.407806
21
108.172891
0
LINE
8
Layer 1
10
58.407806
20
108.172891
11
59.059403
21
108.042104
0
LINE
8
Layer 1
10
59.059403
20
108.042104
11
59.918095
21
107.628018
0
LINE
8
Layer 1
10
59.918095
20
107.628018
11
63.490622
21
104.988606
0
LINE
8
Layer 1
10
63.490622
20
104.988606
11
66.017633
21
102.954469
0
LINE
8
Layer 1
10
66.017633
20
102.954469
11
66.916981
21
102.360549
0
LINE
8
Layer 1
10
66.916981
20
102.360549
11
67.779891
21
101.982891
0
LINE
8
Layer 1
10
67.779891
20
101.982891
11
68.761111
21
101.772116
0
LINE
8
Layer 1
10
68.761111
20
101.772116
11
70.015392
21
101.678847
0
LINE
8
Layer 1
10
70.015392
20
101.678847
11
73.962133
21
101.647312
0
LINE
8
Layer 1
10
73.962133
20
101.647312
11
79.593573
21
101.500498
0
LINE
8
Layer 1
10
79.593573
20
101.500498
11
81.345057
21
101.262608
0
LINE
8
Layer 1
10
81.345057
20
101.262608
11
83.275466
21
100.837848
0
LINE
8
Layer 1
10
83.275466
20
100.837848
11
87.468707
21
99.937319
0
LINE
8
Layer 1
10
87.468707
20
99.937319
11
88.644572
21
99.673867
0
LINE
8
Layer 1
10
88.644572
20
99.673867
11
90.519109
21
99.354629
0
LINE
8
Layer 1
10
90.519109
20
99.354629
11
92.452813
21
98.950115
0
LINE
8
Layer 1
10
92.452813
20
98.950115
11
94.790023
21
98.227823
0
LINE
8
Layer 1
10
94.790023
20
98.227823
11
98.049690
21
97.279231
0
LINE
8
Layer 1
10
98.049690
20
97.279231
11
98.593307
21
97.184161
0
LINE
8
Layer 1
10
98.593307
20
97.184161
11
99.008444
21
96.955587
0
LINE
8
Layer 1
10
99.008444
20
96.955587
11
99.883926
21
96.694218
0
LINE
8
Layer 1
10
99.883926
20
96.694218
11
101.534333
21
96.520296
0
LINE
8
Layer 1
10
101.534333
20
96.520296
11
103.338377
21
96.331436
0
LINE
8
Layer 1
10
103.338377
20
96.331436
11
104.583244
21
96.034143
0
LINE
8
Layer 1
10
104.583244
20
96.034143
11
107.546577
21
95.159455
0
LINE
8
Layer 1
10
107.546577
20
95.159455
11
108.953474
21
94.745637
0
LINE
8
Layer 1
10
108.953474
20
94.745637
11
109.997350
21
94.234695
0
LINE
8
Layer 1
10
109.997350
20
94.234695
11
110.683928
21
93.594992
0
LINE
8
Layer 1
10
110.683928
20
93.594992
11
111.018930
21
92.794890
0
LINE
8
Layer 1
10
111.018930
20
92.794890
11
111.008077
21
91.802753
0
LINE
8
Layer 1
10
111.008077
20
91.802753
11
110.657093
21
90.586942
0
LINE
8
Layer 1
10
110.657093
20
90.586942
11
109.971698
21
89.115821
0
LINE
8
Layer 1
10
109.971698
20
89.115821
11
108.957615
21
87.357752
0
LINE
8
Layer 1
10
108.957615
20
87.357752
11
108.334635
21
86.160057
0
LINE
8
Layer 1
10
108.334635
20
86.160057
11
108.355726
21
85.850408
0
LINE
8
Layer 1
10
108.355726
20
85.850408
11
108.564062
21
85.577621
0
LINE
8
Layer 1
10
108.564062
20
85.577621
11
109.064901
21
85.301681
0
LINE
8
Layer 1
10
109.064901
20
85.301681
11
109.687320
21
85.316049
0
LINE
8
Layer 1
10
109.687320
20
85.316049
11
110.246305
21
85.350241
0
LINE
8
Layer 1
10
110.246305
20
85.350241
11
110.748986
21
85.147098
0
LINE
8
Layer 1
10
110.748986
20
85.147098
11
111.213118
21
84.694580
0
LINE
8
Layer 1
10
111.213118
20
84.694580
11
111.656453
21
83.980647
0
LINE
8
Layer 1
10
111.656453
20
83.980647
11
111.888912
21
83.253262
0
LINE
8
Layer 1
10
111.888912
20
83.253262
11
111.780753
21
82.513128
0
LINE
8
Layer 1
10
111.780753
20
82.513128
11
111.294361
21
81.659410
0
LINE
8
Layer 1
10
111.294361
20
81.659410
11
110.392120
21
80.591273
0
LINE
8
Layer 1
10
110.392120
20
80.591273
11
109.243430
21
79.183958
0
LINE
8
Layer 1
10
109.243430
20
79.183958
11
108.879235
21
78.784758
0
LINE
8
Layer 1
10
108.879235
20
78.784758
11
107.981058
21
78.194501
0
LINE
8
Layer 1
10
107.981058
20
78.194501
11
105.688731
21
77.091760
0
LINE
8
Layer 1
10
105.688731
20
77.091760
11
104.047767
21
76.729774
0
LINE
8
Layer 1
10
104.047767
20
76.729774
11
102.043244
21
76.546270
0
LINE
8
Layer 1
10
102.043244
20
76.546270
11
100.223448
21
76.452969
0
LINE
8
Layer 1
10
100.223448
20
76.452969
11
98.799189
21
76.234848
0
LINE
8
Layer 1
10
98.799189
20
76.234848
11
97.444734
21
75.817403
0
LINE
8
Layer 1
10
97.444734
20
75.817403
11
95.834355
21
75.126130
0
LINE
8
Layer 1
10
95.834355
20
75.126130
11
93.153244
21
74.041192
0
LINE
8
Layer 1
10
93.153244
20
74.041192
11
92.364786
21
73.660948
0
LINE
8
Layer 1
10
92.364786
20
73.660948
11
91.459911
21
72.988991
0
LINE
8
Layer 1
10
91.459911
20
72.988991
11
90.183250
21
72.027459
0
LINE
8
Layer 1
10
90.183250
20
72.027459
11
88.815538
21
71.327675
0
LINE
8
Layer 1
10
88.815538
20
71.327675
11
87.381463
21
70.899576
0
LINE
8
Layer 1
10
87.381463
20
70.899576
11
85.905713
21
70.753100
0
LINE
8
Layer 1
10
85.905713
20
70.753100
11
84.152945
21
70.574764
0
LINE
8
Layer 1
10
84.152945
20
70.574764
11
82.377935
21
69.940765
0
LINE
8
Layer 1
10
82.377935
20
69.940765
11
78.971577
21
68.404156
0
LINE
8
Layer 1
10
78.971577
20
68.404156
11
78.036695
21
67.931640
0
LINE
8
Layer 1
10
78.036695
20
67.931640
11
77.503592
21
67.482401
0
LINE
8
Layer 1
10
77.503592
20
67.482401
11
77.287054
21
66.944192
0
LINE
8
Layer 1
10
77.287054
20
66.944192
11
77.301866
21
66.204767
0
LINE
8
Layer 1
10
77.301866
20
66.204767
11
77.452274
21
64.401889
0
LINE
8
Layer 1
10
77.452274
20
64.401889
11
77.613699
21
63.198744
0
LINE
8
Layer 1
10
77.613699
20
63.198744
11
77.818561
21
62.597465
0
LINE
8
Layer 1
10
77.818561
20
62.597465
11
78.126731
21
62.052871
0
LINE
8
Layer 1
10
78.126731
20
62.052871
11
78.096516
21
61.847545
0
LINE
8
Layer 1
10
78.096516
20
61.847545
11
77.920238
21
61.856022
0
LINE
8
Layer 1
10
77.920238
20
61.856022
11
77.715979
21
61.894465
0
LINE
8
Layer 1
10
77.715979
20
61.894465
11
77.631022
21
61.735888
0
LINE
8
Layer 1
10
77.631022
20
61.735888
11
77.730505
21
61.524805
0
LINE
8
Layer 1
10
77.730505
20
61.524805
11
77.969689
21
61.437009
0
LINE
8
Layer 1
10
77.969689
20
61.437009
11
78.167243
21
61.366453
0
LINE
8
Layer 1
10
78.167243
20
61.366453
11
77.969689
21
61.098343
0
LINE
8
Layer 1
10
77.969689
20
61.098343
11
77.639590
21
60.529969
0
LINE
8
Layer 1
10
77.639590
20
60.529969
11
77.689761
21
60.385617
0
LINE
8
Layer 1
10
77.689761
20
60.385617
11
77.895106
21
60.438022
0
LINE
8
Layer 1
10
77.895106
20
60.438022
11
78.001893
21
60.293793
0
LINE
8
Layer 1
10
78.001893
20
60.293793
11
77.867702
21
59.678564
0
LINE
8
Layer 1
10
77.867702
20
59.678564
11
77.519705
21
58.327603
0
LINE
8
Layer 1
10
77.519705
20
58.327603
11
77.218585
21
57.503531
0
LINE
8
Layer 1
10
77.218585
20
57.503531
11
77.133091
21
57.233917
0
LINE
8
Layer 1
10
77.133091
20
57.233917
11
77.467198
21
57.297018
0
LINE
8
Layer 1
10
77.467198
20
57.297018
11
77.805503
21
57.351378
0
LINE
8
Layer 1
10
77.805503
20
57.351378
11
77.830993
21
57.133312
0
LINE
8
Layer 1
10
77.830993
20
57.133312
11
77.640165
21
56.906808
0
LINE
8
Layer 1
10
77.640165
20
56.906808
11
77.363100
21
56.857892
0
LINE
8
Layer 1
10
77.363100
20
56.857892
11
77.178805
21
56.819287
0
LINE
8
Layer 1
10
77.178805
20
56.819287
11
77.229829
21
56.603409
0
LINE
8
Layer 1
10
77.229829
20
56.603409
11
77.221321
21
56.253920
0
LINE
8
Layer 1
10
77.221321
20
56.253920
11
76.898029
21
55.878713
0
LINE
8
Layer 1
10
76.898029
20
55.878713
11
76.464846
21
55.427637
0
LINE
8
Layer 1
10
76.464846
20
55.427637
11
76.145678
21
54.356872
0
LINE
8
Layer 1
10
76.145678
20
54.356872
11
75.528946
21
52.734094
0
LINE
8
Layer 1
10
75.528946
20
52.734094
11
75.314802
21
52.302986
0
LINE
8
Layer 1
10
75.314802
20
52.302986
11
75.072003
21
52.123676
0
LINE
8
Layer 1
10
75.072003
20
52.123676
11
74.886116
21
51.999322
0
LINE
8
Layer 1
10
74.886116
20
51.999322
11
74.808800
21
51.700343
0
LINE
8
Layer 1
10
74.808800
20
51.700343
11
74.721004
21
51.401363
0
LINE
8
Layer 1
10
74.721004
20
51.401363
11
74.509921
21
51.277009
0
LINE
8
Layer 1
10
74.509921
20
51.277009
11
74.349489
21
51.195055
0
LINE
8
Layer 1
10
74.349489
20
51.195055
11
74.383468
21
50.998018
0
LINE
8
Layer 1
10
74.383468
20
50.998018
11
74.381946
21
50.846427
0
LINE
8
Layer 1
10
74.381946
20
50.846427
11
74.117903
21
50.887102
0
LINE
8
Layer 1
10
74.117903
20
50.887102
11
73.808571
21
50.915145
0
LINE
8
Layer 1
10
73.808571
20
50.915145
11
73.679911
21
50.746547
0
LINE
8
Layer 1
10
73.679911
20
50.746547
11
73.387552
21
50.413393
0
LINE
8
Layer 1
10
73.387552
20
50.413393
11
72.684370
21
50.030484
0
LINE
8
Layer 1
10
72.684370
20
50.030484
11
71.831205
21
49.714889
0
LINE
8
Layer 1
10
71.831205
20
49.714889
11
71.088896
21
49.583676
0
LINE
8
Layer 1
10
71.088896
20
49.583676
11
70.370082
21
49.851144
0
LINE
8
Layer 1
10
70.370082
20
49.851144
11
69.409335
21
50.494207
0
LINE
8
Layer 1
10
69.409335
20
50.494207
11
68.554921
21
51.339111
0
LINE
8
Layer 1
10
68.554921
20
51.339111
11
68.398164
21
51.684711
0
LINE
8
Layer 1
10
68.398164
20
51.684711
11
68.394047
21
52.020662
0
LINE
8
Layer 1
10
68.394047
20
52.020662
11
68.393838
21
52.447627
0
LINE
8
Layer 1
10
68.393838
20
52.447627
11
68.161064
21
52.502003
0
LINE
8
Layer 1
10
68.161064
20
52.502003
11
67.850717
21
52.508316
0
LINE
8
Layer 1
10
67.850717
20
52.508316
11
67.597074
21
52.712485
0
LINE
8
Layer 1
10
67.597074
20
52.712485
11
67.524081
21
52.915370
0
LINE
8
Layer 1
10
67.524081
20
52.915370
11
67.709638
21
52.856181
0
LINE
8
Layer 1
10
67.709638
20
52.856181
11
68.014836
21
52.772568
0
LINE
8
Layer 1
10
68.014836
20
52.772568
11
68.001097
21
53.040062
0
LINE
8
Layer 1
10
68.001097
20
53.040062
11
67.190106
21
54.185092
0
LINE
8
Layer 1
10
67.190106
20
54.185092
11
66.592686
21
54.930593
0
LINE
8
Layer 1
10
66.592686
20
54.930593
11
66.343440
21
55.456444
0
LINE
8
Layer 1
10
66.343440
20
55.456444
11
66.248143
21
55.660558
0
LINE
8
Layer 1
10
66.248143
20
55.660558
11
66.016305
21
55.624504
0
LINE
8
Layer 1
10
66.016305
20
55.624504
11
65.830065
21
55.566841
0
LINE
8
Layer 1
10
65.830065
20
55.566841
11
65.918311
21
55.791775
0
LINE
8
Layer 1
10
65.918311
20
55.791775
11
65.970835
21
56.144373
0
LINE
8
Layer 1
10
65.970835
20
56.144373
11
65.732759
21
56.470378
0
LINE
8
Layer 1
10
65.732759
20
56.470378
11
65.175475
21
57.172762
0
LINE
8
Layer 1
10
65.175475
20
57.172762
11
64.812635
21
58.050343
0
LINE
8
Layer 1
10
64.812635
20
58.050343
11
64.153260
21
59.212542
0
LINE
8
Layer 1
10
64.153260
20
59.212542
11
63.765409
21
59.971974
0
LINE
8
Layer 1
10
63.765409
20
59.971974
11
63.539906
21
60.725537
0
LINE
8
Layer 1
10
63.539906
20
60.725537
11
63.473493
21
61.459883
0
LINE
8
Layer 1
10
63.473493
20
61.459883
11
63.562909
21
62.161661
0
LINE
8
Layer 1
10
63.562909
20
62.161661
11
63.804897
21
62.817521
0
LINE
8
Layer 1
10
63.804897
20
62.817521
11
64.196198
21
63.414113
0
LINE
8
Layer 1
10
64.196198
20
63.414113
11
64.733553
21
63.938089
0
LINE
8
Layer 1
10
64.733553
20
63.938089
11
65.413704
21
64.376097
0
LINE
8
Layer 1
10
65.413704
20
64.376097
11
66.301661
21
64.876818
0
LINE
8
Layer 1
10
66.301661
20
64.876818
11
66.538317
21
65.092758
0
LINE
8
Layer 1
10
66.538317
20
65.092758
11
65.003413
21
64.501478
0
LINE
8
Layer 1
10
65.003413
20
64.501478
11
63.531504
21
63.567646
0
LINE
8
Layer 1
10
63.531504
20
63.567646
11
62.915300
21
63.130343
0
LINE
8
Layer 1
10
62.915300
20
63.130343
11
61.609303
21
62.466107
0
LINE
8
Layer 1
10
61.609303
20
62.466107
11
59.829531
21
61.645818
0
LINE
8
Layer 1
10
59.829531
20
61.645818
11
57.028800
21
60.606395
0
LINE
8
Layer 1
10
57.028800
20
60.606395
11
54.371501
21
59.612415
0
LINE
8
Layer 1
10
54.371501
20
59.612415
11
52.936577
21
58.901375
0
LINE
8
Layer 1
10
52.936577
20
58.901375
11
52.010347
21
58.178137
0
LINE
8
Layer 1
10
52.010347
20
58.178137
11
51.054894
21
57.646080
0
LINE
8
Layer 1
10
51.054894
20
57.646080
11
50.097570
21
57.317509
0
LINE
8
Layer 1
10
50.097570
20
57.317509
11
49.165724
21
57.204731
0
LINE
8
Layer 1
10
49.165724
20
57.204731
11
47.934872
21
57.203676
0
LINE
8
Layer 1
10
47.934872
20
57.203676
11
48.106601
21
58.120898
0
LINE
8
Layer 1
10
48.106601
20
58.120898
11
48.278330
21
59.038120
0
LINE
8
Layer 1
10
48.278330
20
59.038120
11
44.539676
21
59.035219
0
LINE
8
Layer 1
10
44.539676
20
59.035219
11
41.236760
21
58.930679
0
LINE
8
Layer 1
10
41.236760
20
58.930679
11
40.435151
21
58.738797
0
LINE
8
Layer 1
10
40.435151
20
58.738797
11
39.774416
21
58.396810
0
LINE
8
Layer 1
10
39.774416
20
58.396810
11
38.358920
21
57.290194
0
LINE
8
Layer 1
10
38.358920
20
57.290194
11
38.085104
21
56.953966
0
LINE
8
Layer 1
10
38.085104
20
56.953966
11
38.402133
21
57.056903
0
LINE
8
Layer 1
10
38.402133
20
57.056903
11
38.575833
21
57.078474
0
LINE
8
Layer 1
10
38.575833
20
57.078474
11
38.293858
21
56.694400
0
LINE
8
Layer 1
10
38.293858
20
56.694400
11
37.864430
21
56.299561
0
LINE
8
Layer 1
10
37.864430
20
56.299561
11
37.578484
21
56.201671
0
LINE
8
Layer 1
10
37.578484
20
56.201671
11
37.293054
21
56.003603
0
LINE
8
Layer 1
10
37.293054
20
56.003603
11
36.889218
21
55.264310
0
LINE
8
Layer 1
10
36.889218
20
55.264310
11
35.950087
21
52.831013
0
LINE
8
Layer 1
10
35.950087
20
52.831013
11
35.208600
21
50.239717
0
LINE
8
Layer 1
10
35.208600
20
50.239717
11
35.051821
21
49.302923
0
LINE
8
Layer 1
10
35.051821
20
49.302923
11
35.112269
21
48.828356
0
LINE
8
Layer 1
10
35.112269
20
48.828356
11
34.855026
21
47.948294
0
LINE
8
Layer 1
10
34.855026
20
47.948294
11
34.663309
21
47.518018
0
LINE
8
Layer 1
10
34.663309
20
47.518018
11
34.644440
21
47.188807
0
LINE
8
Layer 1
10
34.644440
20
47.188807
11
35.234888
21
46.381264
0
LINE
8
Layer 1
10
35.234888
20
46.381264
11
36.067700
21
45.681542
0
LINE
8
Layer 1
10
36.067700
20
45.681542
11
36.991022
21
45.148221
0
LINE
8
Layer 1
10
36.991022
20
45.148221
11
37.910720
21
44.645850
0
LINE
8
Layer 1
10
37.910720
20
44.645850
11
38.734814
21
44.020545
0
LINE
8
Layer 1
10
38.734814
20
44.020545
11
39.589733
21
43.463648
0
LINE
8
Layer 1
10
39.589733
20
43.463648
11
40.710369
21
43.325737
0
LINE
8
Layer 1
10
40.710369
20
43.325737
11
41.782718
21
43.204096
0
LINE
8
Layer 1
10
41.782718
20
43.204096
11
42.635466
21
42.874054
0
LINE
8
Layer 1
10
42.635466
20
42.874054
11
43.244062
21
42.565660
0
LINE
8
Layer 1
10
43.244062
20
42.565660
11
43.716499
21
42.483811
0
LINE
8
Layer 1
10
43.716499
20
42.483811
11
44.184611
21
42.406977
0
LINE
8
Layer 1
10
44.184611
20
42.406977
11
44.782805
21
42.110643
0
LINE
8
Layer 1
10
44.782805
20
42.110643
11
45.334496
21
41.830387
0
LINE
8
Layer 1
10
45.334496
20
41.830387
11
45.690801
21
41.792215
0
LINE
8
Layer 1
10
45.690801
20
41.792215
11
46.294271
21
41.687685
0
LINE
8
Layer 1
10
46.294271
20
41.687685
11
46.750002
21
41.588612
0
LINE
8
Layer 1
10
46.750002
20
41.588612
11
47.303230
21
41.685673
0
LINE
8
Layer 1
10
47.303230
20
41.685673
11
47.865323
21
41.742676
0
LINE
8
Layer 1
10
47.865323
20
41.742676
11
48.237961
21
41.237487
0
LINE
8
Layer 1
10
48.237961
20
41.237487
11
48.481143
21
40.807066
0
LINE
8
Layer 1
10
48.481143
20
40.807066
11
48.816538
21
40.614610
0
LINE
8
Layer 1
10
48.816538
20
40.614610
11
50.464435
21
40.808690
0
LINE
8
Layer 1
10
50.464435
20
40.808690
11
51.452314
21
40.904698
0
LINE
8
Layer 1
10
51.452314
20
40.904698
11
51.955181
21
40.685988
0
LINE
8
Layer 1
10
51.955181
20
40.685988
11
52.874758
21
40.230667
0
LINE
8
Layer 1
10
52.874758
20
40.230667
11
54.527292
21
39.916140
0
LINE
8
Layer 1
10
54.527292
20
39.916140
11
54.812139
21
39.773887
0
LINE
8
Layer 1
10
54.812139
20
39.773887
11
54.848466
21
39.500646
0
LINE
8
Layer 1
10
54.848466
20
39.500646
11
54.985620
21
39.150579
0
LINE
8
Layer 1
10
54.985620
20
39.150579
11
55.586088
21
38.827958
0
LINE
8
Layer 1
10
55.586088
20
38.827958
11
56.206364
21
38.495484
0
LINE
8
Layer 1
10
56.206364
20
38.495484
11
56.464355
21
38.126066
0
LINE
8
Layer 1
10
56.464355
20
38.126066
11
56.727263
21
37.821479
0
LINE
8
Layer 1
10
56.727263
20
37.821479
11
57.321516
21
37.726980
0
LINE
8
Layer 1
10
57.321516
20
37.726980
11
57.955407
21
37.838521
0
LINE
8
Layer 1
10
57.955407
20
37.838521
11
58.337230
21
38.152056
0
LINE
8
Layer 1
10
58.337230
20
38.152056
11
58.524874
21
38.404554
0
LINE
8
Layer 1
10
58.524874
20
38.404554
11
58.748775
21
38.419433
0
LINE
8
Layer 1
10
58.748775
20
38.419433
11
60.588203
21
38.558970
0
LINE
8
Layer 1
10
60.588203
20
38.558970
11
62.316056
21
38.683641
0
LINE
8
Layer 1
10
62.316056
20
38.683641
11
64.574908
21
38.157929
0
LINE
8
Layer 1
10
64.574908
20
38.157929
11
67.301361
21
37.189591
0
LINE
8
Layer 1
10
67.301361
20
37.189591
11
67.878701
21
37.089673
0
LINE
8
Layer 1
10
67.878701
20
37.089673
11
68.825224
21
37.185080
0
LINE
8
Layer 1
10
68.825224
20
37.185080
11
69.756050
21
37.410115
0
LINE
8
Layer 1
10
69.756050
20
37.410115
11
70.286301
21
37.699086
0
LINE
8
Layer 1
10
70.286301
20
37.699086
11
70.967581
21
38.294452
0
LINE
8
Layer 1
10
70.967581
20
38.294452
11
72.114659
21
39.024085
0
LINE
8
Layer 1
10
72.114659
20
39.024085
11
73.274822
21
39.626600
0
LINE
8
Layer 1
10
73.274822
20
39.626600
11
73.995359
21
39.840611
0
LINE
8
Layer 1
10
73.995359
20
39.840611
11
74.370532
21
39.840915
0
LINE
8
Layer 1
10
74.370532
20
39.840915
11
74.526577
21
39.985307
0
LINE
8
Layer 1
10
74.526577
20
39.985307
11
74.713109
21
40.217962
0
LINE
8
Layer 1
10
74.713109
20
40.217962
11
75.161577
21
40.430473
0
LINE
8
Layer 1
10
75.161577
20
40.430473
11
76.003923
21
40.943380
0
LINE
8
Layer 1
10
76.003923
20
40.943380
11
76.163261
21
41.100278
0
LINE
8
Layer 1
10
76.163261
20
41.100278
11
76.215590
21
40.905343
0
LINE
8
Layer 1
10
76.215590
20
40.905343
11
76.367866
21
40.656193
0
LINE
8
Layer 1
10
76.367866
20
40.656193
11
76.727911
21
40.552565
0
LINE
8
Layer 1
10
76.727911
20
40.552565
11
77.207657
21
40.454508
0
LINE
8
Layer 1
10
77.207657
20
40.454508
11
77.582389
21
40.179784
0
LINE
8
Layer 1
10
77.582389
20
40.179784
11
77.826215
21
39.757567
0
LINE
8
Layer 1
10
77.826215
20
39.757567
11
77.913244
21
39.217027
0
LINE
8
Layer 1
10
77.913244
20
39.217027
11
78.064214
21
38.684435
0
LINE
8
Layer 1
10
78.064214
20
38.684435
11
78.460848
21
38.356249
0
LINE
8
Layer 1
10
78.460848
20
38.356249
11
79.025293
21
37.942009
0
LINE
8
Layer 1
10
79.025293
20
37.942009
11
79.077411
21
37.589231
0
LINE
8
Layer 1
10
79.077411
20
37.589231
11
79.147966
21
37.109109
0
LINE
8
Layer 1
10
79.147966
20
37.109109
11
79.437799
21
36.749860
0
LINE
8
Layer 1
10
79.437799
20
36.749860
11
80.122944
21
36.317543
0
LINE
8
Layer 1
10
80.122944
20
36.317543
11
81.934911
21
35.628978
0
LINE
8
Layer 1
10
81.934911
20
35.628978
11
82.483039
21
35.435969
0
LINE
8
Layer 1
10
82.483039
20
35.435969
11
82.711022
21
35.206675
0
LINE
8
Layer 1
10
82.711022
20
35.206675
11
82.961577
21
34.767598
0
LINE
8
Layer 1
10
82.961577
20
34.767598
11
83.554411
21
34.115371
0
LINE
8
Layer 1
10
83.554411
20
34.115371
11
84.813919
21
33.118010
0
LINE
8
Layer 1
10
84.813919
20
33.118010
11
85.122623
21
32.875720
0
LINE
8
Layer 1
10
85.122623
20
32.875720
11
85.251022
21
32.528724
0
LINE
8
Layer 1
10
85.251022
20
32.528724
11
85.355109
21
32.349485
0
LINE
8
Layer 1
10
85.355109
20
32.349485
11
85.641435
21
32.235919
0
LINE
8
Layer 1
10
85.641435
20
32.235919
11
86.605171
21
32.195190
0
LINE
8
Layer 1
10
86.605171
20
32.195190
11
87.830978
21
32.385303
0
LINE
8
Layer 1
10
87.830978
20
32.385303
11
89.007603
21
32.785022
0
LINE
8
Layer 1
10
89.007603
20
32.785022
11
89.007603
21
32.785022
0
LINE
8
Layer 1
10
90.570671
20
50.208747
11
90.489309
21
51.700343
0
LINE
8
Layer 1
10
90.489309
20
51.700343
11
90.392292
21
54.295969
0
LINE
8
Layer 1
10
90.392292
20
54.295969
11
90.223052
21
55.681124
0
LINE
8
Layer 1
10
90.223052
20
55.681124
11
89.812230
21
56.499026
0
LINE
8
Layer 1
10
89.812230
20
56.499026
11
88.990466
21
57.392892
0
LINE
8
Layer 1
10
88.990466
20
57.392892
11
87.778521
21
58.484083
0
LINE
8
Layer 1
10
87.778521
20
58.484083
11
86.747175
21
59.116417
0
LINE
8
Layer 1
10
86.747175
20
59.116417
11
85.995512
21
59.287989
0
LINE
8
Layer 1
10
85.995512
20
59.287989
11
86.128499
21
58.674861
0
LINE
8
Layer 1
10
86.128499
20
58.674861
11
86.719822
21
57.576904
0
LINE
8
Layer 1
10
86.719822
20
57.576904
11
87.007539
21
57.351132
0
LINE
8
Layer 1
10
87.007539
20
57.351132
11
87.265547
21
57.368872
0
LINE
8
Layer 1
10
87.265547
20
57.368872
11
87.435349
21
57.412813
0
LINE
8
Layer 1
10
87.435349
20
57.412813
11
87.482372
21
57.295209
0
LINE
8
Layer 1
10
87.482372
20
57.295209
11
87.499839
21
56.625688
0
LINE
8
Layer 1
10
87.499839
20
56.625688
11
87.610551
21
56.471036
0
LINE
8
Layer 1
10
87.610551
20
56.471036
11
87.771520
21
56.486067
0
LINE
8
Layer 1
10
87.771520
20
56.486067
11
88.002902
21
56.526581
0
LINE
8
Layer 1
10
88.002902
20
56.526581
11
88.190273
21
56.395976
0
LINE
8
Layer 1
10
88.190273
20
56.395976
11
88.068438
21
56.203020
0
LINE
8
Layer 1
10
88.068438
20
56.203020
11
87.590575
21
56.006561
0
LINE
8
Layer 1
10
87.590575
20
56.006561
11
86.193593
21
55.792565
0
LINE
8
Layer 1
10
86.193593
20
55.792565
11
85.940517
21
55.910181
0
LINE
8
Layer 1
10
85.940517
20
55.910181
11
86.101256
21
56.363672
0
LINE
8
Layer 1
10
86.101256
20
56.363672
11
86.256524
21
56.896345
0
LINE
8
Layer 1
10
86.256524
20
56.896345
11
86.014269
21
57.327413
0
LINE
8
Layer 1
10
86.014269
20
57.327413
11
85.263380
21
58.584953
0
LINE
8
Layer 1
10
85.263380
20
58.584953
11
84.846081
21
59.236600
0
LINE
8
Layer 1
10
84.846081
20
59.236600
11
84.301962
21
59.430161
0
LINE
8
Layer 1
10
84.301962
20
59.430161
11
82.217133
21
59.616380
0
LINE
8
Layer 1
10
82.217133
20
59.616380
11
81.120488
21
59.871097
0
LINE
8
Layer 1
10
81.120488
20
59.871097
11
80.719546
21
60.165204
0
LINE
8
Layer 1
10
80.719546
20
60.165204
11
81.032120
21
60.393416
0
LINE
8
Layer 1
10
81.032120
20
60.393416
11
82.076022
21
60.450445
0
LINE
8
Layer 1
10
82.076022
20
60.450445
11
83.729065
21
60.538089
0
LINE
8
Layer 1
10
83.729065
20
60.538089
11
84.038674
21
60.781567
0
LINE
8
Layer 1
10
84.038674
20
60.781567
11
84.122133
21
61.201639
0
LINE
8
Layer 1
10
84.122133
20
61.201639
11
84.206388
21
61.538642
0
LINE
8
Layer 1
10
84.206388
20
61.538642
11
84.408958
21
61.575275
0
LINE
8
Layer 1
10
84.408958
20
61.575275
11
84.563833
21
61.372906
0
LINE
8
Layer 1
10
84.563833
20
61.372906
11
84.533413
21
61.135285
0
LINE
8
Layer 1
10
84.533413
20
61.135285
11
84.571851
21
60.547651
0
LINE
8
Layer 1
10
84.571851
20
60.547651
11
84.700684
21
60.500448
0
LINE
8
Layer 1
10
84.700684
20
60.500448
11
84.894246
21
60.647134
0
LINE
8
Layer 1
10
84.894246
20
60.647134
11
85.422421
21
61.464873
0
LINE
8
Layer 1
10
85.422421
20
61.464873
11
86.050858
21
62.962808
0
LINE
8
Layer 1
10
86.050858
20
62.962808
11
86.057368
21
63.299525
0
LINE
8
Layer 1
10
86.057368
20
63.299525
11
85.841786
21
63.287721
0
LINE
8
Layer 1
10
85.841786
20
63.287721
11
85.706191
21
63.348626
0
LINE
8
Layer 1
10
85.706191
20
63.348626
11
85.739540
21
63.717150
0
LINE
8
Layer 1
10
85.739540
20
63.717150
11
85.991250
21
64.139070
0
LINE
8
Layer 1
10
85.991250
20
64.139070
11
86.489331
21
64.144725
0
LINE
8
Layer 1
10
86.489331
20
64.144725
11
87.438244
21
63.980862
0
LINE
8
Layer 1
10
87.438244
20
63.980862
11
87.712843
21
63.862910
0
LINE
8
Layer 1
10
87.712843
20
63.862910
11
87.665670
21
63.547845
0
LINE
8
Layer 1
10
87.665670
20
63.547845
11
86.693883
21
62.501074
0
LINE
8
Layer 1
10
86.693883
20
62.501074
11
86.074454
21
61.948898
0
LINE
8
Layer 1
10
86.074454
20
61.948898
11
85.927700
21
61.719231
0
LINE
8
Layer 1
10
85.927700
20
61.719231
11
85.975984
21
61.558920
0
LINE
8
Layer 1
10
85.975984
20
61.558920
11
85.825477
21
61.173490
0
LINE
8
Layer 1
10
85.825477
20
61.173490
11
85.705341
21
60.740773
0
LINE
8
Layer 1
10
85.705341
20
60.740773
11
86.276533
21
60.762504
0
LINE
8
Layer 1
10
86.276533
20
60.762504
11
87.175027
21
61.110528
0
LINE
8
Layer 1
10
87.175027
20
61.110528
11
88.252360
21
61.756501
0
LINE
8
Layer 1
10
88.252360
20
61.756501
11
89.194513
21
62.486472
0
LINE
8
Layer 1
10
89.194513
20
62.486472
11
89.687468
21
63.086488
0
LINE
8
Layer 1
10
89.687468
20
63.086488
11
90.276550
21
64.047565
0
LINE
8
Layer 1
10
90.276550
20
64.047565
11
90.539309
21
64.386680
0
LINE
8
Layer 1
10
90.539309
20
64.386680
11
90.504773
21
64.509483
0
LINE
8
Layer 1
10
90.504773
20
64.509483
11
89.237617
21
64.130640
0
LINE
8
Layer 1
10
89.237617
20
64.130640
11
88.284618
21
63.865965
0
LINE
8
Layer 1
10
88.284618
20
63.865965
11
88.116123
21
63.926332
0
LINE
8
Layer 1
10
88.116123
20
63.926332
11
88.073244
21
64.114031
0
LINE
8
Layer 1
10
88.073244
20
64.114031
11
88.400912
21
64.465314
0
LINE
8
Layer 1
10
88.400912
20
64.465314
11
89.272689
21
64.745320
0
LINE
8
Layer 1
10
89.272689
20
64.745320
11
90.472133
21
64.982406
0
LINE
8
Layer 1
10
90.472133
20
64.982406
11
90.523845
21
66.666928
0
LINE
8
Layer 1
10
90.523845
20
66.666928
11
90.594400
21
68.986454
0
LINE
8
Layer 1
10
90.594400
20
68.986454
11
90.723772
21
69.434922
0
LINE
8
Layer 1
10
90.723772
20
69.434922
11
91.008355
21
69.621454
0
LINE
8
Layer 1
10
91.008355
20
69.621454
11
91.234611
21
69.480756
0
LINE
8
Layer 1
10
91.234611
20
69.480756
11
91.373063
21
68.913022
0
LINE
8
Layer 1
10
91.373063
20
68.913022
11
91.492313
21
65.622591
0
LINE
8
Layer 1
10
91.492313
20
65.622591
11
91.793369
21
65.074058
0
LINE
8
Layer 1
10
91.793369
20
65.074058
11
92.659355
21
64.671662
0
LINE
8
Layer 1
10
92.659355
20
64.671662
11
93.012133
21
64.541454
0
LINE
8
Layer 1
10
93.012133
20
64.541454
11
94.016568
21
64.294509
0
LINE
8
Layer 1
10
94.016568
20
64.294509
11
94.181223
21
64.194475
0
LINE
8
Layer 1
10
94.181223
20
64.194475
11
94.157396
21
64.003504
0
LINE
8
Layer 1
10
94.157396
20
64.003504
11
93.885353
21
63.880291
0
LINE
8
Layer 1
10
93.885353
20
63.880291
11
93.451056
21
63.897475
0
LINE
8
Layer 1
10
93.451056
20
63.897475
11
93.048336
21
64.022196
0
LINE
8
Layer 1
10
93.048336
20
64.022196
11
92.871022
21
64.221591
0
LINE
8
Layer 1
10
92.871022
20
64.221591
11
92.182555
21
64.400343
0
LINE
8
Layer 1
10
92.182555
20
64.400343
11
91.651412
21
64.326171
0
LINE
8
Layer 1
10
91.651412
20
64.326171
11
92.041444
21
63.817709
0
LINE
8
Layer 1
10
92.041444
20
63.817709
11
92.588800
21
62.944228
0
LINE
8
Layer 1
10
92.588800
20
62.944228
11
93.153244
21
62.142565
0
LINE
8
Layer 1
10
93.153244
20
62.142565
11
93.551883
21
61.851947
0
LINE
8
Layer 1
10
93.551883
20
61.851947
11
93.717689
21
61.870542
0
LINE
8
Layer 1
10
93.717689
20
61.870542
11
93.839406
21
61.878265
0
LINE
8
Layer 1
10
93.839406
20
61.878265
11
94.132047
21
61.561506
0
LINE
8
Layer 1
10
94.132047
20
61.561506
11
94.428593
21
61.257504
0
LINE
8
Layer 1
10
94.428593
20
61.257504
11
94.559701
21
61.295898
0
LINE
8
Layer 1
10
94.559701
20
61.295898
11
94.644603
21
61.375876
0
LINE
8
Layer 1
10
94.644603
20
61.375876
11
94.830056
21
61.171853
0
LINE
8
Layer 1
10
94.830056
20
61.171853
11
95.223388
21
60.856567
0
LINE
8
Layer 1
10
95.223388
20
60.856567
11
95.808080
21
60.669037
0
LINE
8
Layer 1
10
95.808080
20
60.669037
11
96.354282
21
60.688075
0
LINE
8
Layer 1
10
96.354282
20
60.688075
11
96.343792
21
61.075305
0
LINE
8
Layer 1
10
96.343792
20
61.075305
11
95.164614
21
62.528941
0
LINE
8
Layer 1
10
95.164614
20
62.528941
11
94.382492
21
63.405009
0
LINE
8
Layer 1
10
94.382492
20
63.405009
11
94.430197
21
63.637426
0
LINE
8
Layer 1
10
94.430197
20
63.637426
11
94.720303
21
63.885798
0
LINE
8
Layer 1
10
94.720303
20
63.885798
11
95.115825
21
64.273214
0
LINE
8
Layer 1
10
95.115825
20
64.273214
11
94.776022
21
64.571778
0
LINE
8
Layer 1
10
94.776022
20
64.571778
11
94.427213
21
64.853917
0
LINE
8
Layer 1
10
94.427213
20
64.853917
11
94.282133
21
65.139138
0
LINE
8
Layer 1
10
94.282133
20
65.139138
11
94.503556
21
65.167010
0
LINE
8
Layer 1
10
94.503556
20
65.167010
11
95.075238
21
64.850521
0
LINE
8
Layer 1
10
95.075238
20
64.850521
11
96.713867
21
63.547952
0
LINE
8
Layer 1
10
96.713867
20
63.547952
11
97.183584
21
63.003952
0
LINE
8
Layer 1
10
97.183584
20
63.003952
11
97.156511
21
62.857176
0
LINE
8
Layer 1
10
97.156511
20
62.857176
11
96.969349
21
62.748403
0
LINE
8
Layer 1
10
96.969349
20
62.748403
11
96.656501
21
62.738476
0
LINE
8
Layer 1
10
96.656501
20
62.738476
11
96.539911
21
62.989231
0
LINE
8
Layer 1
10
96.539911
20
62.989231
11
96.426872
21
63.235779
0
LINE
8
Layer 1
10
96.426872
20
63.235779
11
96.143600
21
63.242771
0
LINE
8
Layer 1
10
96.143600
20
63.242771
11
95.939853
21
63.045526
0
LINE
8
Layer 1
10
95.939853
20
63.045526
11
95.984282
21
62.667186
0
LINE
8
Layer 1
10
95.984282
20
62.667186
11
96.890072
21
61.165754
0
LINE
8
Layer 1
10
96.890072
20
61.165754
11
97.350337
21
60.686155
0
LINE
8
Layer 1
10
97.350337
20
60.686155
11
97.722628
21
60.813504
0
LINE
8
Layer 1
10
97.722628
20
60.813504
11
97.921168
21
61.083141
0
LINE
8
Layer 1
10
97.921168
20
61.083141
11
97.725244
21
61.154787
0
LINE
8
Layer 1
10
97.725244
20
61.154787
11
97.486061
21
61.237690
0
LINE
8
Layer 1
10
97.486061
20
61.237690
11
97.386577
21
61.437009
0
LINE
8
Layer 1
10
97.386577
20
61.437009
11
97.470968
21
61.687703
0
LINE
8
Layer 1
10
97.470968
20
61.687703
11
97.670415
21
61.702740
0
LINE
8
Layer 1
10
97.670415
20
61.702740
11
97.904333
21
61.514357
0
LINE
8
Layer 1
10
97.904333
20
61.514357
11
98.092133
21
61.154787
0
LINE
8
Layer 1
10
98.092133
20
61.154787
11
98.238430
21
60.871380
0
LINE
8
Layer 1
10
98.238430
20
60.871380
11
98.501659
21
60.699043
0
LINE
8
Layer 1
10
98.501659
20
60.699043
11
99.646717
21
60.590343
0
LINE
8
Layer 1
10
99.646717
20
60.590343
11
101.070539
21
60.377797
0
LINE
8
Layer 1
10
101.070539
20
60.377797
11
101.281204
21
60.156429
0
LINE
8
Layer 1
10
101.281204
20
60.156429
11
101.076396
21
59.897721
0
LINE
8
Layer 1
10
101.076396
20
59.897721
11
99.727470
21
59.599615
0
LINE
8
Layer 1
10
99.727470
20
59.599615
11
97.803262
21
59.408576
0
LINE
8
Layer 1
10
97.803262
20
59.408576
11
97.236513
21
59.109127
0
LINE
8
Layer 1
10
97.236513
20
59.109127
11
96.678646
21
58.228176
0
LINE
8
Layer 1
10
96.678646
20
58.228176
11
95.838631
21
56.855219
0
LINE
8
Layer 1
10
95.838631
20
56.855219
11
95.720670
21
56.701399
0
LINE
8
Layer 1
10
95.720670
20
56.701399
11
95.904911
21
56.643552
0
LINE
8
Layer 1
10
95.904911
20
56.643552
11
96.154060
21
56.474695
0
LINE
8
Layer 1
10
96.154060
20
56.474695
11
96.257689
21
56.074787
0
LINE
8
Layer 1
10
96.257689
20
56.074787
11
96.185270
21
55.510343
0
LINE
8
Layer 1
10
96.185270
20
55.510343
11
95.212964
21
55.768426
0
LINE
8
Layer 1
10
95.212964
20
55.768426
11
94.505109
21
55.888252
0
LINE
8
Layer 1
10
94.505109
20
55.888252
11
94.208287
21
55.712140
0
LINE
8
Layer 1
10
94.208287
20
55.712140
11
94.080598
21
55.630010
0
LINE
8
Layer 1
10
94.080598
20
55.630010
11
93.920750
21
55.874006
0
LINE
8
Layer 1
10
93.920750
20
55.874006
11
93.861513
21
56.190614
0
LINE
8
Layer 1
10
93.861513
20
56.190614
11
93.975716
21
56.283067
0
LINE
8
Layer 1
10
93.975716
20
56.283067
11
94.389096
21
56.489827
0
LINE
8
Layer 1
10
94.389096
20
56.489827
11
95.030948
21
57.072353
0
LINE
8
Layer 1
10
95.030948
20
57.072353
11
96.046657
21
58.393231
0
LINE
8
Layer 1
10
96.046657
20
58.393231
11
96.063906
21
58.760396
0
LINE
8
Layer 1
10
96.063906
20
58.760396
11
95.846756
21
58.994308
0
LINE
8
Layer 1
10
95.846756
20
58.994308
11
95.215405
21
58.923873
0
LINE
8
Layer 1
10
95.215405
20
58.923873
11
94.319365
21
58.560896
0
LINE
8
Layer 1
10
94.319365
20
58.560896
11
93.553385
21
58.100854
0
LINE
8
Layer 1
10
93.553385
20
58.100854
11
93.312214
21
57.739224
0
LINE
8
Layer 1
10
93.312214
20
57.739224
11
93.314267
21
57.556803
0
LINE
8
Layer 1
10
93.314267
20
57.556803
11
93.099345
21
57.473952
0
LINE
8
Layer 1
10
93.099345
20
57.473952
11
92.660810
21
57.186535
0
LINE
8
Layer 1
10
92.660810
20
57.186535
11
92.125241
21
56.512288
0
LINE
8
Layer 1
10
92.125241
20
56.512288
11
91.720421
21
55.691898
0
LINE
8
Layer 1
10
91.720421
20
55.691898
11
91.843019
21
55.212829
0
LINE
8
Layer 1
10
91.843019
20
55.212829
11
92.005285
21
54.995414
0
LINE
8
Layer 1
10
92.005285
20
54.995414
11
91.855361
21
55.035890
0
LINE
8
Layer 1
10
91.855361
20
55.035890
11
91.616384
21
54.952127
0
LINE
8
Layer 1
10
91.616384
20
54.952127
11
91.495530
21
54.442292
0
LINE
8
Layer 1
10
91.495530
20
54.442292
11
91.363286
21
52.547009
0
LINE
8
Layer 1
10
91.363286
20
52.547009
11
91.373825
21
51.608132
0
LINE
8
Layer 1
10
91.373825
20
51.608132
11
91.515037
21
50.936082
0
LINE
8
Layer 1
10
91.515037
20
50.936082
11
91.565591
21
50.494810
0
LINE
8
Layer 1
10
91.565591
20
50.494810
11
91.181276
21
50.150039
0
LINE
8
Layer 1
10
91.181276
20
50.150039
11
90.726565
21
49.989821
0
LINE
8
Layer 1
10
90.726565
20
49.989821
11
90.570671
21
50.208747
0
LINE
8
Layer 1
10
90.570671
20
50.208747
11
90.570671
21
50.208747
0
LINE
8
Layer 1
10
91.821999
20
59.177436
11
92.155070
21
59.520066
0
LINE
8
Layer 1
10
92.155070
20
59.520066
11
92.402446
21
59.553732
0
LINE
8
Layer 1
10
92.402446
20
59.553732
11
92.534058
21
59.536927
0
LINE
8
Layer 1
10
92.534058
20
59.536927
11
92.588800
21
59.758210
0
LINE
8
Layer 1
10
92.588800
20
59.758210
11
92.368974
21
60.223123
0
LINE
8
Layer 1
10
92.368974
20
60.223123
11
91.840456
21
60.792069
0
LINE
8
Layer 1
10
91.840456
20
60.792069
11
91.154458
21
61.243482
0
LINE
8
Layer 1
10
91.154458
20
61.243482
11
90.667448
21
61.083277
0
LINE
8
Layer 1
10
90.667448
20
61.083277
11
90.466654
21
60.768848
0
LINE
8
Layer 1
10
90.466654
20
60.768848
11
91.063010
21
60.587571
0
LINE
8
Layer 1
10
91.063010
20
60.587571
11
91.511077
21
60.475245
0
LINE
8
Layer 1
10
91.511077
20
60.475245
11
91.752415
21
60.291837
0
LINE
8
Layer 1
10
91.752415
20
60.291837
11
91.784466
21
59.442708
0
LINE
8
Layer 1
10
91.784466
20
59.442708
11
91.529865
21
59.256382
0
LINE
8
Layer 1
10
91.529865
20
59.256382
11
90.977184
21
59.231042
0
LINE
8
Layer 1
10
90.977184
20
59.231042
11
90.351061
21
59.463401
0
LINE
8
Layer 1
10
90.351061
20
59.463401
11
90.045309
21
60.025898
0
LINE
8
Layer 1
10
90.045309
20
60.025898
11
89.857537
21
60.553941
0
LINE
8
Layer 1
10
89.857537
20
60.553941
11
89.562867
21
60.171931
0
LINE
8
Layer 1
10
89.562867
20
60.171931
11
89.442229
21
59.623817
0
LINE
8
Layer 1
10
89.442229
20
59.623817
11
90.000850
21
59.115458
0
LINE
8
Layer 1
10
90.000850
20
59.115458
11
90.627408
21
58.757622
0
LINE
8
Layer 1
10
90.627408
20
58.757622
11
91.094513
21
58.647133
0
LINE
8
Layer 1
10
91.094513
20
58.647133
11
91.470074
21
58.786300
0
LINE
8
Layer 1
10
91.470074
20
58.786300
11
91.821999
21
59.177436
0
LINE
8
Layer 1
10
91.821999
20
59.177436
11
91.821999
21
59.177436
0
LINE
8
Layer 1
10
92.506639
20
55.122132
11
92.396938
21
55.360006
0
LINE
8
Layer 1
10
92.396938
20
55.360006
11
92.512268
21
55.573463
0
LINE
8
Layer 1
10
92.512268
20
55.573463
11
93.240456
21
55.770283
0
LINE
8
Layer 1
10
93.240456
20
55.770283
11
93.603807
21
55.714010
0
LINE
8
Layer 1
10
93.603807
20
55.714010
11
93.435466
21
55.586856
0
LINE
8
Layer 1
10
93.435466
20
55.586856
11
92.851743
21
55.181562
0
LINE
8
Layer 1
10
92.851743
20
55.181562
11
92.684210
21
55.063394
0
LINE
8
Layer 1
10
92.684210
20
55.063394
11
92.506639
21
55.122132
0
LINE
8
Layer 1
10
92.506639
20
55.122132
11
92.506639
21
55.122132
0
LINE
8
Layer 1
10
88.919911
20
55.510343
11
88.703407
21
55.697877
0
LINE
8
Layer 1
10
88.703407
20
55.697877
11
88.788283
21
55.760389
0
LINE
8
Layer 1
10
88.788283
20
55.760389
11
89.625466
21
55.510343
0
LINE
8
Layer 1
10
89.625466
20
55.510343
11
89.940264
21
55.325173
0
LINE
8
Layer 1
10
89.940264
20
55.325173
11
89.766577
21
55.252279
0
LINE
8
Layer 1
10
89.766577
20
55.252279
11
88.919911
21
55.510343
0
LINE
8
Layer 1
10
88.919911
20
55.510343
11
88.919911
21
55.510343
0
LINE
8
Layer 1
10
84.592504
20
57.956269
11
84.404355
21
58.436047
0
LINE
8
Layer 1
10
84.404355
20
58.436047
11
84.495394
21
58.557137
0
LINE
8
Layer 1
10
84.495394
20
58.557137
11
84.738317
21
58.393714
0
LINE
8
Layer 1
10
84.738317
20
58.393714
11
84.931347
21
58.115018
0
LINE
8
Layer 1
10
84.931347
20
58.115018
11
84.926466
21
57.913936
0
LINE
8
Layer 1
10
84.926466
20
57.913936
11
84.592504
21
57.956269
0
LINE
8
Layer 1
10
84.592504
20
57.956269
11
84.592504
21
57.956269
0
LINE
8
Layer 1
10
74.785282
20
107.801314
11
74.103244
21
108.295203
0
LINE
8
Layer 1
10
74.103244
20
108.295203
11
73.684539
21
108.570208
0
LINE
8
Layer 1
10
73.684539
20
108.570208
11
73.926133
21
108.215343
0
LINE
8
Layer 1
10
73.926133
20
108.215343
11
74.608171
21
107.721454
0
LINE
8
Layer 1
10
74.608171
20
107.721454
11
74.785282
21
107.801314
0
LINE
8
Layer 1
10
74.785282
20
107.801314
11
74.785282
21
107.801314
0
LINE
8
Layer 1
10
85.815466
20
30.110343
11
85.600738
21
30.309963
0
LINE
8
Layer 1
10
85.600738
20
30.309963
11
85.728254
21
30.388244
0
LINE
8
Layer 1
10
85.728254
20
30.388244
11
86.238800
21
30.110343
0
LINE
8
Layer 1
10
86.238800
20
30.110343
11
86.311657
21
29.847552
0
LINE
8
Layer 1
10
86.311657
20
29.847552
11
85.815466
21
30.110343
0
LINE
8
Layer 1
10
85.815466
20
30.110343
11
85.815466
21
30.110343
0
LINE
8
Layer 1
10
87.369687
20
30.389333
11
87.371209
21
30.540925
0
LINE
8
Layer 1
10
87.371209
20
30.540925
11
87.635252
21
30.500249
0
LINE
8
Layer 1
10
87.635252
20
30.500249
11
88.057047
21
30.234939
0
LINE
8
Layer 1
10
88.057047
20
30.234939
11
87.807679
21
30.110343
0
LINE
8
Layer 1
10
87.807679
20
30.110343
11
87.369687
21
30.389333
0
LINE
8
Layer 1
10
87.369687
20
30.389333
11
87.369687
21
30.389333
0
LINE
8
Layer 1
10
17.496097
20
116.258676
11
17.381853
21
116.752565
0
LINE
8
Layer 1
10
17.381853
20
116.752565
11
17.132993
21
117.881454
0
LINE
8
Layer 1
10
17.132993
20
117.881454
11
16.372728
21
121.409231
0
LINE
8
Layer 1
10
16.372728
20
121.409231
11
15.468071
21
125.219229
0
LINE
8
Layer 1
10
15.468071
20
125.219229
11
15.148826
21
126.489229
0
LINE
8
Layer 1
10
15.148826
20
126.489229
11
14.553518
21
129.311452
0
LINE
8
Layer 1
10
14.553518
20
129.311452
11
13.958574
21
132.251334
0
LINE
8
Layer 1
10
13.958574
20
132.251334
11
13.541684
21
133.892484
0
LINE
8
Layer 1
10
13.541684
20
133.892484
11
13.262862
21
134.881524
0
LINE
8
Layer 1
10
13.262862
20
134.881524
11
13.430737
21
135.597350
0
LINE
8
Layer 1
10
13.430737
20
135.597350
11
14.187737
21
136.250834
0
LINE
8
Layer 1
10
14.187737
20
136.250834
11
15.676291
21
137.052845
0
LINE
8
Layer 1
10
15.676291
20
137.052845
11
17.441145
21
137.846954
0
LINE
8
Layer 1
10
17.441145
20
137.846954
11
18.325410
21
138.084411
0
LINE
8
Layer 1
10
18.325410
20
138.084411
11
18.571207
21
137.660354
0
LINE
8
Layer 1
10
18.571207
20
137.660354
11
18.801016
21
136.864014
0
LINE
8
Layer 1
10
18.801016
20
136.864014
11
19.084525
21
135.520341
0
LINE
8
Layer 1
10
19.084525
20
135.520341
11
20.057690
21
130.264091
0
LINE
8
Layer 1
10
20.057690
20
130.264091
11
20.144617
21
129.762806
0
LINE
8
Layer 1
10
20.144617
20
129.762806
11
20.370949
21
130.172642
0
LINE
8
Layer 1
10
20.370949
20
130.172642
11
21.035135
21
133.121452
0
LINE
8
Layer 1
10
21.035135
20
133.121452
11
21.270260
21
133.968119
0
LINE
8
Layer 1
10
21.270260
20
133.968119
11
23.017995
21
140.106452
0
LINE
8
Layer 1
10
23.017995
20
140.106452
11
23.312010
21
140.914949
0
LINE
8
Layer 1
10
23.312010
20
140.914949
11
23.490407
21
140.977831
0
LINE
8
Layer 1
10
23.490407
20
140.977831
11
23.694024
21
140.807434
0
LINE
8
Layer 1
10
23.694024
20
140.807434
11
24.189798
21
139.749705
0
LINE
8
Layer 1
10
24.189798
20
139.749705
11
24.825098
21
137.707563
0
LINE
8
Layer 1
10
24.825098
20
137.707563
11
26.124689
21
133.403674
0
LINE
8
Layer 1
10
26.124689
20
133.403674
11
26.373259
21
132.786491
0
LINE
8
Layer 1
10
26.373259
20
132.786491
11
26.464853
21
132.705755
0
LINE
8
Layer 1
10
26.464853
20
132.705755
11
26.552843
21
132.822357
0
LINE
8
Layer 1
10
26.552843
20
132.822357
11
27.141628
21
135.943674
0
LINE
8
Layer 1
10
27.141628
20
135.943674
11
27.586402
21
138.483674
0
LINE
8
Layer 1
10
27.586402
20
138.483674
11
27.823632
21
139.989661
0
LINE
8
Layer 1
10
27.823632
20
139.989661
11
28.064039
21
141.139983
0
LINE
8
Layer 1
10
28.064039
20
141.139983
11
28.417322
21
142.098958
0
LINE
8
Layer 1
10
28.417322
20
142.098958
11
28.830842
21
142.755677
0
LINE
8
Layer 1
10
28.830842
20
142.755677
11
29.251964
21
142.999230
0
LINE
8
Layer 1
10
29.251964
20
142.999230
11
29.494405
21
142.940560
0
LINE
8
Layer 1
10
29.494405
20
142.940560
11
29.610394
21
142.695786
0
LINE
8
Layer 1
10
29.610394
20
142.695786
11
29.527452
21
141.235341
0
LINE
8
Layer 1
10
29.527452
20
141.235341
11
28.795190
21
137.495896
0
LINE
8
Layer 1
10
28.795190
20
137.495896
11
27.809895
21
133.324946
0
LINE
8
Layer 1
10
27.809895
20
133.324946
11
27.258982
21
130.158119
0
LINE
8
Layer 1
10
27.258982
20
130.158119
11
26.890084
21
128.565471
0
LINE
8
Layer 1
10
26.890084
20
128.565471
11
26.398272
21
126.731025
0
LINE
8
Layer 1
10
26.398272
20
126.731025
11
25.823667
21
124.081565
0
LINE
8
Layer 1
10
25.823667
20
124.081565
11
25.279924
21
121.535512
0
LINE
8
Layer 1
10
25.279924
20
121.535512
11
24.848527
21
119.578513
0
LINE
8
Layer 1
10
24.848527
20
119.578513
11
24.625365
21
119.067435
0
LINE
8
Layer 1
10
24.625365
20
119.067435
11
24.411828
21
118.912098
0
LINE
8
Layer 1
10
24.411828
20
118.912098
11
24.114745
21
119.302841
0
LINE
8
Layer 1
10
24.114745
20
119.302841
11
23.768280
21
120.182098
0
LINE
8
Layer 1
10
23.768280
20
120.182098
11
22.002328
21
126.207006
0
LINE
8
Layer 1
10
22.002328
20
126.207006
11
21.480651
21
127.575972
0
LINE
8
Layer 1
10
21.480651
20
127.575972
11
21.259363
21
127.560728
0
LINE
8
Layer 1
10
21.259363
20
127.560728
11
21.061291
21
127.225026
0
LINE
8
Layer 1
10
21.061291
20
127.225026
11
20.959989
21
126.764490
0
LINE
8
Layer 1
10
20.959989
20
126.764490
11
21.029008
21
126.374748
0
LINE
8
Layer 1
10
21.029008
20
126.374748
11
21.064232
21
126.162862
0
LINE
8
Layer 1
10
21.064232
20
126.162862
11
20.922712
21
126.019444
0
LINE
8
Layer 1
10
20.922712
20
126.019444
11
20.694617
21
125.745333
0
LINE
8
Layer 1
10
20.694617
20
125.745333
11
20.521686
21
125.219229
0
LINE
8
Layer 1
10
20.521686
20
125.219229
11
19.104976
21
119.633651
0
LINE
8
Layer 1
10
19.104976
20
119.633651
11
18.334357
21
117.197972
0
LINE
8
Layer 1
10
18.334357
20
117.197972
11
17.870860
21
116.188120
0
LINE
8
Layer 1
10
17.870860
20
116.188120
11
17.496097
21
116.258676
0
LINE
8
Layer 1
10
17.496097
20
116.258676
11
17.496097
21
116.258676
0
LINE
8
Layer 1
10
145.082133
20
116.842091
11
143.508679
21
118.342385
0
LINE
8
Layer 1
10
143.508679
20
118.342385
11
142.042493
21
121.036689
0
LINE
8
Layer 1
10
142.042493
20
121.036689
11
141.131022
21
123.371771
0
LINE
8
Layer 1
10
141.131022
20
123.371771
11
140.707689
21
125.405865
0
LINE
8
Layer 1
10
140.707689
20
125.405865
11
140.419219
21
127.248820
0
LINE
8
Layer 1
10
140.419219
20
127.248820
11
140.299471
21
129.575208
0
LINE
8
Layer 1
10
140.299471
20
129.575208
11
140.355858
21
131.847033
0
LINE
8
Layer 1
10
140.355858
20
131.847033
11
140.595793
21
133.526299
0
LINE
8
Layer 1
10
140.595793
20
133.526299
11
141.628882
21
136.193882
0
LINE
8
Layer 1
10
141.628882
20
136.193882
11
142.241174
21
137.317018
0
LINE
8
Layer 1
10
142.241174
20
137.317018
11
142.782425
21
138.022395
0
LINE
8
Layer 1
10
142.782425
20
138.022395
11
143.512260
21
138.426557
0
LINE
8
Layer 1
10
143.512260
20
138.426557
11
144.476981
21
138.683340
0
LINE
8
Layer 1
10
144.476981
20
138.683340
11
145.456878
21
138.659606
0
LINE
8
Layer 1
10
145.456878
20
138.659606
11
146.408140
21
138.334823
0
LINE
8
Layer 1
10
146.408140
20
138.334823
11
147.300076
21
137.724559
0
LINE
8
Layer 1
10
147.300076
20
137.724559
11
148.101995
21
136.844385
0
LINE
8
Layer 1
10
148.101995
20
136.844385
11
149.771866
21
133.922650
0
LINE
8
Layer 1
10
149.771866
20
133.922650
11
150.450579
21
132.409045
0
LINE
8
Layer 1
10
150.450579
20
132.409045
11
150.726577
21
131.471490
0
LINE
8
Layer 1
10
150.726577
20
131.471490
11
151.175480
21
129.753178
0
LINE
8
Layer 1
10
151.175480
20
129.753178
11
151.393740
21
129.011479
0
LINE
8
Layer 1
10
151.393740
20
129.011479
11
151.513145
21
128.002162
0
LINE
8
Layer 1
10
151.513145
20
128.002162
11
151.508398
21
124.314689
0
LINE
8
Layer 1
10
151.508398
20
124.314689
11
151.383233
21
121.544246
0
LINE
8
Layer 1
10
151.383233
20
121.544246
11
151.110452
21
119.722820
0
LINE
8
Layer 1
10
151.110452
20
119.722820
11
150.570012
21
118.383902
0
LINE
8
Layer 1
10
150.570012
20
118.383902
11
149.641870
21
117.060983
0
LINE
8
Layer 1
10
149.641870
20
117.060983
11
148.770853
21
116.456380
0
LINE
8
Layer 1
10
148.770853
20
116.456380
11
147.555554
21
116.210443
0
LINE
8
Layer 1
10
147.555554
20
116.210443
11
146.243479
21
116.335053
0
LINE
8
Layer 1
10
146.243479
20
116.335053
11
145.082133
21
116.842091
0
LINE
8
Layer 1
10
145.082133
20
116.842091
11
145.082133
21
116.842091
0
LINE
8
Layer 1
10
148.407721
20
118.448568
11
149.108388
21
118.992208
0
LINE
8
Layer 1
10
149.108388
20
118.992208
11
149.491646
21
119.505846
0
LINE
8
Layer 1
10
149.491646
20
119.505846
11
149.976058
21
120.675617
0
LINE
8
Layer 1
10
149.976058
20
120.675617
11
150.172514
21
121.425889
0
LINE
8
Layer 1
10
150.172514
20
121.425889
11
150.289229
21
122.604384
0
LINE
8
Layer 1
10
150.289229
20
122.604384
11
150.302610
21
125.724142
0
LINE
8
Layer 1
10
150.302610
20
125.724142
11
150.054555
21
128.991085
0
LINE
8
Layer 1
10
150.054555
20
128.991085
11
149.583417
21
131.361408
0
LINE
8
Layer 1
10
149.583417
20
131.361408
11
148.769977
21
133.157729
0
LINE
8
Layer 1
10
148.769977
20
133.157729
11
147.724778
21
134.904306
0
LINE
8
Layer 1
10
147.724778
20
134.904306
11
146.695244
21
136.234244
0
LINE
8
Layer 1
10
146.695244
20
136.234244
11
145.928800
21
136.780652
0
LINE
8
Layer 1
10
145.928800
20
136.780652
11
145.683783
21
127.584116
0
LINE
8
Layer 1
10
145.683783
20
127.584116
11
145.638798
21
121.934871
0
LINE
8
Layer 1
10
145.638798
20
121.934871
11
145.749539
21
119.062731
0
LINE
8
Layer 1
10
145.749539
20
119.062731
11
145.900680
21
118.374096
0
LINE
8
Layer 1
10
145.900680
20
118.374096
11
146.135601
21
118.026963
0
LINE
8
Layer 1
10
146.135601
20
118.026963
11
146.469250
21
117.903738
0
LINE
8
Layer 1
10
146.469250
20
117.903738
11
146.916577
21
117.886830
0
LINE
8
Layer 1
10
146.916577
20
117.886830
11
147.587434
21
118.050493
0
LINE
8
Layer 1
10
147.587434
20
118.050493
11
148.407721
21
118.448568
0
LINE
8
Layer 1
10
148.407721
20
118.448568
11
148.407721
21
118.448568
0
LINE
8
Layer 1
10
88.400026
20
120.421454
11
88.441842
21
120.816124
0
LINE
8
Layer 1
10
88.441842
20
120.816124
11
88.542376
21
120.774231
0
LINE
8
Layer 1
10
88.542376
20
120.774231
11
88.542376
21
120.068676
0
LINE
8
Layer 1
10
88.542376
20
120.068676
11
88.441842
21
120.026783
0
LINE
8
Layer 1
10
88.441842
20
120.026783
11
88.400026
21
120.421454
0
LINE
8
Layer 1
10
88.400026
20
120.421454
11
88.400026
21
120.421454
0
LINE
8
Layer 1
10
135.839355
20
121.052000
11
133.511022
21
121.906024
0
LINE
8
Layer 1
10
133.511022
20
121.906024
11
133.511022
21
132.153749
0
LINE
8
Layer 1
10
133.511022
20
132.153749
11
133.577589
21
139.432345
0
LINE
8
Layer 1
10
133.577589
20
139.432345
11
133.737635
21
142.541528
0
LINE
8
Layer 1
10
133.737635
20
142.541528
11
134.581251
21
142.411087
0
LINE
8
Layer 1
10
134.581251
20
142.411087
11
136.291297
21
141.900802
0
LINE
8
Layer 1
10
136.291297
20
141.900802
11
138.618349
21
141.120022
0
LINE
8
Layer 1
10
138.618349
20
141.120022
11
138.597990
21
130.848707
0
LINE
8
Layer 1
10
138.597990
20
130.848707
11
138.523400
21
123.538864
0
LINE
8
Layer 1
10
138.523400
20
123.538864
11
138.372658
21
120.387683
0
LINE
8
Layer 1
10
138.372658
20
120.387683
11
137.543950
21
120.504570
0
LINE
8
Layer 1
10
137.543950
20
120.504570
11
135.839355
21
121.052000
0
LINE
8
Layer 1
10
135.839355
20
121.052000
11
135.839355
21
121.052000
0
LINE
8
Layer 1
10
31.413622
20
133.017324
11
31.487689
21
143.422563
0
LINE
8
Layer 1
10
31.487689
20
143.422563
11
32.757689
21
143.749927
0
LINE
8
Layer 1
10
32.757689
20
143.749927
11
36.567689
21
144.851172
0
LINE
8
Layer 1
10
36.567689
20
144.851172
11
39.643810
21
145.610868
0
LINE
8
Layer 1
10
39.643810
20
145.610868
11
40.353753
21
145.545249
0
LINE
8
Layer 1
10
40.353753
20
145.545249
11
40.753397
21
145.202972
0
LINE
8
Layer 1
10
40.753397
20
145.202972
11
40.884309
21
144.703425
0
LINE
8
Layer 1
10
40.884309
20
144.703425
11
40.532008
21
144.142712
0
LINE
8
Layer 1
10
40.532008
20
144.142712
11
40.069186
21
143.747253
0
LINE
8
Layer 1
10
40.069186
20
143.747253
11
39.697203
21
143.614995
0
LINE
8
Layer 1
10
39.697203
20
143.614995
11
38.612098
21
143.493059
0
LINE
8
Layer 1
10
38.612098
20
143.493059
11
36.920466
21
143.100253
0
LINE
8
Layer 1
10
36.920466
20
143.100253
11
36.672246
21
142.955508
0
LINE
8
Layer 1
10
36.672246
20
142.955508
11
36.521477
21
142.635428
0
LINE
8
Layer 1
10
36.521477
20
142.635428
11
36.426577
21
141.126749
0
LINE
8
Layer 1
10
36.426577
20
141.126749
11
36.513722
21
139.572008
0
LINE
8
Layer 1
10
36.513722
20
139.572008
11
36.703208
21
139.418124
0
LINE
8
Layer 1
10
36.703208
20
139.418124
11
37.061577
21
139.496006
0
LINE
8
Layer 1
10
37.061577
20
139.496006
11
38.944064
21
140.031681
0
LINE
8
Layer 1
10
38.944064
20
140.031681
11
40.238124
21
140.234437
0
LINE
8
Layer 1
10
40.238124
20
140.234437
11
40.984605
21
140.105755
0
LINE
8
Layer 1
10
40.984605
20
140.105755
11
41.224355
21
139.647120
0
LINE
8
Layer 1
10
41.224355
20
139.647120
11
41.129042
21
139.187934
0
LINE
8
Layer 1
10
41.129042
20
139.187934
11
40.840105
21
138.824033
0
LINE
8
Layer 1
10
40.840105
20
138.824033
11
40.353046
21
138.551730
0
LINE
8
Layer 1
10
40.353046
20
138.551730
11
39.663367
21
138.367337
0
LINE
8
Layer 1
10
39.663367
20
138.367337
11
37.626022
21
137.865666
0
LINE
8
Layer 1
10
37.626022
20
137.865666
11
36.426577
21
137.513781
0
LINE
8
Layer 1
10
36.426577
20
137.513781
11
36.426577
21
131.668428
0
LINE
8
Layer 1
10
36.426577
20
131.668428
11
36.426577
21
125.823074
0
LINE
8
Layer 1
10
36.426577
20
125.823074
11
37.202689
21
126.055428
0
LINE
8
Layer 1
10
37.202689
20
126.055428
11
38.773283
21
126.600170
0
LINE
8
Layer 1
10
38.773283
20
126.600170
11
40.396061
21
126.912562
0
LINE
8
Layer 1
10
40.396061
20
126.912562
11
41.061401
21
126.788284
0
LINE
8
Layer 1
10
41.061401
20
126.788284
11
41.220034
21
126.277562
0
LINE
8
Layer 1
10
41.220034
20
126.277562
11
41.138903
21
125.654024
0
LINE
8
Layer 1
10
41.138903
20
125.654024
11
40.821057
21
125.239479
0
LINE
8
Layer 1
10
40.821057
20
125.239479
11
40.139335
21
124.943543
0
LINE
8
Layer 1
10
40.139335
20
124.943543
11
38.966577
21
124.675832
0
LINE
8
Layer 1
10
38.966577
20
124.675832
11
36.708800
21
124.158939
0
LINE
8
Layer 1
10
36.708800
20
124.158939
11
31.978067
21
122.767632
0
LINE
8
Layer 1
10
31.978067
20
122.767632
11
31.339553
21
122.612088
0
LINE
8
Layer 1
10
31.339553
20
122.612088
11
31.413622
21
133.017324
0
LINE
8
Layer 1
10
31.413622
20
133.017324
11
31.413622
21
133.017324
0
LINE
8
Layer 1
10
130.013439
20
123.125648
11
129.842133
21
129.289233
0
LINE
8
Layer 1
10
129.842133
20
129.289233
11
129.842133
21
135.006406
0
LINE
8
Layer 1
10
129.842133
20
135.006406
11
129.121210
21
135.334879
0
LINE
8
Layer 1
10
129.121210
20
135.334879
11
127.145655
21
135.813959
0
LINE
8
Layer 1
10
127.145655
20
135.813959
11
125.891022
21
135.964565
0
LINE
8
Layer 1
10
125.891022
20
135.964565
11
125.835500
21
131.791342
0
LINE
8
Layer 1
10
125.835500
20
131.791342
11
125.764945
21
125.924784
0
LINE
8
Layer 1
10
125.764945
20
125.924784
11
125.671424
21
124.728867
0
LINE
8
Layer 1
10
125.671424
20
124.728867
11
125.467689
21
124.231451
0
LINE
8
Layer 1
10
125.467689
20
124.231451
11
122.837126
21
124.776075
0
LINE
8
Layer 1
10
122.837126
20
124.776075
11
120.488786
21
125.320696
0
LINE
8
Layer 1
10
120.488786
20
125.320696
11
120.554456
21
134.843613
0
LINE
8
Layer 1
10
120.554456
20
134.843613
11
120.741547
21
145.193812
0
LINE
8
Layer 1
10
120.741547
20
145.193812
11
120.832718
21
145.666751
0
LINE
8
Layer 1
10
120.832718
20
145.666751
11
121.013569
21
145.883729
0
LINE
8
Layer 1
10
121.013569
20
145.883729
11
122.177550
21
145.760071
0
LINE
8
Layer 1
10
122.177550
20
145.760071
11
123.774355
21
145.413992
0
LINE
8
Layer 1
10
123.774355
20
145.413992
11
124.973800
21
145.116584
0
LINE
8
Layer 1
10
124.973800
20
145.116584
11
125.891022
21
144.904230
0
LINE
8
Layer 1
10
125.891022
20
144.904230
11
125.891022
21
141.470749
0
LINE
8
Layer 1
10
125.891022
20
141.470749
11
125.891022
21
138.037269
0
LINE
8
Layer 1
10
125.891022
20
138.037269
11
127.757507
21
137.539921
0
LINE
8
Layer 1
10
127.757507
20
137.539921
11
129.128479
21
137.241052
0
LINE
8
Layer 1
10
129.128479
20
137.241052
11
129.803618
21
137.220900
0
LINE
8
Layer 1
10
129.803618
20
137.220900
11
130.124355
21
140.529491
0
LINE
8
Layer 1
10
130.124355
20
140.529491
11
130.312486
21
142.855612
0
LINE
8
Layer 1
10
130.312486
20
142.855612
11
130.583472
21
143.764753
0
LINE
8
Layer 1
10
130.583472
20
143.764753
11
130.862383
21
143.697355
0
LINE
8
Layer 1
10
130.862383
20
143.697355
11
131.086394
21
143.387867
0
LINE
8
Layer 1
10
131.086394
20
143.387867
11
131.159692
21
140.076731
0
LINE
8
Layer 1
10
131.159692
20
140.076731
11
131.076248
21
132.792605
0
LINE
8
Layer 1
10
131.076248
20
132.792605
11
130.848483
21
124.838464
0
LINE
8
Layer 1
10
130.848483
20
124.838464
11
130.709128
21
123.172901
0
LINE
8
Layer 1
10
130.709128
20
123.172901
11
130.532962
21
122.679231
0
LINE
8
Layer 1
10
130.532962
20
122.679231
11
130.236712
21
122.810366
0
LINE
8
Layer 1
10
130.236712
20
122.810366
11
130.013439
21
123.125648
0
LINE
8
Layer 1
10
130.013439
20
123.125648
11
130.013439
21
123.125648
0
LINE
8
Layer 1
10
43.720385
20
126.137853
11
43.120848
21
126.733850
0
LINE
8
Layer 1
10
43.120848
20
126.733850
11
42.693774
21
127.363092
0
LINE
8
Layer 1
10
42.693774
20
127.363092
11
42.438220
21
128.027365
0
LINE
8
Layer 1
10
42.438220
20
128.027365
11
42.353244
21
128.728454
0
LINE
8
Layer 1
10
42.353244
20
128.728454
11
42.515873
21
129.296318
0
LINE
8
Layer 1
10
42.515873
20
129.296318
11
42.914559
21
129.466983
0
LINE
8
Layer 1
10
42.914559
20
129.466983
11
43.415504
21
129.247682
0
LINE
8
Layer 1
10
43.415504
20
129.247682
11
43.884909
21
128.645649
0
LINE
8
Layer 1
10
43.884909
20
128.645649
11
44.426024
21
127.953627
0
LINE
8
Layer 1
10
44.426024
20
127.953627
11
45.139303
21
127.482987
0
LINE
8
Layer 1
10
45.139303
20
127.482987
11
45.868579
21
127.304053
0
LINE
8
Layer 1
10
45.868579
20
127.304053
11
46.457684
21
127.487145
0
LINE
8
Layer 1
10
46.457684
20
127.487145
11
46.717829
21
127.832160
0
LINE
8
Layer 1
10
46.717829
20
127.832160
11
46.598538
21
128.142380
0
LINE
8
Layer 1
10
46.598538
20
128.142380
11
46.390583
21
128.520097
0
LINE
8
Layer 1
10
46.390583
20
128.520097
11
46.303712
21
129.015119
0
LINE
8
Layer 1
10
46.303712
20
129.015119
11
45.748805
21
130.501460
0
LINE
8
Layer 1
10
45.748805
20
130.501460
11
44.415569
21
133.262563
0
LINE
8
Layer 1
10
44.415569
20
133.262563
11
42.528069
21
136.931452
0
LINE
8
Layer 1
10
42.528069
20
136.931452
11
42.515432
21
139.894785
0
LINE
8
Layer 1
10
42.515432
20
139.894785
11
42.618802
21
142.534063
0
LINE
8
Layer 1
10
42.618802
20
142.534063
11
43.096347
21
144.128119
0
LINE
8
Layer 1
10
43.096347
20
144.128119
11
44.268651
21
145.988232
0
LINE
8
Layer 1
10
44.268651
20
145.988232
11
44.955694
21
146.691108
0
LINE
8
Layer 1
10
44.955694
20
146.691108
11
45.685046
21
147.227467
0
LINE
8
Layer 1
10
45.685046
20
147.227467
11
46.437991
21
147.586010
0
LINE
8
Layer 1
10
46.437991
20
147.586010
11
47.195815
21
147.755437
0
LINE
8
Layer 1
10
47.195815
20
147.755437
11
47.939803
21
147.724451
0
LINE
8
Layer 1
10
47.939803
20
147.724451
11
48.651242
21
147.481754
0
LINE
8
Layer 1
10
48.651242
20
147.481754
11
49.289085
21
147.046752
0
LINE
8
Layer 1
10
49.289085
20
147.046752
11
49.793487
21
146.485667
0
LINE
8
Layer 1
10
49.793487
20
146.485667
11
50.126254
21
145.852965
0
LINE
8
Layer 1
10
50.126254
20
145.852965
11
50.249190
21
145.203108
0
LINE
8
Layer 1
10
50.249190
20
145.203108
11
50.172469
21
144.547367
0
LINE
8
Layer 1
10
50.172469
20
144.547367
11
49.909446
21
144.322406
0
LINE
8
Layer 1
10
49.909446
20
144.322406
11
49.432430
21
144.527483
0
LINE
8
Layer 1
10
49.432430
20
144.527483
11
48.713734
21
145.161851
0
LINE
8
Layer 1
10
48.713734
20
145.161851
11
47.680973
21
146.194612
0
LINE
8
Layer 1
10
47.680973
20
146.194612
11
47.088696
21
145.602337
0
LINE
8
Layer 1
10
47.088696
20
145.602337
11
46.758382
21
145.239467
0
LINE
8
Layer 1
10
46.758382
20
145.239467
11
46.639326
21
144.910609
0
LINE
8
Layer 1
10
46.639326
20
144.910609
11
47.004712
21
143.651868
0
LINE
8
Layer 1
10
47.004712
20
143.651868
11
48.920222
21
139.661544
0
LINE
8
Layer 1
10
48.920222
20
139.661544
11
50.091278
21
137.153215
0
LINE
8
Layer 1
10
50.091278
20
137.153215
11
50.744637
21
134.901524
0
LINE
8
Layer 1
10
50.744637
20
134.901524
11
50.912686
21
132.732162
0
LINE
8
Layer 1
10
50.912686
20
132.732162
11
50.627811
21
130.470821
0
LINE
8
Layer 1
10
50.627811
20
130.470821
11
50.059446
21
128.482029
0
LINE
8
Layer 1
10
50.059446
20
128.482029
11
49.689641
21
127.847624
0
LINE
8
Layer 1
10
49.689641
20
127.847624
11
49.177310
21
127.264332
0
LINE
8
Layer 1
10
49.177310
20
127.264332
11
47.754082
21
126.163942
0
LINE
8
Layer 1
10
47.754082
20
126.163942
11
46.282504
21
125.591299
0
LINE
8
Layer 1
10
46.282504
20
125.591299
11
44.894098
21
125.573553
0
LINE
8
Layer 1
10
44.894098
20
125.573553
11
44.272185
21
125.781250
0
LINE
8
Layer 1
10
44.272185
20
125.781250
11
43.720385
21
126.137853
0
LINE
8
Layer 1
10
43.720385
20
126.137853
11
43.720385
21
126.137853
0
LINE
8
Layer 1
10
112.119749
20
126.636506
11
111.064530
21
127.075621
0
LINE
8
Layer 1
10
111.064530
20
127.075621
11
110.248944
21
127.681058
0
LINE
8
Layer 1
10
110.248944
20
127.681058
11
109.550479
21
128.574066
0
LINE
8
Layer 1
10
109.550479
20
128.574066
11
108.846620
21
129.875896
0
LINE
8
Layer 1
10
108.846620
20
129.875896
11
108.015798
21
131.818680
0
LINE
8
Layer 1
10
108.015798
20
131.818680
11
107.530392
21
133.666488
0
LINE
8
Layer 1
10
107.530392
20
133.666488
11
107.320093
21
135.824112
0
LINE
8
Layer 1
10
107.320093
20
135.824112
11
107.314594
21
138.696343
0
LINE
8
Layer 1
10
107.314594
20
138.696343
11
107.487920
21
142.203183
0
LINE
8
Layer 1
10
107.487920
20
142.203183
11
107.653917
21
143.160132
0
LINE
8
Layer 1
10
107.653917
20
143.160132
11
107.899355
21
143.818701
0
LINE
8
Layer 1
10
107.899355
20
143.818701
11
108.393244
21
145.122960
0
LINE
8
Layer 1
10
108.393244
20
145.122960
11
108.748703
21
145.866859
0
LINE
8
Layer 1
10
108.748703
20
145.866859
11
109.613338
21
146.823234
0
LINE
8
Layer 1
10
109.613338
20
146.823234
11
110.684538
21
147.704779
0
LINE
8
Layer 1
10
110.684538
20
147.704779
11
111.659690
21
148.224189
0
LINE
8
Layer 1
10
111.659690
20
148.224189
11
112.764695
21
148.394888
0
LINE
8
Layer 1
10
112.764695
20
148.394888
11
113.858937
21
148.009603
0
LINE
8
Layer 1
10
113.858937
20
148.009603
11
115.049548
21
147.195475
0
LINE
8
Layer 1
10
115.049548
20
147.195475
11
116.105294
21
146.061317
0
LINE
8
Layer 1
10
116.105294
20
146.061317
11
116.909372
21
144.760080
0
LINE
8
Layer 1
10
116.909372
20
144.760080
11
117.344980
21
143.444713
0
LINE
8
Layer 1
10
117.344980
20
143.444713
11
117.721798
21
142.557559
0
LINE
8
Layer 1
10
117.721798
20
142.557559
11
117.966828
21
141.984915
0
LINE
8
Layer 1
10
117.966828
20
141.984915
11
118.175194
21
140.979570
0
LINE
8
Layer 1
10
118.175194
20
140.979570
11
118.453902
21
138.172090
0
LINE
8
Layer 1
10
118.453902
20
138.172090
11
118.501856
21
135.137735
0
LINE
8
Layer 1
10
118.501856
20
135.137735
11
118.262993
21
132.879125
0
LINE
8
Layer 1
10
118.262993
20
132.879125
11
117.818837
21
130.788403
0
LINE
8
Layer 1
10
117.818837
20
130.788403
11
117.324946
21
129.528310
0
LINE
8
Layer 1
10
117.324946
20
129.528310
11
116.013244
21
127.684122
0
LINE
8
Layer 1
10
116.013244
20
127.684122
11
115.417565
21
127.163370
0
LINE
8
Layer 1
10
115.417565
20
127.163370
11
114.579871
21
126.658074
0
LINE
8
Layer 1
10
114.579871
20
126.658074
11
113.505312
21
126.305566
0
LINE
8
Layer 1
10
113.505312
20
126.305566
11
112.119749
21
126.636506
0
LINE
8
Layer 1
10
112.119749
20
126.636506
11
112.119749
21
126.636506
0
LINE
8
Layer 1
10
114.522693
20
128.597401
11
115.433043
21
129.474937
0
LINE
8
Layer 1
10
115.433043
20
129.474937
11
116.346946
21
130.924679
0
LINE
8
Layer 1
10
116.346946
20
130.924679
11
116.857636
21
131.992439
0
LINE
8
Layer 1
10
116.857636
20
131.992439
11
117.145222
21
132.961944
0
LINE
8
Layer 1
10
117.145222
20
132.961944
11
117.371574
21
136.281829
0
LINE
8
Layer 1
10
117.371574
20
136.281829
11
117.369030
21
139.333293
0
LINE
8
Layer 1
10
117.369030
20
139.333293
11
117.247790
21
140.167165
0
LINE
8
Layer 1
10
117.247790
20
140.167165
11
117.028987
21
140.770189
0
LINE
8
Layer 1
10
117.028987
20
140.770189
11
116.577689
21
141.980206
0
LINE
8
Layer 1
10
116.577689
20
141.980206
11
116.318199
21
142.879444
0
LINE
8
Layer 1
10
116.318199
20
142.879444
11
115.668052
21
144.027123
0
LINE
8
Layer 1
10
115.668052
20
144.027123
11
114.819736
21
145.133674
0
LINE
8
Layer 1
10
114.819736
20
145.133674
11
113.965733
21
145.909529
0
LINE
8
Layer 1
10
113.965733
20
145.909529
11
112.751605
21
146.593844
0
LINE
8
Layer 1
10
112.751605
20
146.593844
11
112.548366
21
137.386226
0
LINE
8
Layer 1
10
112.548366
20
137.386226
11
112.559332
21
128.202772
0
LINE
8
Layer 1
10
112.559332
20
128.202772
11
112.868774
21
128.057164
0
LINE
8
Layer 1
10
112.868774
20
128.057164
11
113.317421
21
128.078072
0
LINE
8
Layer 1
10
113.317421
20
128.078072
11
114.522693
21
128.597401
0
LINE
8
Layer 1
10
114.522693
20
128.597401
11
114.522693
21
128.597401
0
LINE
8
Layer 1
10
96.546439
20
130.228674
11
90.463678
21
137.570939
0
LINE
8
Layer 1
10
90.463678
20
137.570939
11
89.890778
21
138.254987
0
LINE
8
Layer 1
10
89.890778
20
138.254987
11
89.810536
21
133.788597
0
LINE
8
Layer 1
10
89.810536
20
133.788597
11
89.619497
21
129.211408
0
LINE
8
Layer 1
10
89.619497
20
129.211408
11
89.055011
21
129.274707
0
LINE
8
Layer 1
10
89.055011
20
129.274707
11
88.814471
21
129.675820
0
LINE
8
Layer 1
10
88.814471
20
129.675820
11
88.686661
21
131.094423
0
LINE
8
Layer 1
10
88.686661
20
131.094423
11
88.669244
21
139.681239
0
LINE
8
Layer 1
10
88.669244
20
139.681239
11
88.903641
21
150.584584
0
LINE
8
Layer 1
10
88.903641
20
150.584584
11
89.017684
21
150.937275
0
LINE
8
Layer 1
10
89.017684
20
150.937275
11
89.183188
21
150.994922
0
LINE
8
Layer 1
10
89.183188
20
150.994922
11
90.053346
21
150.044254
0
LINE
8
Layer 1
10
90.053346
20
150.044254
11
91.329998
21
148.526678
0
LINE
8
Layer 1
10
91.329998
20
148.526678
11
95.598183
21
143.398154
0
LINE
8
Layer 1
10
95.598183
20
143.398154
11
97.037104
21
141.716358
0
LINE
8
Layer 1
10
97.037104
20
141.716358
11
97.744884
21
140.728580
0
LINE
8
Layer 1
10
97.744884
20
140.728580
11
97.811623
21
140.702820
0
LINE
8
Layer 1
10
97.811623
20
140.702820
11
97.873898
21
140.936108
0
LINE
8
Layer 1
10
97.873898
20
140.936108
11
97.957188
21
142.011452
0
LINE
8
Layer 1
10
97.957188
20
142.011452
11
98.321958
21
149.673128
0
LINE
8
Layer 1
10
98.321958
20
149.673128
11
98.842017
21
149.416869
0
LINE
8
Layer 1
10
98.842017
20
149.416869
11
99.060833
21
148.872248
0
LINE
8
Layer 1
10
99.060833
20
148.872248
11
99.172312
21
147.275791
0
LINE
8
Layer 1
10
99.172312
20
147.275791
11
99.141743
21
138.413119
0
LINE
8
Layer 1
10
99.141743
20
138.413119
11
98.984651
21
130.888810
0
LINE
8
Layer 1
10
98.984651
20
130.888810
11
98.784926
21
127.759230
0
LINE
8
Layer 1
10
98.784926
20
127.759230
11
96.546439
21
130.228674
0
LINE
8
Layer 1
10
96.546439
20
130.228674
11
96.546439
21
130.228674
0
LINE
8
Layer 1
10
55.000347
20
132.776064
11
54.997666
21
142.103160
0
LINE
8
Layer 1
10
54.997666
20
142.103160
11
55.010423
21
146.710423
0
LINE
8
Layer 1
10
55.010423
20
146.710423
11
53.691279
21
146.618716
0
LINE
8
Layer 1
10
53.691279
20
146.618716
11
52.551802
21
146.650015
0
LINE
8
Layer 1
10
52.551802
20
146.650015
11
52.364317
21
146.863964
0
LINE
8
Layer 1
10
52.364317
20
146.863964
11
52.285169
21
147.278893
0
LINE
8
Layer 1
10
52.285169
20
147.278893
11
52.321713
21
147.862470
0
LINE
8
Layer 1
10
52.321713
20
147.862470
11
52.862534
21
148.241593
0
LINE
8
Layer 1
10
52.862534
20
148.241593
11
54.300580
21
148.553475
0
LINE
8
Layer 1
10
54.300580
20
148.553475
11
57.028800
21
148.935332
0
LINE
8
Layer 1
10
57.028800
20
148.935332
11
61.353508
21
149.410580
0
LINE
8
Layer 1
10
61.353508
20
149.410580
11
63.279330
21
149.569163
0
LINE
8
Layer 1
10
63.279330
20
149.569163
11
63.187953
21
148.612530
0
LINE
8
Layer 1
10
63.187953
20
148.612530
11
63.109387
21
148.070644
0
LINE
8
Layer 1
10
63.109387
20
148.070644
11
62.925459
21
147.775158
0
LINE
8
Layer 1
10
62.925459
20
147.775158
11
62.514794
21
147.637694
0
LINE
8
Layer 1
10
62.514794
20
147.637694
11
61.756022
21
147.569878
0
LINE
8
Layer 1
10
61.756022
20
147.569878
11
60.415466
21
147.483859
0
LINE
8
Layer 1
10
60.415466
20
147.483859
11
60.415466
21
138.036020
0
LINE
8
Layer 1
10
60.415466
20
138.036020
11
60.341466
21
130.547245
0
LINE
8
Layer 1
10
60.341466
20
130.547245
11
60.232997
21
128.979989
0
LINE
8
Layer 1
10
60.232997
20
128.979989
11
60.062689
21
128.479657
0
LINE
8
Layer 1
10
60.062689
20
128.479657
11
57.362849
21
128.213682
0
LINE
8
Layer 1
10
57.362849
20
128.213682
11
55.015790
21
128.056232
0
LINE
8
Layer 1
10
55.015790
20
128.056232
11
55.000347
21
132.776064
0
LINE
8
Layer 1
10
55.000347
20
132.776064
11
55.000347
21
132.776064
0
LINE
8
Layer 1
10
64.797325
20
129.115890
11
64.673026
21
132.396087
0
LINE
8
Layer 1
10
64.673026
20
132.396087
11
64.652513
21
139.388966
0
LINE
8
Layer 1
10
64.652513
20
139.388966
11
64.722559
21
146.364760
0
LINE
8
Layer 1
10
64.722559
20
146.364760
11
64.869941
21
149.593701
0
LINE
8
Layer 1
10
64.869941
20
149.593701
11
69.526607
21
149.933239
0
LINE
8
Layer 1
10
69.526607
20
149.933239
11
73.962133
21
150.136105
0
LINE
8
Layer 1
10
73.962133
20
150.136105
11
73.962133
21
149.267797
0
LINE
8
Layer 1
10
73.962133
20
149.267797
11
73.846826
21
148.627604
0
LINE
8
Layer 1
10
73.846826
20
148.627604
11
73.435683
21
148.252158
0
LINE
8
Layer 1
10
73.435683
20
148.252158
11
72.630875
21
148.098925
0
LINE
8
Layer 1
10
72.630875
20
148.098925
11
71.334571
21
148.125369
0
LINE
8
Layer 1
10
71.334571
20
148.125369
11
69.869911
21
148.220341
0
LINE
8
Layer 1
10
69.869911
20
148.220341
11
69.785888
21
146.456452
0
LINE
8
Layer 1
10
69.785888
20
146.456452
11
69.701867
21
144.692563
0
LINE
8
Layer 1
10
69.701867
20
144.692563
11
71.949592
21
144.692563
0
LINE
8
Layer 1
10
71.949592
20
144.692563
11
73.360165
21
144.643170
0
LINE
8
Layer 1
10
73.360165
20
144.643170
11
74.140940
21
144.460894
0
LINE
8
Layer 1
10
74.140940
20
144.460894
11
74.387716
21
144.094592
0
LINE
8
Layer 1
10
74.387716
20
144.094592
11
74.196290
21
143.493119
0
LINE
8
Layer 1
10
74.196290
20
143.493119
11
73.718907
21
143.112869
0
LINE
8
Layer 1
10
73.718907
20
143.112869
11
72.717482
21
142.999230
0
LINE
8
Layer 1
10
72.717482
20
142.999230
11
70.610744
21
142.822841
0
LINE
8
Layer 1
10
70.610744
20
142.822841
11
69.728800
21
142.646452
0
LINE
8
Layer 1
10
69.728800
20
142.646452
11
69.728800
21
136.926328
0
LINE
8
Layer 1
10
69.728800
20
136.926328
11
69.728800
21
131.206204
0
LINE
8
Layer 1
10
69.728800
20
131.206204
11
71.633800
21
131.273950
0
LINE
8
Layer 1
10
71.633800
20
131.273950
11
72.986204
21
131.265952
0
LINE
8
Layer 1
10
72.986204
20
131.265952
11
73.880551
21
131.115227
0
LINE
8
Layer 1
10
73.880551
20
131.115227
11
74.374717
21
130.802456
0
LINE
8
Layer 1
10
74.374717
20
130.802456
11
74.526577
21
130.308318
0
LINE
8
Layer 1
10
74.526577
20
130.308318
11
74.398631
21
129.875629
0
LINE
8
Layer 1
10
74.398631
20
129.875629
11
73.809091
21
129.610166
0
LINE
8
Layer 1
10
73.809091
20
129.610166
11
70.011022
21
129.307319
0
LINE
8
Layer 1
10
70.011022
20
129.307319
11
65.714547
21
129.055006
0
LINE
8
Layer 1
10
65.714547
20
129.055006
11
64.797325
21
129.115890
0
LINE
8
Layer 1
10
64.797325
20
129.115890
11
64.797325
21
129.115890
0
LINE
8
Layer 1
10
84.248893
20
129.670499
11
83.057512
21
130.611184
0
LINE
8
Layer 1
10
83.057512
20
130.611184
11
82.210845
21
131.598134
0
LINE
8
Layer 1
10
82.210845
20
131.598134
11
81.287222
21
132.730129
0
LINE
8
Layer 1
10
81.287222
20
132.730129
11
81.048322
21
133.048423
0
LINE
8
Layer 1
10
81.048322
20
133.048423
11
80.931963
21
133.020009
0
LINE
8
Layer 1
10
80.931963
20
133.020009
11
80.967320
21
131.558464
0
LINE
8
Layer 1
10
80.967320
20
131.558464
11
81.083444
21
129.734785
0
LINE
8
Layer 1
10
81.083444
20
129.734785
11
78.327727
21
129.734785
0
LINE
8
Layer 1
10
78.327727
20
129.734785
11
75.572010
21
129.734785
0
LINE
8
Layer 1
10
75.572010
20
129.734785
11
75.751594
21
135.026452
0
LINE
8
Layer 1
10
75.751594
20
135.026452
11
75.934435
21
145.346149
0
LINE
8
Layer 1
10
75.934435
20
145.346149
11
75.937689
21
150.374179
0
LINE
8
Layer 1
10
75.937689
20
150.374179
11
79.313275
21
150.227460
0
LINE
8
Layer 1
10
79.313275
20
150.227460
11
82.052473
21
150.008041
0
LINE
8
Layer 1
10
82.052473
20
150.008041
11
83.532020
21
149.644726
0
LINE
8
Layer 1
10
83.532020
20
149.644726
11
84.281996
21
149.103877
0
LINE
8
Layer 1
10
84.281996
20
149.103877
11
85.023243
21
148.336530
0
LINE
8
Layer 1
10
85.023243
20
148.336530
11
85.589740
21
147.541085
0
LINE
8
Layer 1
10
85.589740
20
147.541085
11
85.815466
21
146.915942
0
LINE
8
Layer 1
10
85.815466
20
146.915942
11
86.224516
21
145.927487
0
LINE
8
Layer 1
10
86.224516
20
145.927487
11
86.492222
21
145.490415
0
LINE
8
Layer 1
10
86.492222
20
145.490415
11
86.623754
21
144.854506
0
LINE
8
Layer 1
10
86.623754
20
144.854506
11
86.645694
21
141.046153
0
LINE
8
Layer 1
10
86.645694
20
141.046153
11
86.505383
21
138.191817
0
LINE
8
Layer 1
10
86.505383
20
138.191817
11
86.060542
21
136.332509
0
LINE
8
Layer 1
10
86.060542
20
136.332509
11
85.484649
21
135.120485
0
LINE
8
Layer 1
10
85.484649
20
135.120485
11
84.773444
21
134.095623
0
LINE
8
Layer 1
10
84.773444
20
134.095623
11
84.034128
21
133.386103
0
LINE
8
Layer 1
10
84.034128
20
133.386103
11
83.373903
21
133.120103
0
LINE
8
Layer 1
10
83.373903
20
133.120103
11
83.173684
21
133.072405
0
LINE
8
Layer 1
10
83.173684
20
133.072405
11
83.188088
21
132.911373
0
LINE
8
Layer 1
10
83.188088
20
132.911373
11
83.926172
21
132.132326
0
LINE
8
Layer 1
10
83.926172
20
132.132326
11
84.801537
21
131.435660
0
LINE
8
Layer 1
10
84.801537
20
131.435660
11
85.397910
21
131.145896
0
LINE
8
Layer 1
10
85.397910
20
131.145896
11
85.809988
21
130.966895
0
LINE
8
Layer 1
10
85.809988
20
130.966895
11
86.124426
21
130.543977
0
LINE
8
Layer 1
10
86.124426
20
130.543977
11
86.257800
21
130.048269
0
LINE
8
Layer 1
10
86.257800
20
130.048269
11
86.126690
21
129.650899
0
LINE
8
Layer 1
10
86.126690
20
129.650899
11
85.766763
21
129.391405
0
LINE
8
Layer 1
10
85.766763
20
129.391405
11
85.357778
21
129.307924
0
LINE
8
Layer 1
10
85.357778
20
129.307924
11
84.248893
21
129.670499
0
LINE
8
Layer 1
10
84.248893
20
129.670499
11
84.248893
21
129.670499
0
LINE
8
Layer 1
10
83.085443
20
134.843851
11
83.649450
21
135.309061
0
LINE
8
Layer 1
10
83.649450
20
135.309061
11
84.289602
21
136.124065
0
LINE
8
Layer 1
10
84.289602
20
136.124065
11
84.854443
21
137.067806
0
LINE
8
Layer 1
10
84.854443
20
137.067806
11
85.192520
21
137.919230
0
LINE
8
Layer 1
10
85.192520
20
137.919230
11
85.565276
21
140.131999
0
LINE
8
Layer 1
10
85.565276
20
140.131999
11
85.592219
21
142.222202
0
LINE
8
Layer 1
10
85.592219
20
142.222202
11
85.270460
21
144.229970
0
LINE
8
Layer 1
10
85.270460
20
144.229970
11
84.597113
21
146.195434
0
LINE
8
Layer 1
10
84.597113
20
146.195434
11
84.136995
21
147.089195
0
LINE
8
Layer 1
10
84.136995
20
147.089195
11
83.612231
21
147.690872
0
LINE
8
Layer 1
10
83.612231
20
147.690872
11
82.912439
21
148.090745
0
LINE
8
Layer 1
10
82.912439
20
148.090745
11
81.927234
21
148.379096
0
LINE
8
Layer 1
10
81.927234
20
148.379096
11
80.989054
21
148.590690
0
LINE
8
Layer 1
10
80.989054
20
148.590690
11
81.073927
21
142.047990
0
LINE
8
Layer 1
10
81.073927
20
142.047990
11
81.224652
21
136.685724
0
LINE
8
Layer 1
10
81.224652
20
136.685724
11
81.366983
21
135.540317
0
LINE
8
Layer 1
10
81.366983
20
135.540317
11
81.582133
21
135.029661
0
LINE
8
Layer 1
10
81.582133
20
135.029661
11
81.908160
21
134.703178
0
LINE
8
Layer 1
10
81.908160
20
134.703178
11
82.195206
21
134.572303
0
LINE
8
Layer 1
10
82.195206
20
134.572303
11
83.085443
21
134.843851
0
LINE
8
Layer 1
10
83.085443
20
134.843851
11
83.085443
21
134.843851
 0 
ENDSEC
 0 
EOF
