  0
SECTION
  2
HEADER
  9
$ACADVER
  1
AC1009
  9
$DWGCODEPAGE
  3
ansi_1252
  9
$INSBASE
 10
0.0
 20
0.0
 30
0.0
  9
$EXTMIN
 10
0.0
 20
0.0
 30
0.0
  9
$EXTMAX
 10
1.722222222222222
 20
1.458333333333333
 30
0.0
  9
$LIMMIN
 10
0.0
 20
0.0
  9
$LIMMAX
 10
12.0
 20
9.0
  9
$ORTHOMODE
 70
     0
  9
$REGENMODE
 70
     1
  9
$FILLMODE
 70
     1
  9
$QTEXTMODE
 70
     0
  9
$MIRRTEXT
 70
     1
  9
$DRAGMODE
 70
     2
  9
$LTSCALE
 40
1.0
  9
$OSMODE
 70
    37
  9
$ATTMODE
 70
     1
  9
$TEXTSIZE
 40
0.2
  9
$TRACEWID
 40
0.05
  9
$TEXTSTYLE
  7
STANDARD
  9
$CLAYER
  8
0
  9
$CELTYPE
  6
BYLAYER
  9
$CECOLOR
 62
   256
  9
$DIMSCALE
 40
1.0
  9
$DIMASZ
 40
0.18
  9
$DIMEXO
 40
0.0625
  9
$DIMDLI
 40
0.38
  9
$DIMRND
 40
0.0
  9
$DIMDLE
 40
0.0
  9
$DIMEXE
 40
0.18
  9
$DIMTP
 40
0.0
  9
$DIMTM
 40
0.0
  9
$DIMTXT
 40
0.18
  9
$DIMCEN
 40
0.09
  9
$DIMTSZ
 40
0.0
  9
$DIMTOL
 70
     0
  9
$DIMLIM
 70
     0
  9
$DIMTIH
 70
     1
  9
$DIMTOH
 70
     1
  9
$DIMSE1
 70
     0
  9
$DIMSE2
 70
     0
  9
$DIMTAD
 70
     0
  9
$DIMZIN
 70
     0
  9
$DIMBLK
  1

  9
$DIMASO
 70
     1
  9
$DIMSHO
 70
     1
  9
$DIMPOST
  1

  9
$DIMAPOST
  1

  9
$DIMALT
 70
     0
  9
$DIMALTD
 70
     2
  9
$DIMALTF
 40
25.4
  9
$DIMLFAC
 40
1.0
  9
$DIMTOFL
 70
     0
  9
$DIMTVP
 40
0.0
  9
$DIMTIX
 70
     0
  9
$DIMSOXD
 70
     0
  9
$DIMSAH
 70
     0
  9
$DIMBLK1
  1

  9
$DIMBLK2
  1

  9
$DIMSTYLE
  2
STANDARD
  9
$DIMCLRD
 70
     0
  9
$DIMCLRE
 70
     0
  9
$DIMCLRT
 70
     0
  9
$DIMTFAC
 40
1.0
  9
$DIMGAP
 40
0.09
  9
$LUNITS
 70
     2
  9
$LUPREC
 70
     4
  9
$SKETCHINC
 40
0.1
  9
$FILLETRAD
 40
0.5
  9
$AUNITS
 70
     0
  9
$AUPREC
 70
     0
  9
$MENU
  1
.
  9
$ELEVATION
 40
0.0
  9
$PELEVATION
 40
0.0
  9
$THICKNESS
 40
0.0
  9
$LIMCHECK
 70
     0
  9
$CHAMFERA
 40
0.5
  9
$CHAMFERB
 40
0.5
  9
$SKPOLY
 70
     0
  9
$TDCREATE
 40
2455161.683279039
  9
$TDUPDATE
 40
2455161.683279051
  9
$TDINDWG
 40
0.0000000116
  9
$TDUSRTIMER
 40
0.0000000116
  9
$USRTIMER
 70
     1
  9
$ANGBASE
 50
0.0
  9
$ANGDIR
 70
     0
  9
$PDMODE
 70
     0
  9
$PDSIZE
 40
0.0
  9
$PLINEWID
 40
0.0
  9
$COORDS
 70
     1
  9
$SPLFRAME
 70
     0
  9
$SPLINETYPE
 70
     6
  9
$SPLINESEGS
 70
     8
  9
$ATTDIA
 70
     0
  9
$ATTREQ
 70
     1
  9
$HANDLING
 70
     1
  9
$HANDSEED
  5
5BC
  9
$SURFTAB1
 70
     6
  9
$SURFTAB2
 70
     6
  9
$SURFTYPE
 70
     6
  9
$SURFU
 70
     6
  9
$SURFV
 70
     6
  9
$UCSNAME
  2

  9
$UCSORG
 10
0.0
 20
0.0
 30
0.0
  9
$UCSXDIR
 10
1.0
 20
0.0
 30
0.0
  9
$UCSYDIR
 10
0.0
 20
1.0
 30
0.0
  9
$PUCSNAME
  2

  9
$PUCSORG
 10
0.0
 20
0.0
 30
0.0
  9
$PUCSXDIR
 10
1.0
 20
0.0
 30
0.0
  9
$PUCSYDIR
 10
0.0
 20
1.0
 30
0.0
  9
$USERI1
 70
     0
  9
$USERI2
 70
     0
  9
$USERI3
 70
     0
  9
$USERI4
 70
     0
  9
$USERI5
 70
     0
  9
$USERR1
 40
0.0
  9
$USERR2
 40
0.0
  9
$USERR3
 40
0.0
  9
$USERR4
 40
0.0
  9
$USERR5
 40
0.0
  9
$WORLDVIEW
 70
     1
  9
$SHADEDGE
 70
     3
  9
$SHADEDIF
 70
    70
  9
$TILEMODE
 70
     1
  9
$MAXACTVP
 70
    64
  9
$PLIMCHECK
 70
     0
  9
$PEXTMIN
 10
1.000000000000000E+20
 20
1.000000000000000E+20
 30
1.000000000000000E+20
  9
$PEXTMAX
 10
-1.000000000000000E+20
 20
-1.000000000000000E+20
 30
-1.000000000000000E+20
  9
$PLIMMIN
 10
0.0
 20
0.0
  9
$PLIMMAX
 10
12.0
 20
9.0
  9
$UNITMODE
 70
     0
  9
$VISRETAIN
 70
     1
  9
$PLINEGEN
 70
     0
  9
$PSLTSCALE
 70
     1
  0
ENDSEC
  0
SECTION
  2
TABLES
  0
TABLE
  2
VPORT
 70
     1
  0
VPORT
  2
*ACTIVE
 70
     0
 10
0.0
 20
0.0
 11
1.0
 21
1.0
 12
0.0
 22
0.0
 13
0.0
 23
0.0
 14
0.5
 24
0.5
 15
0.5
 25
0.5
 16
0.0
 26
0.0
 36
1.0
 17
0.8611111111111112
 27
0.7291666666666666
 37
0.0
 40
1.4875
 41
1.180952380952381
 42
50.0
 43
0.0
 44
0.0
 50
0.0
 51
0.0
 71
     0
 72
   100
 73
     1
 74
     3
 75
     0
 76
     0
 77
     0
 78
     0
  0
ENDTAB
  0
TABLE
  2
LTYPE
 70
     1
  0
LTYPE
  2
CONTINUOUS
 70
     0
  3
Solid line
 72
    65
 73
     0
 40
0.0
  0
ENDTAB
  0
TABLE
  2
LAYER
 70
    23
  0
LAYER
  2
0
 70
     0
 62
     7
  6
CONTINUOUS
  0
LAYER
  2
COLOR_3C3E3DFF
 70
     0
 62
     7
  6
CONTINUOUS
  0
LAYER
  2
COLOR_878790FF
 70
     0
 62
     7
  6
CONTINUOUS
  0
LAYER
  2
COLOR_727375FF
 70
     0
 62
     7
  6
CONTINUOUS
  0
LAYER
  2
COLOR_575856FF
 70
     0
 62
     7
  6
CONTINUOUS
  0
LAYER
  2
COLOR_CDD5DFFF
 70
     0
 62
     7
  6
CONTINUOUS
  0
LAYER
  2
COLOR_F7F9FFFF
 70
     0
 62
     7
  6
CONTINUOUS
  0
LAYER
  2
COLOR_B6B9C2FF
 70
     0
 62
     7
  6
CONTINUOUS
  0
LAYER
  2
COLOR_A3ABB2FF
 70
     0
 62
     7
  6
CONTINUOUS
  0
LAYER
  2
COLOR_B9BABDFF
 70
     0
 62
     7
  6
CONTINUOUS
  0
LAYER
  2
COLOR_7B8587FF
 70
     0
 62
     7
  6
CONTINUOUS
  0
LAYER
  2
COLOR_989898FF
 70
     0
 62
     7
  6
CONTINUOUS
  0
LAYER
  2
COLOR_27282AFF
 70
     0
 62
     7
  6
CONTINUOUS
  0
LAYER
  2
COLOR_525A5DFF
 70
     0
 62
     7
  6
CONTINUOUS
  0
LAYER
  2
COLOR_6E908DFF
 70
     0
 62
     7
  6
CONTINUOUS
  0
LAYER
  2
COLOR_859B9DFF
 70
     0
 62
     7
  6
CONTINUOUS
  0
LAYER
  2
COLOR_4F5651FF
 70
     0
 62
     7
  6
CONTINUOUS
  0
LAYER
  2
COLOR_B7BAC6FF
 70
     0
 62
     7
  6
CONTINUOUS
  0
LAYER
  2
COLOR_529C96FF
 70
     0
 62
     7
  6
CONTINUOUS
  0
LAYER
  2
COLOR_E3FFFFFF
 70
     0
 62
     7
  6
CONTINUOUS
  0
LAYER
  2
COLOR_F9FBFFFF
 70
     0
 62
     7
  6
CONTINUOUS
  0
LAYER
  2
COLOR_599D99FF
 70
     0
 62
     7
  6
CONTINUOUS
  0
LAYER
  2
COLOR_FEFEFEFF
 70
     0
 62
     7
  6
CONTINUOUS
  0
ENDTAB
  0
TABLE
  2
STYLE
 70
     1
  0
STYLE
  2
STANDARD
 70
     0
 40
0.0
 41
1.0
 50
0.0
 71
     0
 42
0.2
  3
txt
  4

  0
ENDTAB
  0
TABLE
  2
VIEW
 70
     0
  0
ENDTAB
  0
TABLE
  2
UCS
 70
     0
  0
ENDTAB
  0
TABLE
  2
APPID
 70
     1
  0
APPID
  2
ACAD
 70
     0
  0
ENDTAB
  0
TABLE
  2
DIMSTYLE
 70
     1
  0
DIMSTYLE
  2
STANDARD
 70
     0
  3

  4

  5

  6

  7

 40
1.0
 41
0.18
 42
0.0625
 43
0.38
 44
0.18
 45
0.0
 46
0.0
 47
0.0
 48
0.0
140
0.18
141
0.09
142
0.0
143
25.4
144
1.0
145
0.0
146
1.0
147
0.09
 71
     0
 72
     0
 73
     1
 74
     1
 75
     0
 76
     0
 77
     0
 78
     0
170
     0
171
     2
172
     0
173
     0
174
     0
175
     0
176
     0
177
     0
178
     0
  0
ENDTAB
  0
ENDSEC
  0
SECTION
  2
BLOCKS
  0
BLOCK
  8
0
  2
$MODEL_SPACE
 70
     0
 10
0.0
 20
0.0
 30
0.0
  3
$MODEL_SPACE
  1

  0
ENDBLK
  5
21
  8
0
  0
BLOCK
 67
     1
  8
0
  2
$PAPER_SPACE
 70
     0
 10
0.0
 20
0.0
 30
0.0
  3
$PAPER_SPACE
  1

  0
ENDBLK
  5
1D
 67
     1
  8
0
  0
ENDSEC
  0
SECTION
  2
ENTITIES
  0
LINE
  5
5E
  8
COLOR_3C3E3DFF
 10
0.425583461289858
 20
0.1976253626489832
 30
0.0
 11
0.4549457377341735
 21
0.1683043775329747
 31
0.0
  0
LINE
  5
5F
  8
COLOR_3C3E3DFF
 10
0.4397531536316532
 20
0.1618192883149718
 30
0.0
 11
0.425583461289858
 21
0.1976253626489832
 31
0.0
  0
LINE
  5
60
  8
COLOR_3C3E3DFF
 10
0.8155516235826608
 20
0.192910443878667
 30
0.0
 11
0.4397531536316532
 21
0.1618192883149718
 31
0.0
  0
LINE
  5
61
  8
COLOR_3C3E3DFF
 10
0.788457045187878
 20
0.2201484703651714
 30
0.0
 11
0.8155516235826605
 21
0.1929104438786666
 31
0.0
  0
LINE
  5
62
  8
COLOR_3C3E3DFF
 10
0.7545969990288182
 20
0.2158590079964803
 30
0.0
 11
0.788457045187878
 21
0.2201484703651714
 31
0.0
  0
LINE
  5
63
  8
COLOR_3C3E3DFF
 10
0.6373040615480705
 20
0.205338677603285
 30
0.0
 11
0.7545969990288182
 21
0.2158590079964803
 31
0.0
  0
LINE
  5
64
  8
COLOR_3C3E3DFF
 10
0.6116141215979234
 20
0.2033087700266807
 30
0.0
 11
0.6373040615480705
 21
0.205338677603285
 31
0.0
  0
LINE
  5
65
  8
COLOR_3C3E3DFF
 10
0.4802669994917689
 20
0.1726282791895504
 30
0.0
 11
0.6116141215979234
 21
0.2033087700266807
 31
0.0
  0
LINE
  5
66
  8
COLOR_3C3E3DFF
 10
0.4549457377341735
 20
0.1683043775329747
 30
0.0
 11
0.4802669994917689
 21
0.1726282791895504
 31
0.0
  0
LINE
  5
67
  8
COLOR_3C3E3DFF
 10
1.168800314115248
 20
0.2251556345809639
 30
0.0
 11
1.127846905701364
 21
0.2504682342184654
 31
0.0
  0
LINE
  5
68
  8
COLOR_3C3E3DFF
 10
1.533426097737299
 20
0.2649246761064046
 30
0.0
 11
1.168800314115248
 21
0.2251556345809639
 31
0.0
  0
LINE
  5
69
  8
COLOR_3C3E3DFF
 10
1.513973131604162
 20
0.2768731626915272
 30
0.0
 11
1.533426097737299
 21
0.2649246761064046
 31
0.0
  0
LINE
  5
6A
  8
COLOR_3C3E3DFF
 10
1.154537400008291
 20
0.2512639012100338
 30
0.0
 11
1.513973131604162
 21
0.2768731626915272
 31
0.0
  0
LINE
  5
6B
  8
COLOR_3C3E3DFF
 10
1.127846905701364
 20
0.2504682342184654
 30
0.0
 11
1.154537400008291
 21
0.2512639012100338
 31
0.0
  0
LINE
  5
6C
  8
COLOR_3C3E3DFF
 10
0.6026835550616033
 20
0.2652446874246367
 30
0.0
 11
0.6016297962252641
 21
0.3415054406686614
 31
0.0
  0
LINE
  5
6D
  8
COLOR_3C3E3DFF
 10
0.6693011174392189
 20
0.2515937762506457
 30
0.0
 11
0.6026835550616033
 21
0.2652446874246367
 31
0.0
  0
LINE
  5
6E
  8
COLOR_3C3E3DFF
 10
0.6739552586332981
 20
0.2930752091922459
 30
0.0
 11
0.6693011174392189
 21
0.2515937762506457
 31
0.0
  0
LINE
  5
6F
  8
COLOR_3C3E3DFF
 10
0.669218865761059
 20
0.3197903810768228
 30
0.0
 11
0.6739552586332981
 21
0.2930752091922459
 31
0.0
  0
LINE
  5
70
  8
COLOR_3C3E3DFF
 10
0.659088912068798
 20
0.3419071963750215
 30
0.0
 11
0.669218865761059
 21
0.3197903810768228
 31
0.0
  0
LINE
  5
71
  8
COLOR_3C3E3DFF
 10
0.655077742577254
 20
0.3479410977410491
 30
0.0
 11
0.659088912068798
 21
0.3419071963750215
 31
0.0
  0
LINE
  5
72
  8
COLOR_3C3E3DFF
 10
0.6016297962252644
 20
0.3415054406686618
 30
0.0
 11
0.655077742577254
 21
0.3479410977410491
 31
0.0
  0
LINE
  5
74
  8
COLOR_878790FF
 10
0.7860047330337138
 20
0.2552603161801608
 30
0.0
 11
0.7647966158100468
 21
0.3597514716330213
 31
0.0
  0
LINE
  5
75
  8
COLOR_878790FF
 10
0.8354634767809709
 20
0.263219683571862
 30
0.0
 11
0.7860047330337138
 21
0.2552603161801608
 31
0.0
  0
LINE
  5
76
  8
COLOR_878790FF
 10
0.8428383477873157
 20
0.3451259085278237
 30
0.0
 11
0.8354634767809707
 21
0.2632196835718623
 31
0.0
  0
LINE
  5
77
  8
COLOR_878790FF
 10
0.8174188607880728
 20
0.3609241365098301
 30
0.0
 11
0.8428383477873157
 21
0.3451259085278237
 31
0.0
  0
LINE
  5
78
  8
COLOR_878790FF
 10
0.764796615810047
 20
0.3597514716330213
 30
0.0
 11
0.8174188607880728
 21
0.3609241365098301
 31
0.0
  0
LINE
  5
7A
  8
COLOR_727375FF
 10
0.7161091987882208
 20
0.2673006841844917
 30
0.0
 11
0.7129998178247172
 21
0.3545378737307509
 31
0.0
  0
LINE
  5
7B
  8
COLOR_727375FF
 10
0.7526272925776077
 20
0.2531432363596124
 30
0.0
 11
0.7161091987882208
 21
0.2673006841844917
 31
0.0
  0
LINE
  5
7C
  8
COLOR_727375FF
 10
0.7860047330337138
 20
0.2552603161801608
 30
0.0
 11
0.752627292577608
 21
0.2531432363596124
 31
0.0
  0
LINE
  5
7D
  8
COLOR_727375FF
 10
0.7647966158100468
 20
0.3597514716330213
 30
0.0
 11
0.7860047330337138
 21
0.2552603161801608
 31
0.0
  0
LINE
  5
7E
  8
COLOR_727375FF
 10
0.7129998178247172
 20
0.3545378737307509
 30
0.0
 11
0.7647966158100468
 21
0.3597514716330213
 31
0.0
  0
LINE
  5
80
  8
COLOR_575856FF
 10
0.659088912068798
 20
0.3419071963750215
 30
0.0
 11
0.655077742577254
 21
0.3479410977410491
 31
0.0
  0
LINE
  5
81
  8
COLOR_575856FF
 10
0.669218865761059
 20
0.3197903810768228
 30
0.0
 11
0.659088912068798
 21
0.3419071963750215
 31
0.0
  0
LINE
  5
82
  8
COLOR_575856FF
 10
0.6739552586332981
 20
0.2930752091922459
 30
0.0
 11
0.669218865761059
 21
0.3197903810768228
 31
0.0
  0
LINE
  5
83
  8
COLOR_575856FF
 10
0.6693011174392189
 20
0.2515937762506457
 30
0.0
 11
0.6739552586332981
 21
0.2930752091922459
 31
0.0
  0
LINE
  5
84
  8
COLOR_575856FF
 10
0.752627292577608
 20
0.2531432363596124
 30
0.0
 11
0.6693011174392189
 21
0.2515937762506457
 31
0.0
  0
LINE
  5
85
  8
COLOR_575856FF
 10
0.7161091987882208
 20
0.2673006841844917
 30
0.0
 11
0.7526272925776077
 21
0.2531432363596124
 31
0.0
  0
LINE
  5
86
  8
COLOR_575856FF
 10
0.7129998178247172
 20
0.3545378737307509
 30
0.0
 11
0.7161091987882208
 21
0.2673006841844917
 31
0.0
  0
LINE
  5
87
  8
COLOR_575856FF
 10
0.655077742577254
 20
0.3479410977410491
 30
0.0
 11
0.7129998178247172
 21
0.3545378737307509
 31
0.0
  0
LINE
  5
89
  8
COLOR_CDD5DFFF
 10
1.092101784959273
 20
0.351429482319188
 30
0.0
 11
1.118837783300674
 21
0.3819625913551982
 31
0.0
  0
LINE
  5
8A
  8
COLOR_CDD5DFFF
 10
1.090615822380053
 20
0.2962756696697921
 30
0.0
 11
1.092101784959273
 21
0.351429482319188
 31
0.0
  0
LINE
  5
8B
  8
COLOR_CDD5DFFF
 10
1.070747735948717
 20
0.2782975615099408
 30
0.0
 11
1.090615822380053
 21
0.2962756696697921
 31
0.0
  0
LINE
  5
8C
  8
COLOR_CDD5DFFF
 10
1.174921234863977
 20
0.2895751287669738
 30
0.0
 11
1.070747735948717
 21
0.2782975615099408
 31
0.0
  0
LINE
  5
8D
  8
COLOR_CDD5DFFF
 10
1.154679910664635
 20
0.3487934939088696
 30
0.0
 11
1.174921234863977
 21
0.2895751287669738
 31
0.0
  0
LINE
  5
8E
  8
COLOR_CDD5DFFF
 10
1.146852486733209
 20
0.3618144250684389
 30
0.0
 11
1.154679910664635
 21
0.3487934939088696
 31
0.0
  0
LINE
  5
8F
  8
COLOR_CDD5DFFF
 10
1.142029158129882
 20
0.3675484568564321
 30
0.0
 11
1.146852486733209
 21
0.3618144250684389
 31
0.0
  0
LINE
  5
90
  8
COLOR_CDD5DFFF
 10
1.136479526869872
 20
0.3726415001110123
 30
0.0
 11
1.142029158129882
 21
0.3675484568564321
 31
0.0
  0
LINE
  5
91
  8
COLOR_CDD5DFFF
 10
1.130113674279475
 20
0.3770010303280142
 30
0.0
 11
1.136479526869872
 21
0.3726415001110123
 31
0.0
  0
LINE
  5
92
  8
COLOR_CDD5DFFF
 10
1.126596565399848
 20
0.378876814139872
 30
0.0
 11
1.130113674279475
 21
0.3770010303280142
 31
0.0
  0
LINE
  5
93
  8
COLOR_CDD5DFFF
 10
1.122841681684986
 20
0.3805345230032735
 30
0.0
 11
1.126596565399848
 21
0.378876814139872
 31
0.0
  0
LINE
  5
94
  8
COLOR_CDD5DFFF
 10
1.118837783300674
 20
0.3819625913551982
 30
0.0
 11
1.122841681684986
 21
0.3805345230032735
 31
0.0
  0
LINE
  5
96
  8
COLOR_F7F9FFFF
 10
0.9551227151792436
 20
0.3520810562259733
 30
0.0
 11
0.9864647573836592
 21
0.3763985496295881
 31
0.0
  0
LINE
  5
97
  8
COLOR_F7F9FFFF
 10
0.9510963401006938
 20
0.2789314593834307
 30
0.0
 11
0.9551227151792436
 21
0.3520810562259731
 31
0.0
  0
LINE
  5
98
  8
COLOR_F7F9FFFF
 10
1.022190334267713
 20
0.2741570704462804
 30
0.0
 11
0.9510963401006938
 21
0.2789314593834307
 31
0.0
  0
LINE
  5
99
  8
COLOR_F7F9FFFF
 10
1.070747735948717
 20
0.2782975615099408
 30
0.0
 11
1.022190334267713
 21
0.2741570704462804
 31
0.0
  0
LINE
  5
9A
  8
COLOR_F7F9FFFF
 10
1.090615822380053
 20
0.2962756696697921
 30
0.0
 11
1.070747735948717
 21
0.2782975615099408
 31
0.0
  0
LINE
  5
9B
  8
COLOR_F7F9FFFF
 10
1.092101784959273
 20
0.351429482319188
 30
0.0
 11
1.090615822380053
 21
0.2962756696697921
 31
0.0
  0
LINE
  5
9C
  8
COLOR_F7F9FFFF
 10
1.118837783300674
 20
0.3819625913551982
 30
0.0
 11
1.092101784959273
 21
0.351429482319188
 31
0.0
  0
LINE
  5
9D
  8
COLOR_F7F9FFFF
 10
0.9864647573836592
 20
0.3763985496295881
 30
0.0
 11
1.118837783300674
 21
0.3819625913551982
 31
0.0
  0
LINE
  5
9F
  8
COLOR_B6B9C2FF
 10
0.8428383477873157
 20
0.3451259085278237
 30
0.0
 11
0.8174188607880728
 21
0.3609241365098301
 31
0.0
  0
LINE
  5
A0
  8
COLOR_B6B9C2FF
 10
0.8354634767809707
 20
0.2632196835718623
 30
0.0
 11
0.8428383477873157
 21
0.3451259085278237
 31
0.0
  0
LINE
  5
A1
  8
COLOR_B6B9C2FF
 10
0.8527884677818759
 20
0.2618302930743979
 30
0.0
 11
0.8354634767809707
 21
0.2632196835718623
 31
0.0
  0
LINE
  5
A2
  8
COLOR_B6B9C2FF
 10
0.9411292681830322
 20
0.2668871795365977
 30
0.0
 11
0.8527884677818759
 21
0.2618302930743979
 31
0.0
  0
LINE
  5
A3
  8
COLOR_B6B9C2FF
 10
0.9642687393716153
 20
0.2666191584500215
 30
0.0
 11
0.9411292681830322
 21
0.2668871795365977
 31
0.0
  0
LINE
  5
A4
  8
COLOR_B6B9C2FF
 10
0.9812588463504014
 20
0.2645911684271509
 30
0.0
 11
0.9642687393716153
 21
0.2666191584500215
 31
0.0
  0
LINE
  5
A5
  8
COLOR_B6B9C2FF
 10
0.9923635128898507
 20
0.2621002971534033
 30
0.0
 11
0.9812588463504014
 21
0.2645911684271509
 31
0.0
  0
LINE
  5
A6
  8
COLOR_B6B9C2FF
 10
1.003260343420379
 20
0.2585310140773264
 30
0.0
 11
0.9923635128898507
 21
0.2621002971534033
 31
0.0
  0
LINE
  5
A7
  8
COLOR_B6B9C2FF
 10
0.8917209878201384
 20
0.2560632328330724
 30
0.0
 11
1.003260343420379
 21
0.2585310140773264
 31
0.0
  0
LINE
  5
A8
  8
COLOR_B6B9C2FF
 10
0.8833665696213893
 20
0.2258150249054851
 30
0.0
 11
0.8917209878201384
 21
0.2560632328330724
 31
0.0
  0
LINE
  5
A9
  8
COLOR_B6B9C2FF
 10
1.118207847839982
 20
0.242929713532696
 30
0.0
 11
0.8833665696213893
 21
0.2258150249054851
 31
0.0
  0
LINE
  5
AA
  8
COLOR_B6B9C2FF
 10
1.112059554270474
 20
0.22649340258263
 30
0.0
 11
1.118207847839982
 21
0.242929713532696
 31
0.0
  0
LINE
  5
AB
  8
COLOR_B6B9C2FF
 10
1.123550764681303
 20
0.2192240099705024
 30
0.0
 11
1.112059554270474
 21
0.2264934025826296
 31
0.0
  0
LINE
  5
AC
  8
COLOR_B6B9C2FF
 10
1.144443168986962
 20
0.2167318712729246
 30
0.0
 11
1.123550764681303
 21
0.2192240099705024
 31
0.0
  0
LINE
  5
AD
  8
COLOR_B6B9C2FF
 10
1.168800314115248
 20
0.2251556345809639
 30
0.0
 11
1.144443168986962
 21
0.2167318712729246
 31
0.0
  0
LINE
  5
AE
  8
COLOR_B6B9C2FF
 10
1.127846905701364
 20
0.2504682342184654
 30
0.0
 11
1.168800314115248
 21
0.2251556345809639
 31
0.0
  0
LINE
  5
AF
  8
COLOR_B6B9C2FF
 10
1.154537400008291
 20
0.2512639012100338
 30
0.0
 11
1.127846905701364
 21
0.2504682342184654
 31
0.0
  0
LINE
  5
B0
  8
COLOR_B6B9C2FF
 10
1.513973131604162
 20
0.2768731626915272
 30
0.0
 11
1.154537400008291
 21
0.2512639012100338
 31
0.0
  0
LINE
  5
B1
  8
COLOR_B6B9C2FF
 10
1.500383690441685
 20
0.2898666500266426
 30
0.0
 11
1.513973131604162
 21
0.2768731626915272
 31
0.0
  0
LINE
  5
B2
  8
COLOR_B6B9C2FF
 10
1.033319525331393
 20
0.2577297157139176
 30
0.0
 11
1.500383690441685
 21
0.2898666500266426
 31
0.0
  0
LINE
  5
B3
  8
COLOR_B6B9C2FF
 10
1.026091013832108
 20
0.2659660901820108
 30
0.0
 11
1.033319525331393
 21
0.2577297157139176
 31
0.0
  0
LINE
  5
B4
  8
COLOR_B6B9C2FF
 10
1.022190334267713
 20
0.2741570704462804
 30
0.0
 11
1.026091013832108
 21
0.2659660901820108
 31
0.0
  0
LINE
  5
B5
  8
COLOR_B6B9C2FF
 10
0.9510963401006938
 20
0.2789314593834307
 30
0.0
 11
1.022190334267713
 21
0.2741570704462804
 31
0.0
  0
LINE
  5
B6
  8
COLOR_B6B9C2FF
 10
0.9551227151792436
 20
0.3520810562259731
 30
0.0
 11
0.9510963401006938
 21
0.2789314593834307
 31
0.0
  0
LINE
  5
B7
  8
COLOR_B6B9C2FF
 10
0.9864647573836592
 20
0.3763985496295881
 30
0.0
 11
0.9551227151792436
 21
0.3520810562259733
 31
0.0
  0
LINE
  5
B8
  8
COLOR_B6B9C2FF
 10
0.8174188607880728
 20
0.3609241365098301
 30
0.0
 11
0.9864647573836592
 21
0.3763985496295881
 31
0.0
  0
LINE
  5
BA
  8
COLOR_A3ABB2FF
 10
1.118837783300674
 20
0.3819625913551982
 30
0.0
 11
1.108294665785002
 21
0.3854620018733188
 31
0.0
  0
LINE
  5
BB
  8
COLOR_A3ABB2FF
 10
1.122841681684986
 20
0.3805345230032735
 30
0.0
 11
1.118837783300674
 21
0.3819625913551982
 31
0.0
  0
LINE
  5
BC
  8
COLOR_A3ABB2FF
 10
1.126596565399848
 20
0.378876814139872
 30
0.0
 11
1.122841681684986
 21
0.3805345230032735
 31
0.0
  0
LINE
  5
BD
  8
COLOR_A3ABB2FF
 10
1.130113674279475
 20
0.3770010303280142
 30
0.0
 11
1.126596565399848
 21
0.378876814139872
 31
0.0
  0
LINE
  5
BE
  8
COLOR_A3ABB2FF
 10
1.136479526869872
 20
0.3726415001110123
 30
0.0
 11
1.130113674279475
 21
0.3770010303280142
 31
0.0
  0
LINE
  5
BF
  8
COLOR_A3ABB2FF
 10
1.142029158129882
 20
0.3675484568564321
 30
0.0
 11
1.136479526869872
 21
0.3726415001110123
 31
0.0
  0
LINE
  5
C0
  8
COLOR_A3ABB2FF
 10
1.146852486733209
 20
0.3618144250684389
 30
0.0
 11
1.142029158129882
 21
0.3675484568564321
 31
0.0
  0
LINE
  5
C1
  8
COLOR_A3ABB2FF
 10
1.154679910664635
 20
0.3487934939088696
 30
0.0
 11
1.146852486733209
 21
0.3618144250684389
 31
0.0
  0
LINE
  5
C2
  8
COLOR_A3ABB2FF
 10
1.174921234863977
 20
0.2895751287669738
 30
0.0
 11
1.154679910664635
 21
0.3487934939088696
 31
0.0
  0
LINE
  5
C3
  8
COLOR_A3ABB2FF
 10
1.236039862283169
 20
0.2915112842386337
 30
0.0
 11
1.174921234863977
 21
0.2895751287669738
 31
0.0
  0
LINE
  5
C4
  8
COLOR_A3ABB2FF
 10
1.242452273956736
 20
0.296418591653896
 30
0.0
 11
1.236039862283169
 21
0.2915112842386337
 31
0.0
  0
LINE
  5
C5
  8
COLOR_A3ABB2FF
 10
1.250663958484609
 20
0.3045501767062719
 30
0.0
 11
1.242452273956736
 21
0.296418591653896
 31
0.0
  0
LINE
  5
C6
  8
COLOR_A3ABB2FF
 10
1.259246216751047
 20
0.316649431063345
 30
0.0
 11
1.250663958484609
 21
0.3045501767062719
 31
0.0
  0
LINE
  5
C7
  8
COLOR_A3ABB2FF
 10
1.266726817373781
 20
0.333405281868901
 30
0.0
 11
1.259246216751047
 21
0.316649431063345
 31
0.0
  0
LINE
  5
C8
  8
COLOR_A3ABB2FF
 10
1.274938198694145
 20
0.3893697567433243
 30
0.0
 11
1.266726817373781
 21
0.333405281868901
 31
0.0
  0
LINE
  5
C9
  8
COLOR_A3ABB2FF
 10
1.108294665785002
 20
0.3854620018733188
 30
0.0
 11
1.274938198694145
 21
0.3893697567433243
 31
0.0
  0
LINE
  5
CB
  8
COLOR_B9BABDFF
 10
0.4147939937288958
 20
0.3127231901928387
 30
0.0
 11
0.4100734626807479
 21
0.3521621226483659
 31
0.0
  0
LINE
  5
CC
  8
COLOR_B9BABDFF
 10
0.4851134378047799
 20
0.327088389705141
 30
0.0
 11
0.4147939937288958
 21
0.3127231901928387
 31
0.0
  0
LINE
  5
CD
  8
COLOR_B9BABDFF
 10
0.4959492954003054
 20
0.2199165818673618
 30
0.0
 11
0.4851134378047799
 21
0.327088389705141
 31
0.0
  0
LINE
  5
CE
  8
COLOR_B9BABDFF
 10
0.425583461289858
 20
0.1976253626489832
 30
0.0
 11
0.4959492954003054
 21
0.2199165818673618
 31
0.0
  0
LINE
  5
CF
  8
COLOR_B9BABDFF
 10
0.4549457377341735
 20
0.1683043775329747
 30
0.0
 11
0.425583461289858
 21
0.1976253626489832
 31
0.0
  0
LINE
  5
D0
  8
COLOR_B9BABDFF
 10
0.4802669994917689
 20
0.1726282791895504
 30
0.0
 11
0.4549457377341735
 21
0.1683043775329747
 31
0.0
  0
LINE
  5
D1
  8
COLOR_B9BABDFF
 10
0.6116141215979234
 20
0.2033087700266807
 30
0.0
 11
0.4802669994917689
 21
0.1726282791895504
 31
0.0
  0
LINE
  5
D2
  8
COLOR_B9BABDFF
 10
0.6373040615480705
 20
0.205338677603285
 30
0.0
 11
0.6116141215979234
 21
0.2033087700266807
 31
0.0
  0
LINE
  5
D3
  8
COLOR_B9BABDFF
 10
0.7545969990288182
 20
0.2158590079964803
 30
0.0
 11
0.6373040615480705
 21
0.205338677603285
 31
0.0
  0
LINE
  5
D4
  8
COLOR_B9BABDFF
 10
0.7331475886032166
 20
0.2328350072695859
 30
0.0
 11
0.7545969990288182
 21
0.2158590079964803
 31
0.0
  0
LINE
  5
D5
  8
COLOR_B9BABDFF
 10
0.5251297517636633
 20
0.2143607298231394
 30
0.0
 11
0.7331475886032166
 21
0.2328350072695859
 31
0.0
  0
LINE
  5
D6
  8
COLOR_B9BABDFF
 10
0.5139475486439412
 20
0.339397757691452
 30
0.0
 11
0.5251297517636633
 21
0.2143607298231394
 31
0.0
  0
LINE
  5
D7
  8
COLOR_B9BABDFF
 10
0.4788841099587632
 20
0.3377504287199208
 30
0.0
 11
0.5139475486439412
 21
0.339397757691452
 31
0.0
  0
LINE
  5
D8
  8
COLOR_B9BABDFF
 10
0.5768803027516325
 20
0.3637028198519812
 30
0.0
 11
0.4788841099587632
 21
0.3377504287199208
 31
0.0
  0
LINE
  5
D9
  8
COLOR_B9BABDFF
 10
0.5767627884379886
 20
0.3922421851741703
 30
0.0
 11
0.5768803027516325
 21
0.3637028198519812
 31
0.0
  0
LINE
  5
DA
  8
COLOR_B9BABDFF
 10
0.410073462680748
 20
0.3521621226483662
 30
0.0
 11
0.5767627884379886
 21
0.3922421851741703
 31
0.0
  0
LINE
  5
DC
  8
COLOR_7B8587FF
 10
1.266726817373781
 20
0.333405281868901
 30
0.0
 11
1.274938198694145
 21
0.3893697567433243
 31
0.0
  0
LINE
  5
DD
  8
COLOR_7B8587FF
 10
1.259246216751047
 20
0.316649431063345
 30
0.0
 11
1.266726817373781
 21
0.333405281868901
 31
0.0
  0
LINE
  5
DE
  8
COLOR_7B8587FF
 10
1.250663958484609
 20
0.3045501767062719
 30
0.0
 11
1.259246216751047
 21
0.316649431063345
 31
0.0
  0
LINE
  5
DF
  8
COLOR_7B8587FF
 10
1.242452273956736
 20
0.296418591653896
 30
0.0
 11
1.250663958484609
 21
0.3045501767062719
 31
0.0
  0
LINE
  5
E0
  8
COLOR_7B8587FF
 10
1.236039862283169
 20
0.2915112842386337
 30
0.0
 11
1.242452273956736
 21
0.296418591653896
 31
0.0
  0
LINE
  5
E1
  8
COLOR_7B8587FF
 10
1.384514158532263
 20
0.3097176599386759
 30
0.0
 11
1.236039862283169
 21
0.2915112842386337
 31
0.0
  0
LINE
  5
E2
  8
COLOR_7B8587FF
 10
1.408531260240593
 20
0.3100278162910455
 30
0.0
 11
1.384514158532263
 21
0.3097176599386759
 31
0.0
  0
LINE
  5
E3
  8
COLOR_7B8587FF
 10
1.412944898116655
 20
0.3997067161705452
 30
0.0
 11
1.408531260240593
 21
0.3100278162910455
 31
0.0
  0
LINE
  5
E4
  8
COLOR_7B8587FF
 10
1.274938198694145
 20
0.3893697567433243
 30
0.0
 11
1.412944898116655
 21
0.3997067161705452
 31
0.0
  0
LINE
  5
E6
  8
COLOR_989898FF
 10
1.552315645428287
 20
0.4006748214993541
 30
0.0
 11
1.556850265529867
 21
0.4194537784882011
 31
0.0
  0
LINE
  5
E7
  8
COLOR_989898FF
 10
1.556310551910096
 20
0.3080482477625662
 30
0.0
 11
1.552315645428287
 21
0.4006748214993541
 31
0.0
  0
LINE
  5
E8
  8
COLOR_989898FF
 10
1.500383690441687
 20
0.2898666500266426
 30
0.0
 11
1.556310551910096
 21
0.3080482477625662
 31
0.0
  0
LINE
  5
E9
  8
COLOR_989898FF
 10
1.513973131604162
 20
0.2768731626915272
 30
0.0
 11
1.500383690441685
 21
0.2898666500266426
 31
0.0
  0
LINE
  5
EA
  8
COLOR_989898FF
 10
1.533426097737299
 20
0.2649246761064046
 30
0.0
 11
1.513973131604162
 21
0.2768731626915272
 31
0.0
  0
LINE
  5
EB
  8
COLOR_989898FF
 10
1.537297503416522
 20
0.2659324948561509
 30
0.0
 11
1.533426097737299
 21
0.2649246761064046
 31
0.0
  0
LINE
  5
EC
  8
COLOR_989898FF
 10
1.545750213426377
 20
0.2673976799314636
 30
0.0
 11
1.537297503416522
 21
0.2659324948561509
 31
0.0
  0
LINE
  5
ED
  8
COLOR_989898FF
 10
1.589422343648446
 20
0.2702524556092719
 30
0.0
 11
1.545750213426377
 21
0.2673976799314636
 31
0.0
  0
LINE
  5
EE
  8
COLOR_989898FF
 10
1.603450075726876
 20
0.2721116845866344
 30
0.0
 11
1.589422343648446
 21
0.2702524556092719
 31
0.0
  0
LINE
  5
EF
  8
COLOR_989898FF
 10
1.611938464706419
 20
0.2742330454328842
 30
0.0
 11
1.603450075726876
 21
0.2721116845866344
 31
0.0
  0
LINE
  5
F0
  8
COLOR_989898FF
 10
1.615831532617237
 20
0.2756392566149854
 30
0.0
 11
1.611938464706419
 21
0.2742330454328842
 31
0.0
  0
LINE
  5
F1
  8
COLOR_989898FF
 10
1.619449584205586
 20
0.2773118075477702
 30
0.0
 11
1.615831532617237
 21
0.2756392566149854
 31
0.0
  0
LINE
  5
F2
  8
COLOR_989898FF
 10
1.622761920519089
 20
0.2792776876647633
 30
0.0
 11
1.619449584205586
 21
0.2773118075477702
 31
0.0
  0
LINE
  5
F3
  8
COLOR_989898FF
 10
1.625737842605369
 20
0.2815638863994897
 30
0.0
 11
1.622761920519089
 21
0.2792776876647633
 31
0.0
  0
LINE
  5
F4
  8
COLOR_989898FF
 10
1.628346651512049
 20
0.284197393185474
 30
0.0
 11
1.625737842605369
 21
0.2815638863994897
 31
0.0
  0
LINE
  5
F5
  8
COLOR_989898FF
 10
1.630557648286755
 20
0.2872051974562394
 30
0.0
 11
1.628346651512049
 21
0.284197393185474
 31
0.0
  0
LINE
  5
F6
  8
COLOR_989898FF
 10
1.632340133977109
 20
0.2906142886453124
 30
0.0
 11
1.630557648286755
 21
0.2872051974562394
 31
0.0
  0
LINE
  5
F7
  8
COLOR_989898FF
 10
1.633663409630733
 20
0.2944516561862168
 30
0.0
 11
1.632340133977109
 21
0.2906142886453124
 31
0.0
  0
LINE
  5
F8
  8
COLOR_989898FF
 10
1.634496776295255
 20
0.298744289512477
 30
0.0
 11
1.633663409630733
 21
0.2944516561862168
 31
0.0
  0
LINE
  5
F9
  8
COLOR_989898FF
 10
1.634809535018294
 20
0.3035191780576181
 30
0.0
 11
1.634496776295255
 21
0.298744289512477
 31
0.0
  0
LINE
  5
FA
  8
COLOR_989898FF
 10
1.634570986847477
 20
0.3088033112551641
 30
0.0
 11
1.634809535018294
 21
0.3035191780576181
 31
0.0
  0
LINE
  5
FB
  8
COLOR_989898FF
 10
1.633750432830425
 20
0.314623678538641
 30
0.0
 11
1.634570986847477
 21
0.3088033112551641
 31
0.0
  0
LINE
  5
FC
  8
COLOR_989898FF
 10
1.562261605348626
 20
0.3127705312162705
 30
0.0
 11
1.633750432830425
 21
0.314623678538641
 31
0.0
  0
LINE
  5
FD
  8
COLOR_989898FF
 10
1.556850265529867
 20
0.4194537784882011
 30
0.0
 11
1.562261605348626
 21
0.3127705312162705
 31
0.0
  0
LINE
  5
FF
  8
COLOR_27282AFF
 10
0.7089137680128043
 20
0.4026935912331133
 30
0.0
 11
0.705082151128546
 21
0.4063614150033019
 31
0.0
  0
LINE
  5
100
  8
COLOR_27282AFF
 10
0.7131786166999916
 20
0.3998488868022715
 30
0.0
 11
0.7089137680128043
 21
0.4026935912331133
 31
0.0
  0
LINE
  5
101
  8
COLOR_27282AFF
 10
0.7227303867034675
 20
0.3960473995161781
 30
0.0
 11
0.7131786166999916
 21
0.3998488868022715
 31
0.0
  0
LINE
  5
102
  8
COLOR_27282AFF
 10
0.7596057463544101
 20
0.3873026639442337
 30
0.0
 11
0.7227303867034675
 21
0.3960473995161781
 31
0.0
  0
LINE
  5
103
  8
COLOR_27282AFF
 10
0.7666560278885671
 20
0.383108419128031
 30
0.0
 11
0.7596057463544101
 21
0.3873026639442337
 31
0.0
  0
LINE
  5
104
  8
COLOR_27282AFF
 10
0.7709145079869425
 20
0.379281901024402
 30
0.0
 11
0.7666560278885671
 21
0.383108419128031
 31
0.0
  0
LINE
  5
105
  8
COLOR_27282AFF
 10
0.7747386487017256
 20
0.3744615133774636
 30
0.0
 11
0.7709145079869425
 21
0.379281901024402
 31
0.0
  0
LINE
  5
106
  8
COLOR_27282AFF
 10
0.7271097988150398
 20
0.3788548651411288
 30
0.0
 11
0.7747386487017256
 21
0.3744615133774636
 31
0.0
  0
LINE
  5
107
  8
COLOR_27282AFF
 10
0.6028485368968022
 20
0.3650888695091439
 30
0.0
 11
0.7271097988150398
 21
0.3788548651411288
 31
0.0
  0
LINE
  5
108
  8
COLOR_27282AFF
 10
0.6050823391210298
 20
0.3797567054431157
 30
0.0
 11
0.6028485368968022
 21
0.3650888695091439
 31
0.0
  0
LINE
  5
109
  8
COLOR_27282AFF
 10
0.5767627884379886
 20
0.3922421851741703
 30
0.0
 11
0.6050823391210298
 21
0.3797567054431157
 31
0.0
  0
LINE
  5
10A
  8
COLOR_27282AFF
 10
0.5768803027516325
 20
0.3637028198519812
 30
0.0
 11
0.5767627884379886
 21
0.3922421851741703
 31
0.0
  0
LINE
  5
10B
  8
COLOR_27282AFF
 10
0.4788841099587632
 20
0.3377504287199208
 30
0.0
 11
0.5768803027516325
 21
0.3637028198519812
 31
0.0
  0
LINE
  5
10C
  8
COLOR_27282AFF
 10
0.5139475486439412
 20
0.339397757691452
 30
0.0
 11
0.4788841099587632
 21
0.3377504287199208
 31
0.0
  0
LINE
  5
10D
  8
COLOR_27282AFF
 10
0.5251297517636633
 20
0.2143607298231394
 30
0.0
 11
0.5139475486439412
 21
0.339397757691452
 31
0.0
  0
LINE
  5
10E
  8
COLOR_27282AFF
 10
0.7331475886032166
 20
0.2328350072695859
 30
0.0
 11
0.5251297517636633
 21
0.2143607298231394
 31
0.0
  0
LINE
  5
10F
  8
COLOR_27282AFF
 10
0.7380392576797481
 20
0.2324501936904778
 30
0.0
 11
0.7331475886032166
 21
0.2328350072695859
 31
0.0
  0
LINE
  5
110
  8
COLOR_27282AFF
 10
0.7674085768178603
 20
0.2333128587761095
 30
0.0
 11
0.7380392576797481
 21
0.2324501936904778
 31
0.0
  0
LINE
  5
111
  8
COLOR_27282AFF
 10
0.8404516013919926
 20
0.2399756498657492
 30
0.0
 11
0.7674085768178603
 21
0.2333128587761095
 31
0.0
  0
LINE
  5
112
  8
COLOR_27282AFF
 10
0.8548968238703581
 20
0.2384749887934843
 30
0.0
 11
0.8404516013919926
 21
0.2399756498657492
 31
0.0
  0
LINE
  5
113
  8
COLOR_27282AFF
 10
0.864481562983005
 20
0.2363934428952273
 30
0.0
 11
0.8548968238703581
 21
0.2384749887934843
 31
0.0
  0
LINE
  5
114
  8
COLOR_27282AFF
 10
0.8740257318347775
 20
0.2332912110657828
 30
0.0
 11
0.864481562983005
 21
0.2363934428952273
 31
0.0
  0
LINE
  5
115
  8
COLOR_27282AFF
 10
0.811140764439429
 20
0.2072084978690126
 30
0.0
 11
0.8740257318347775
 21
0.2332912110657828
 31
0.0
  0
LINE
  5
116
  8
COLOR_27282AFF
 10
0.8420239279854547
 20
0.2041743006550845
 30
0.0
 11
0.811140764439429
 21
0.2072084978690126
 31
0.0
  0
LINE
  5
117
  8
COLOR_27282AFF
 10
0.8731231799095913
 20
0.2028535448381549
 30
0.0
 11
0.8420239279854547
 21
0.2041743006550845
 31
0.0
  0
LINE
  5
118
  8
COLOR_27282AFF
 10
0.9252662280209057
 20
0.2038723523354198
 30
0.0
 11
0.8731231799095913
 21
0.2028535448381549
 31
0.0
  0
LINE
  5
119
  8
COLOR_27282AFF
 10
1.112059554270474
 20
0.22649340258263
 30
0.0
 11
0.9252662280209057
 21
0.2038723523354198
 31
0.0
  0
LINE
  5
11A
  8
COLOR_27282AFF
 10
1.118207847839982
 20
0.242929713532696
 30
0.0
 11
1.112059554270474
 21
0.22649340258263
 31
0.0
  0
LINE
  5
11B
  8
COLOR_27282AFF
 10
0.8833665696213893
 20
0.2258150249054851
 30
0.0
 11
1.118207847839982
 21
0.242929713532696
 31
0.0
  0
LINE
  5
11C
  8
COLOR_27282AFF
 10
0.8917209878201384
 20
0.2560632328330724
 30
0.0
 11
0.8833665696213893
 21
0.2258150249054851
 31
0.0
  0
LINE
  5
11D
  8
COLOR_27282AFF
 10
1.003260343420379
 20
0.2585310140773264
 30
0.0
 11
0.8917209878201384
 21
0.2560632328330724
 31
0.0
  0
LINE
  5
11E
  8
COLOR_27282AFF
 10
0.9923635128898507
 20
0.2621002971534033
 30
0.0
 11
1.003260343420379
 21
0.2585310140773264
 31
0.0
  0
LINE
  5
11F
  8
COLOR_27282AFF
 10
0.9812588463504014
 20
0.2645911684271509
 30
0.0
 11
0.9923635128898507
 21
0.2621002971534033
 31
0.0
  0
LINE
  5
120
  8
COLOR_27282AFF
 10
0.9642687393716153
 20
0.2666191584500215
 30
0.0
 11
0.9812588463504014
 21
0.2645911684271509
 31
0.0
  0
LINE
  5
121
  8
COLOR_27282AFF
 10
0.9411292681830322
 20
0.2668871795365977
 30
0.0
 11
0.9642687393716153
 21
0.2666191584500215
 31
0.0
  0
LINE
  5
122
  8
COLOR_27282AFF
 10
0.8527884677818759
 20
0.2618302930743979
 30
0.0
 11
0.9411292681830322
 21
0.2668871795365977
 31
0.0
  0
LINE
  5
123
  8
COLOR_27282AFF
 10
0.8354634767809707
 20
0.2632196835718623
 30
0.0
 11
0.8527884677818759
 21
0.2618302930743979
 31
0.0
  0
LINE
  5
124
  8
COLOR_27282AFF
 10
0.7860047330337138
 20
0.2552603161801608
 30
0.0
 11
0.8354634767809709
 21
0.263219683571862
 31
0.0
  0
LINE
  5
125
  8
COLOR_27282AFF
 10
0.752627292577608
 20
0.2531432363596124
 30
0.0
 11
0.7860047330337138
 21
0.2552603161801608
 31
0.0
  0
LINE
  5
126
  8
COLOR_27282AFF
 10
0.6693011174392189
 20
0.2515937762506457
 30
0.0
 11
0.752627292577608
 21
0.2531432363596124
 31
0.0
  0
LINE
  5
127
  8
COLOR_27282AFF
 10
0.6026835550616033
 20
0.2652446874246367
 30
0.0
 11
0.6693011174392189
 21
0.2515937762506457
 31
0.0
  0
LINE
  5
128
  8
COLOR_27282AFF
 10
0.6016297962252641
 20
0.3415054406686614
 30
0.0
 11
0.6026835550616033
 21
0.2652446874246367
 31
0.0
  0
LINE
  5
129
  8
COLOR_27282AFF
 10
0.655077742577254
 20
0.3479410977410491
 30
0.0
 11
0.6016297962252644
 21
0.3415054406686618
 31
0.0
  0
LINE
  5
12A
  8
COLOR_27282AFF
 10
0.7129998178247172
 20
0.3545378737307509
 30
0.0
 11
0.655077742577254
 21
0.3479410977410491
 31
0.0
  0
LINE
  5
12B
  8
COLOR_27282AFF
 10
0.7647966158100468
 20
0.3597514716330213
 30
0.0
 11
0.7129998178247172
 21
0.3545378737307509
 31
0.0
  0
LINE
  5
12C
  8
COLOR_27282AFF
 10
0.8174188607880728
 20
0.3609241365098301
 30
0.0
 11
0.764796615810047
 21
0.3597514716330213
 31
0.0
  0
LINE
  5
12D
  8
COLOR_27282AFF
 10
0.9864647573836592
 20
0.3763985496295881
 30
0.0
 11
0.8174188607880728
 21
0.3609241365098301
 31
0.0
  0
LINE
  5
12E
  8
COLOR_27282AFF
 10
1.118837783300674
 20
0.3819625913551982
 30
0.0
 11
0.9864647573836592
 21
0.3763985496295881
 31
0.0
  0
LINE
  5
12F
  8
COLOR_27282AFF
 10
1.108294665785002
 20
0.3854620018733188
 30
0.0
 11
1.118837783300674
 21
0.3819625913551982
 31
0.0
  0
LINE
  5
130
  8
COLOR_27282AFF
 10
0.8870003969708504
 20
0.3816263741018339
 30
0.0
 11
1.108294665785002
 21
0.3854620018733188
 31
0.0
  0
LINE
  5
131
  8
COLOR_27282AFF
 10
0.8131595871047426
 20
0.372050731511911
 30
0.0
 11
0.8870003969708504
 21
0.3816263741018339
 31
0.0
  0
LINE
  5
132
  8
COLOR_27282AFF
 10
0.7960743062964982
 20
0.3730407975216489
 30
0.0
 11
0.8131595871047426
 21
0.372050731511911
 31
0.0
  0
LINE
  5
133
  8
COLOR_27282AFF
 10
0.7877000374279621
 20
0.3747152691200392
 30
0.0
 11
0.7960743062964982
 21
0.3730407975216489
 31
0.0
  0
LINE
  5
134
  8
COLOR_27282AFF
 10
0.7794674845182574
 20
0.377342092303206
 30
0.0
 11
0.7877000374279621
 21
0.3747152691200392
 31
0.0
  0
LINE
  5
135
  8
COLOR_27282AFF
 10
0.7713987487687148
 20
0.3810458114629702
 30
0.0
 11
0.7794674845182574
 21
0.377342092303206
 31
0.0
  0
LINE
  5
136
  8
COLOR_27282AFF
 10
0.7674327189544202
 20
0.3833404271565208
 30
0.0
 11
0.7713987487687148
 21
0.3810458114629702
 31
0.0
  0
LINE
  5
137
  8
COLOR_27282AFF
 10
0.7635159313806649
 20
0.3859509709911539
 30
0.0
 11
0.7674327189544202
 21
0.3833404271565208
 31
0.0
  0
LINE
  5
138
  8
COLOR_27282AFF
 10
0.8101545211168713
 20
0.4104981260456939
 30
0.0
 11
0.7635159313806649
 21
0.3859509709911539
 31
0.0
  0
LINE
  5
139
  8
COLOR_27282AFF
 10
0.7278799561038303
 20
0.4100081136083171
 30
0.0
 11
0.8101545211168713
 21
0.4104981260456939
 31
0.0
  0
LINE
  5
13A
  8
COLOR_27282AFF
 10
0.705082151128546
 20
0.4063614150033019
 30
0.0
 11
0.7278799561038303
 21
0.4100081136083171
 31
0.0
  0
LINE
  5
13C
  8
COLOR_525A5DFF
 10
1.081446777828611
 20
0.405054942092771
 30
0.0
 11
1.074259651894972
 21
0.424147972177803
 31
0.0
  0
LINE
  5
13D
  8
COLOR_525A5DFF
 10
1.044099447883393
 20
0.4086544327504708
 30
0.0
 11
1.081446777828611
 21
0.405054942092771
 31
0.0
  0
LINE
  5
13E
  8
COLOR_525A5DFF
 10
0.8660459039170095
 20
0.4077280803378359
 30
0.0
 11
1.044099447883393
 21
0.4086544327504708
 31
0.0
  0
LINE
  5
13F
  8
COLOR_525A5DFF
 10
0.8101545211168713
 20
0.4104981260456939
 30
0.0
 11
0.8660459039170095
 21
0.4077280803378359
 31
0.0
  0
LINE
  5
140
  8
COLOR_525A5DFF
 10
0.7635159313806649
 20
0.3859509709911539
 30
0.0
 11
0.8101545211168713
 21
0.4104981260456939
 31
0.0
  0
LINE
  5
141
  8
COLOR_525A5DFF
 10
0.7674327189544202
 20
0.3833404271565208
 30
0.0
 11
0.7635159313806649
 21
0.3859509709911539
 31
0.0
  0
LINE
  5
142
  8
COLOR_525A5DFF
 10
0.7713987487687148
 20
0.3810458114629702
 30
0.0
 11
0.7674327189544202
 21
0.3833404271565208
 31
0.0
  0
LINE
  5
143
  8
COLOR_525A5DFF
 10
0.7794674845182574
 20
0.377342092303206
 30
0.0
 11
0.7713987487687148
 21
0.3810458114629702
 31
0.0
  0
LINE
  5
144
  8
COLOR_525A5DFF
 10
0.7877000374279621
 20
0.3747152691200392
 30
0.0
 11
0.7794674845182574
 21
0.377342092303206
 31
0.0
  0
LINE
  5
145
  8
COLOR_525A5DFF
 10
0.7960743062964982
 20
0.3730407975216489
 30
0.0
 11
0.7877000374279621
 21
0.3747152691200392
 31
0.0
  0
LINE
  5
146
  8
COLOR_525A5DFF
 10
0.8131595871047426
 20
0.372050731511911
 30
0.0
 11
0.7960743062964982
 21
0.3730407975216489
 31
0.0
  0
LINE
  5
147
  8
COLOR_525A5DFF
 10
0.8870003969708504
 20
0.3816263741018339
 30
0.0
 11
0.8131595871047426
 21
0.372050731511911
 31
0.0
  0
LINE
  5
148
  8
COLOR_525A5DFF
 10
1.108294665785002
 20
0.3854620018733188
 30
0.0
 11
0.8870003969708504
 21
0.3816263741018339
 31
0.0
  0
LINE
  5
149
  8
COLOR_525A5DFF
 10
1.274938198694145
 20
0.3893697567433243
 30
0.0
 11
1.108294665785002
 21
0.3854620018733188
 31
0.0
  0
LINE
  5
14A
  8
COLOR_525A5DFF
 10
1.412944898116655
 20
0.3997067161705452
 30
0.0
 11
1.274938198694145
 21
0.3893697567433243
 31
0.0
  0
LINE
  5
14B
  8
COLOR_525A5DFF
 10
1.408531260240593
 20
0.3100278162910455
 30
0.0
 11
1.412944898116655
 21
0.3997067161705452
 31
0.0
  0
LINE
  5
14C
  8
COLOR_525A5DFF
 10
1.384514158532263
 20
0.3097176599386759
 30
0.0
 11
1.408531260240593
 21
0.3100278162910455
 31
0.0
  0
LINE
  5
14D
  8
COLOR_525A5DFF
 10
1.236039862283169
 20
0.2915112842386337
 30
0.0
 11
1.384514158532263
 21
0.3097176599386759
 31
0.0
  0
LINE
  5
14E
  8
COLOR_525A5DFF
 10
1.174921234863977
 20
0.2895751287669738
 30
0.0
 11
1.236039862283169
 21
0.2915112842386337
 31
0.0
  0
LINE
  5
14F
  8
COLOR_525A5DFF
 10
1.070747735948717
 20
0.2782975615099408
 30
0.0
 11
1.174921234863977
 21
0.2895751287669738
 31
0.0
  0
LINE
  5
150
  8
COLOR_525A5DFF
 10
1.022190334267713
 20
0.2741570704462804
 30
0.0
 11
1.070747735948717
 21
0.2782975615099408
 31
0.0
  0
LINE
  5
151
  8
COLOR_525A5DFF
 10
1.026091013832108
 20
0.2659660901820108
 30
0.0
 11
1.022190334267713
 21
0.2741570704462804
 31
0.0
  0
LINE
  5
152
  8
COLOR_525A5DFF
 10
1.033319525331393
 20
0.2577297157139176
 30
0.0
 11
1.026091013832108
 21
0.2659660901820108
 31
0.0
  0
LINE
  5
153
  8
COLOR_525A5DFF
 10
1.500383690441685
 20
0.2898666500266426
 30
0.0
 11
1.033319525331393
 21
0.2577297157139176
 31
0.0
  0
LINE
  5
154
  8
COLOR_525A5DFF
 10
1.556310551910096
 20
0.3080482477625662
 30
0.0
 11
1.500383690441687
 21
0.2898666500266426
 31
0.0
  0
LINE
  5
155
  8
COLOR_525A5DFF
 10
1.552315645428287
 20
0.4006748214993541
 30
0.0
 11
1.556310551910096
 21
0.3080482477625662
 31
0.0
  0
LINE
  5
156
  8
COLOR_525A5DFF
 10
1.556850265529867
 20
0.4194537784882011
 30
0.0
 11
1.552315645428287
 21
0.4006748214993541
 31
0.0
  0
LINE
  5
157
  8
COLOR_525A5DFF
 10
1.577144735983856
 20
0.4395570981936139
 30
0.0
 11
1.556850265529867
 21
0.4194537784882011
 31
0.0
  0
LINE
  5
158
  8
COLOR_525A5DFF
 10
1.453812321700293
 20
0.437393874589204
 30
0.0
 11
1.577144735983856
 21
0.4395570981936139
 31
0.0
  0
LINE
  5
159
  8
COLOR_525A5DFF
 10
1.452050238078495
 20
0.435589163602353
 30
0.0
 11
1.453812321700293
 21
0.437393874589204
 31
0.0
  0
LINE
  5
15A
  8
COLOR_525A5DFF
 10
1.442403991398943
 20
0.4288453717143893
 30
0.0
 11
1.452050238078495
 21
0.435589163602353
 31
0.0
  0
LINE
  5
15B
  8
COLOR_525A5DFF
 10
1.38958850785977
 20
0.4236574747523484
 30
0.0
 11
1.442403991398943
 21
0.4288453717143893
 31
0.0
  0
LINE
  5
15C
  8
COLOR_525A5DFF
 10
1.074259651894972
 20
0.424147972177803
 30
0.0
 11
1.38958850785977
 21
0.4236574747523484
 31
0.0
  0
LINE
  5
15E
  8
COLOR_6E908DFF
 10
0.7950090305573566
 20
0.747211300241724
 30
0.0
 11
0.8121566497123908
 21
0.7988931631351284
 31
0.0
  0
LINE
  5
15F
  8
COLOR_6E908DFF
 10
0.7937399386120251
 20
0.7451483259994515
 30
0.0
 11
0.7950090305573566
 21
0.747211300241724
 31
0.0
  0
LINE
  5
160
  8
COLOR_6E908DFF
 10
0.788588177617757
 20
0.7397142913230244
 30
0.0
 11
0.7937399386120251
 21
0.7451483259994515
 31
0.0
  0
LINE
  5
161
  8
COLOR_6E908DFF
 10
0.6594731948415288
 20
0.5753632461117405
 30
0.0
 11
0.788588177617757
 21
0.7397142913230244
 31
0.0
  0
LINE
  5
162
  8
COLOR_6E908DFF
 10
0.6382289938562156
 20
0.5514902296624223
 30
0.0
 11
0.6594731948415288
 21
0.5753632461117405
 31
0.0
  0
LINE
  5
163
  8
COLOR_6E908DFF
 10
0.6391242226162387
 20
0.5068443107641517
 30
0.0
 11
0.6382289938562156
 21
0.5514902296624223
 31
0.0
  0
LINE
  5
164
  8
COLOR_6E908DFF
 10
0.6556468380748466
 20
0.5087683424643268
 30
0.0
 11
0.6391242226162387
 21
0.5068443107641517
 31
0.0
  0
LINE
  5
165
  8
COLOR_6E908DFF
 10
0.6624451491280023
 20
0.5097877359657185
 30
0.0
 11
0.6556468380748466
 21
0.5087683424643268
 31
0.0
  0
LINE
  5
166
  8
COLOR_6E908DFF
 10
0.6739492061486551
 20
0.5134184506672982
 30
0.0
 11
0.6624451491280023
 21
0.5097877359657185
 31
0.0
  0
LINE
  5
167
  8
COLOR_6E908DFF
 10
0.716166791684857
 20
0.5521775416218101
 30
0.0
 11
0.6739492061486551
 21
0.5134184506672982
 31
0.0
  0
LINE
  5
168
  8
COLOR_6E908DFF
 10
0.7335850995067642
 20
0.5703755244114603
 30
0.0
 11
0.7161667916848572
 21
0.5521775416218095
 31
0.0
  0
LINE
  5
169
  8
COLOR_6E908DFF
 10
0.7744198047958748
 20
0.6166095249744412
 30
0.0
 11
0.7335850995067642
 21
0.5703755244114603
 31
0.0
  0
LINE
  5
16A
  8
COLOR_6E908DFF
 10
0.7793586323366113
 20
0.6223749011109513
 30
0.0
 11
0.7744198047958748
 21
0.6166095249744412
 31
0.0
  0
LINE
  5
16B
  8
COLOR_6E908DFF
 10
0.7877242428913025
 20
0.6288740389718831
 30
0.0
 11
0.7793586323366113
 21
0.6223749011109513
 31
0.0
  0
LINE
  5
16C
  8
COLOR_6E908DFF
 10
0.7901008887896898
 20
0.6302662129206079
 30
0.0
 11
0.7877242428913025
 21
0.6288740389718831
 31
0.0
  0
LINE
  5
16D
  8
COLOR_6E908DFF
 10
0.8024441237164817
 20
0.6348663575551079
 30
0.0
 11
0.7901008887896898
 21
0.6302662129206079
 31
0.0
  0
LINE
  5
16E
  8
COLOR_6E908DFF
 10
0.8632328785126837
 20
0.6337059767830217
 30
0.0
 11
0.8024441237164817
 21
0.6348663575551079
 31
0.0
  0
LINE
  5
16F
  8
COLOR_6E908DFF
 10
0.8194908802105082
 20
0.4677325700534776
 30
0.0
 11
0.8632328785126837
 21
0.6337059767830217
 31
0.0
  0
LINE
  5
170
  8
COLOR_6E908DFF
 10
0.9250625155930897
 20
0.4672641848014373
 30
0.0
 11
0.8194908802105082
 21
0.4677325700534776
 31
0.0
  0
LINE
  5
171
  8
COLOR_6E908DFF
 10
0.924120849497536
 20
0.4904614490983925
 30
0.0
 11
0.9250625155930897
 21
0.4672641848014373
 31
0.0
  0
LINE
  5
172
  8
COLOR_6E908DFF
 10
0.8474495733196676
 20
0.4882208100503414
 30
0.0
 11
0.924120849497536
 21
0.4904614490983925
 31
0.0
  0
LINE
  5
173
  8
COLOR_6E908DFF
 10
0.8494953729718351
 20
0.5062630141562026
 30
0.0
 11
0.8474495733196676
 21
0.4882208100503414
 31
0.0
  0
LINE
  5
174
  8
COLOR_6E908DFF
 10
0.8593598549120344
 20
0.5474240320378755
 30
0.0
 11
0.8494953729718351
 21
0.5062630141562026
 31
0.0
  0
LINE
  5
175
  8
COLOR_6E908DFF
 10
0.8815002059839688
 20
0.6287409135246139
 30
0.0
 11
0.8593598549120344
 21
0.5474240320378755
 31
0.0
  0
LINE
  5
176
  8
COLOR_6E908DFF
 10
0.8833720503568635
 20
0.6465002379440214
 30
0.0
 11
0.8815002059839688
 21
0.6287409135246139
 31
0.0
  0
LINE
  5
177
  8
COLOR_6E908DFF
 10
0.8835458784037259
 20
0.6584842881865618
 30
0.0
 11
0.8833720503568635
 21
0.6465002379440214
 31
0.0
  0
LINE
  5
178
  8
COLOR_6E908DFF
 10
0.8175178570681926
 20
0.6589089470239031
 30
0.0
 11
0.8835458784037257
 21
0.658484288186562
 31
0.0
  0
LINE
  5
179
  8
COLOR_6E908DFF
 10
0.8380711199002352
 20
0.688791151233252
 30
0.0
 11
0.8175178570681926
 21
0.6589089470239031
 31
0.0
  0
LINE
  5
17A
  8
COLOR_6E908DFF
 10
0.8539242361352553
 20
0.7028167148998694
 30
0.0
 11
0.8475284380328938
 21
0.6991131473443374
 31
0.0
  0
LINE
  5
17C
  8
COLOR_859B9DFF
 10
0.6624451491280023
 20
0.5097877359657185
 30
0.0
 11
0.6556468380748466
 21
0.5087683424643268
 31
0.0
  0
LINE
  5
17D
  8
COLOR_859B9DFF
 10
0.6556468380748466
 20
0.5087683424643268
 30
0.0
 11
0.6624451491280023
 21
0.5097877359657185
 31
0.0
  0
LINE
  5
17E
  8
COLOR_859B9DFF
 10
0.7793586323366113
 20
0.6223749011109513
 30
0.0
 11
0.7744198047958748
 21
0.6166095249744412
 31
0.0
  0
LINE
  5
17F
  8
COLOR_859B9DFF
 10
0.7744198047958748
 20
0.6166095249744412
 30
0.0
 11
0.7793586323366113
 21
0.6223749011109513
 31
0.0
  0
LINE
  5
180
  8
COLOR_859B9DFF
 10
0.7877242428913025
 20
0.6288740389718831
 30
0.0
 11
0.7793586323366113
 21
0.6223749011109513
 31
0.0
  0
LINE
  5
181
  8
COLOR_859B9DFF
 10
0.7793586323366113
 20
0.6223749011109513
 30
0.0
 11
0.7877242428913025
 21
0.6288740389718831
 31
0.0
  0
LINE
  5
182
  8
COLOR_859B9DFF
 10
0.765776103962296
 20
0.7524548031056053
 30
0.0
 11
0.7723009601372497
 21
0.7692712518332263
 31
0.0
  0
LINE
  5
183
  8
COLOR_859B9DFF
 10
0.7266720265223561
 20
0.6982578754338977
 30
0.0
 11
0.765776103962296
 21
0.7524548031056053
 31
0.0
  0
LINE
  5
184
  8
COLOR_859B9DFF
 10
0.7099673605750464
 20
0.6856104201303054
 30
0.0
 11
0.7266720265223561
 21
0.6982578754338977
 31
0.0
  0
LINE
  5
185
  8
COLOR_859B9DFF
 10
0.7184705245874732
 20
0.6716555481988755
 30
0.0
 11
0.7099673605750464
 21
0.6856104201303054
 31
0.0
  0
LINE
  5
186
  8
COLOR_859B9DFF
 10
0.6735794342124704
 20
0.6102192535251744
 30
0.0
 11
0.7184705245874732
 21
0.6716555481988755
 31
0.0
  0
LINE
  5
187
  8
COLOR_859B9DFF
 10
0.609269202723389
 20
0.6838975189190865
 30
0.0
 11
0.6735794342124704
 21
0.6102192535251744
 31
0.0
  0
LINE
  5
188
  8
COLOR_859B9DFF
 10
0.5980289183249932
 20
0.7070335452126351
 30
0.0
 11
0.609269202723389
 21
0.6838975189190865
 31
0.0
  0
LINE
  5
189
  8
COLOR_859B9DFF
 10
0.5925536824282494
 20
0.6659304875997467
 30
0.0
 11
0.5884840993647849
 21
0.6733209754153756
 31
0.0
  0
LINE
  5
18A
  8
COLOR_859B9DFF
 10
0.6407816497432002
 20
0.607723482984723
 30
0.0
 11
0.5925536824282494
 21
0.6659304875997467
 31
0.0
  0
LINE
  5
18B
  8
COLOR_859B9DFF
 10
0.6544568231126704
 20
0.5869346317890061
 30
0.0
 11
0.6407816497432002
 21
0.607723482984723
 31
0.0
  0
LINE
  5
18C
  8
COLOR_859B9DFF
 10
0.6594731948415288
 20
0.5753632461117405
 30
0.0
 11
0.6544568231126704
 21
0.5869346317890061
 31
0.0
  0
LINE
  5
18D
  8
COLOR_859B9DFF
 10
0.788588177617757
 20
0.7397142913230244
 30
0.0
 11
0.6594731948415288
 21
0.5753632461117405
 31
0.0
  0
LINE
  5
18E
  8
COLOR_859B9DFF
 10
0.7937399386120251
 20
0.7451483259994515
 30
0.0
 11
0.788588177617757
 21
0.7397142913230244
 31
0.0
  0
LINE
  5
18F
  8
COLOR_859B9DFF
 10
0.7950090305573566
 20
0.747211300241724
 30
0.0
 11
0.7937399386120251
 21
0.7451483259994515
 31
0.0
  0
LINE
  5
190
  8
COLOR_859B9DFF
 10
0.8121566497123908
 20
0.7988931631351284
 30
0.0
 11
0.7950090305573566
 21
0.747211300241724
 31
0.0
  0
LINE
  5
191
  8
COLOR_859B9DFF
 10
0.7723009601372498
 20
0.7692712518332264
 30
0.0
 11
0.8121566497123911
 21
0.7988931631351286
 31
0.0
  0
LINE
  5
193
  8
COLOR_4F5651FF
 10
0.7937399386120251
 20
0.7451483259994515
 30
0.0
 11
0.7950090305573566
 21
0.747211300241724
 31
0.0
  0
LINE
  5
194
  8
COLOR_4F5651FF
 10
0.7950090305573566
 20
0.747211300241724
 30
0.0
 11
0.7937399386120251
 21
0.7451483259994515
 31
0.0
  0
LINE
  5
195
  8
COLOR_4F5651FF
 10
0.8800350821038584
 20
0.8500569161569616
 30
0.0
 11
0.876369987078338
 21
0.8484689399793142
 31
0.0
  0
LINE
  5
196
  8
COLOR_4F5651FF
 10
0.8835260824626416
 20
0.8519720194494257
 30
0.0
 11
0.8800350821038584
 21
0.8500569161569616
 31
0.0
  0
LINE
  5
197
  8
COLOR_4F5651FF
 10
0.8868385867107771
 20
0.854193504512314
 30
0.0
 11
0.8835260824626416
 21
0.8519720194494257
 31
0.0
  0
LINE
  5
198
  8
COLOR_4F5651FF
 10
0.8899681934043538
 20
0.8567006260012344
 30
0.0
 11
0.8868385867107771
 21
0.854193504512314
 31
0.0
  0
LINE
  5
199
  8
COLOR_4F5651FF
 10
0.8956611083521944
 20
0.862488796879599
 30
0.0
 11
0.8899681934043538
 21
0.8567006260012344
 31
0.0
  0
LINE
  5
19A
  8
COLOR_4F5651FF
 10
0.9005696157548801
 20
0.869170569329379
 30
0.0
 11
0.8956611083521944
 21
0.862488796879599
 31
0.0
  0
LINE
  5
19B
  8
COLOR_4F5651FF
 10
0.9046585040611305
 20
0.8765799805954325
 30
0.0
 11
0.9005696157548801
 21
0.869170569329379
 31
0.0
  0
LINE
  5
19C
  8
COLOR_4F5651FF
 10
0.9078925617196633
 20
0.884551067922619
 30
0.0
 11
0.9046585040611305
 21
0.8765799805954325
 31
0.0
  0
LINE
  5
19D
  8
COLOR_4F5651FF
 10
0.9102365771791971
 20
0.8929178685557966
 30
0.0
 11
0.9078925617196633
 21
0.884551067922619
 31
0.0
  0
LINE
  5
19E
  8
COLOR_4F5651FF
 10
0.9116553388884502
 20
0.9015144197398246
 30
0.0
 11
0.9102365771791971
 21
0.8929178685557966
 31
0.0
  0
LINE
  5
19F
  8
COLOR_4F5651FF
 10
0.9121136352961411
 20
0.9101747587195614
 30
0.0
 11
0.9116553388884502
 21
0.9015144197398246
 31
0.0
  0
LINE
  5
1A0
  8
COLOR_4F5651FF
 10
0.9115762548509885
 20
0.9187329227398663
 30
0.0
 11
0.9121136352961411
 21
0.9101747587195614
 31
0.0
  0
LINE
  5
1A1
  8
COLOR_4F5651FF
 10
0.9100079860017102
 20
0.927022949045598
 30
0.0
 11
0.9115762548509885
 21
0.9187329227398663
 31
0.0
  0
LINE
  5
1A2
  8
COLOR_4F5651FF
 10
0.9073736171970247
 20
0.934878874881615
 30
0.0
 11
0.9100079860017102
 21
0.927022949045598
 31
0.0
  0
LINE
  5
1A3
  8
COLOR_4F5651FF
 10
0.9036379368856507
 20
0.9421347374927763
 30
0.0
 11
0.905645641701629
 21
0.9385921867624991
 31
0.0
  0
LINE
  5
1A5
  8
COLOR_B7BAC6FF
 10
0.8475284380328938
 20
0.6991131473443374
 30
0.0
 11
0.8539242361352553
 21
0.7028167148998694
 31
0.0
  0
LINE
  5
1A6
  8
COLOR_B7BAC6FF
 10
0.9036379368856507
 20
0.9421347374927763
 30
0.0
 11
0.9098142018030791
 21
1.009657551254839
 31
0.0
  0
LINE
  5
1A7
  8
COLOR_B7BAC6FF
 10
0.905645641701629
 20
0.9385921867624991
 30
0.0
 11
0.9036379368856507
 21
0.9421347374927763
 31
0.0
  0
LINE
  5
1A8
  8
COLOR_B7BAC6FF
 10
0.9073736171970247
 20
0.934878874881615
 30
0.0
 11
0.905645641701629
 21
0.9385921867624991
 31
0.0
  0
LINE
  5
1A9
  8
COLOR_B7BAC6FF
 10
0.9100079860017102
 20
0.927022949045598
 30
0.0
 11
0.9073736171970247
 21
0.934878874881615
 31
0.0
  0
LINE
  5
1AA
  8
COLOR_B7BAC6FF
 10
0.9115762548509885
 20
0.9187329227398663
 30
0.0
 11
0.9100079860017102
 21
0.927022949045598
 31
0.0
  0
LINE
  5
1AB
  8
COLOR_B7BAC6FF
 10
0.9121136352961411
 20
0.9101747587195614
 30
0.0
 11
0.9115762548509885
 21
0.9187329227398663
 31
0.0
  0
LINE
  5
1AC
  8
COLOR_B7BAC6FF
 10
0.9116553388884502
 20
0.9015144197398246
 30
0.0
 11
0.9121136352961411
 21
0.9101747587195614
 31
0.0
  0
LINE
  5
1AD
  8
COLOR_B7BAC6FF
 10
0.9102365771791971
 20
0.8929178685557966
 30
0.0
 11
0.9116553388884502
 21
0.9015144197398246
 31
0.0
  0
LINE
  5
1AE
  8
COLOR_B7BAC6FF
 10
0.9078925617196633
 20
0.884551067922619
 30
0.0
 11
0.9102365771791971
 21
0.8929178685557966
 31
0.0
  0
LINE
  5
1AF
  8
COLOR_B7BAC6FF
 10
0.9046585040611305
 20
0.8765799805954325
 30
0.0
 11
0.9078925617196633
 21
0.884551067922619
 31
0.0
  0
LINE
  5
1B0
  8
COLOR_B7BAC6FF
 10
0.9005696157548801
 20
0.869170569329379
 30
0.0
 11
0.9046585040611305
 21
0.8765799805954325
 31
0.0
  0
LINE
  5
1B1
  8
COLOR_B7BAC6FF
 10
0.8956611083521944
 20
0.862488796879599
 30
0.0
 11
0.9005696157548801
 21
0.869170569329379
 31
0.0
  0
LINE
  5
1B2
  8
COLOR_B7BAC6FF
 10
0.8899681934043538
 20
0.8567006260012344
 30
0.0
 11
0.8956611083521944
 21
0.862488796879599
 31
0.0
  0
LINE
  5
1B3
  8
COLOR_B7BAC6FF
 10
0.8868385867107771
 20
0.854193504512314
 30
0.0
 11
0.8899681934043538
 21
0.8567006260012344
 31
0.0
  0
LINE
  5
1B4
  8
COLOR_B7BAC6FF
 10
0.8835260824626416
 20
0.8519720194494257
 30
0.0
 11
0.8868385867107771
 21
0.854193504512314
 31
0.0
  0
LINE
  5
1B5
  8
COLOR_B7BAC6FF
 10
0.8800350821038584
 20
0.8500569161569616
 30
0.0
 11
0.8835260824626416
 21
0.8519720194494257
 31
0.0
  0
LINE
  5
1B6
  8
COLOR_B7BAC6FF
 10
0.876369987078338
 20
0.8484689399793142
 30
0.0
 11
0.8800350821038584
 21
0.8500569161569616
 31
0.0
  0
LINE
  5
1B7
  8
COLOR_B7BAC6FF
 10
0.8597326163099595
 20
0.7073500490303797
 30
0.0
 11
0.8539242361352553
 21
0.7028167148998694
 31
0.0
  0
LINE
  5
1B8
  8
COLOR_B7BAC6FF
 10
0.8653151323017394
 20
0.712212169981775
 30
0.0
 11
0.8597326163099595
 21
0.7073500490303797
 31
0.0
  0
LINE
  5
1B9
  8
COLOR_B7BAC6FF
 10
0.8706943580795407
 20
0.7173698103372688
 30
0.0
 11
0.8653151323017394
 21
0.712212169981775
 31
0.0
  0
LINE
  5
1BA
  8
COLOR_B7BAC6FF
 10
0.8809332348689871
 20
0.7284385795934069
 30
0.0
 11
0.8706943580795407
 21
0.7173698103372688
 31
0.0
  0
LINE
  5
1BB
  8
COLOR_B7BAC6FF
 10
0.9372994691102806
 20
0.8019765593441311
 30
0.0
 11
0.8999647605137217
 21
0.7526585846162627
 31
0.0
  0
LINE
  5
1BC
  8
COLOR_B7BAC6FF
 10
0.9475348600825064
 20
0.8129364828848472
 30
0.0
 11
0.9372994691102806
 21
0.8019765593441311
 31
0.0
  0
LINE
  5
1BD
  8
COLOR_B7BAC6FF
 10
0.9529119694712808
 20
0.8180280383416918
 30
0.0
 11
0.9475348600825064
 21
0.8129364828848472
 31
0.0
  0
LINE
  5
1BE
  8
COLOR_B7BAC6FF
 10
0.9584921200870898
 20
0.8228162997004794
 30
0.0
 11
0.9529119694712808
 21
0.8180280383416918
 31
0.0
  0
LINE
  5
1BF
  8
COLOR_B7BAC6FF
 10
0.9642978858988782
 20
0.8272679995444234
 30
0.0
 11
0.9584921200870898
 21
0.8228162997004794
 31
0.0
  0
LINE
  5
1C0
  8
COLOR_B7BAC6FF
 10
0.9703518408755921
 20
0.8313498704567367
 30
0.0
 11
0.9642978858988782
 21
0.8272679995444234
 31
0.0
  0
LINE
  5
1C1
  8
COLOR_B7BAC6FF
 10
0.976676558986176
 20
0.8350286450206337
 30
0.0
 11
0.9703518408755921
 21
0.8313498704567367
 31
0.0
  0
LINE
  5
1C2
  8
COLOR_B7BAC6FF
 10
0.9832946141995749
 20
0.8382710558193275
 30
0.0
 11
0.976676558986176
 21
0.8350286450206337
 31
0.0
  0
LINE
  5
1C3
  8
COLOR_B7BAC6FF
 10
0.9902285804847349
 20
0.8410438354360317
 30
0.0
 11
0.9832946141995749
 21
0.8382710558193275
 31
0.0
  0
LINE
  5
1C4
  8
COLOR_B7BAC6FF
 10
0.9975010318106003
 20
0.8433137164539599
 30
0.0
 11
0.9902285804847349
 21
0.8410438354360317
 31
0.0
  0
LINE
  5
1C5
  8
COLOR_B7BAC6FF
 10
1.005134542146117
 20
0.8450474314563257
 30
0.0
 11
0.9975010318106003
 21
0.8433137164539599
 31
0.0
  0
LINE
  5
1C6
  8
COLOR_B7BAC6FF
 10
1.013151685460229
 20
0.8462117130263427
 30
0.0
 11
1.005134542146117
 21
0.8450474314563257
 31
0.0
  0
LINE
  5
1C7
  8
COLOR_B7BAC6FF
 10
1.020469033289366
 20
0.8469373912638626
 30
0.0
 11
1.013151685460229
 21
0.8462117130263427
 31
0.0
  0
LINE
  5
1C8
  8
COLOR_B7BAC6FF
 10
1.027570936387353
 20
0.8482867767302694
 30
0.0
 11
1.020469033289366
 21
0.8469373912638626
 31
0.0
  0
LINE
  5
1C9
  8
COLOR_B7BAC6FF
 10
1.034442395252446
 20
0.8502273930162396
 30
0.0
 11
1.027570936387353
 21
0.8482867767302694
 31
0.0
  0
LINE
  5
1CA
  8
COLOR_B7BAC6FF
 10
1.041068410382902
 20
0.8527267637124497
 30
0.0
 11
1.034442395252446
 21
0.8502273930162396
 31
0.0
  0
LINE
  5
1CB
  8
COLOR_B7BAC6FF
 10
1.047433982276979
 20
0.8557524124095757
 30
0.0
 11
1.041068410382902
 21
0.8527267637124497
 31
0.0
  0
LINE
  5
1CC
  8
COLOR_B7BAC6FF
 10
1.053524111432935
 20
0.8592718626982941
 30
0.0
 11
1.047433982276979
 21
0.8557524124095757
 31
0.0
  0
LINE
  5
1CD
  8
COLOR_B7BAC6FF
 10
1.059323798349024
 20
0.8632526381692814
 30
0.0
 11
1.053524111432935
 21
0.8592718626982941
 31
0.0
  0
LINE
  5
1CE
  8
COLOR_B7BAC6FF
 10
1.064818043523505
 20
0.8676622624132138
 30
0.0
 11
1.059323798349024
 21
0.8632526381692814
 31
0.0
  0
LINE
  5
1CF
  8
COLOR_B7BAC6FF
 10
1.069991847454635
 20
0.8724682590207677
 30
0.0
 11
1.064818043523505
 21
0.8676622624132138
 31
0.0
  0
LINE
  5
1D0
  8
COLOR_B7BAC6FF
 10
1.074830210640671
 20
0.8776381515826197
 30
0.0
 11
1.069991847454635
 21
0.8724682590207677
 31
0.0
  0
LINE
  5
1D1
  8
COLOR_B7BAC6FF
 10
1.079318133579869
 20
0.8831394636894457
 30
0.0
 11
1.074830210640671
 21
0.8776381515826197
 31
0.0
  0
LINE
  5
1D2
  8
COLOR_B7BAC6FF
 10
1.083440616770487
 20
0.8889397189319226
 30
0.0
 11
1.079318133579869
 21
0.8831394636894457
 31
0.0
  0
LINE
  5
1D3
  8
COLOR_B7BAC6FF
 10
1.087182660710782
 20
0.8950064409007261
 30
0.0
 11
1.083440616770487
 21
0.8889397189319226
 31
0.0
  0
LINE
  5
1D4
  8
COLOR_B7BAC6FF
 10
1.09052926589901
 20
0.9013071531865333
 30
0.0
 11
1.087182660710782
 21
0.8950064409007261
 31
0.0
  0
LINE
  5
1D5
  8
COLOR_B7BAC6FF
 10
1.09346543283343
 20
0.90780937938002
 30
0.0
 11
1.09052926589901
 21
0.9013071531865333
 31
0.0
  0
LINE
  5
1D6
  8
COLOR_B7BAC6FF
 10
1.095976162012297
 20
0.9144806430718629
 30
0.0
 11
1.09346543283343
 21
0.90780937938002
 31
0.0
  0
LINE
  5
1D7
  8
COLOR_B7BAC6FF
 10
1.098046453933869
 20
0.9212884678527379
 30
0.0
 11
1.095976162012297
 21
0.9144806430718629
 31
0.0
  0
LINE
  5
1D8
  8
COLOR_B7BAC6FF
 10
1.099661309096402
 20
0.9282003773133221
 30
0.0
 11
1.098046453933869
 21
0.9212884678527379
 31
0.0
  0
LINE
  5
1D9
  8
COLOR_B7BAC6FF
 10
1.100805727998154
 20
0.9351838950442913
 30
0.0
 11
1.099661309096402
 21
0.9282003773133221
 31
0.0
  0
LINE
  5
1DA
  8
COLOR_B7BAC6FF
 10
1.101464711137383
 20
0.9422065446363218
 30
0.0
 11
1.100805727998154
 21
0.9351838950442913
 31
0.0
  0
LINE
  5
1DB
  8
COLOR_B7BAC6FF
 10
1.101623259012344
 20
0.9492358496800906
 30
0.0
 11
1.101464711137383
 21
0.9422065446363218
 31
0.0
  0
LINE
  5
1DC
  8
COLOR_B7BAC6FF
 10
1.101266372121295
 20
0.9562393337662735
 30
0.0
 11
1.101623259012344
 21
0.9492358496800906
 31
0.0
  0
LINE
  5
1DD
  8
COLOR_B7BAC6FF
 10
1.100379050962493
 20
0.9631845204855469
 30
0.0
 11
1.101266372121295
 21
0.9562393337662735
 31
0.0
  0
LINE
  5
1DE
  8
COLOR_B7BAC6FF
 10
1.098946296034194
 20
0.9700389334285873
 30
0.0
 11
1.100379050962493
 21
0.9631845204855469
 31
0.0
  0
LINE
  5
1DF
  8
COLOR_B7BAC6FF
 10
1.096953107834657
 20
0.976770096186071
 30
0.0
 11
1.098946296034194
 21
0.9700389334285873
 31
0.0
  0
LINE
  5
1E0
  8
COLOR_B7BAC6FF
 10
1.094384486862137
 20
0.9833455323486745
 30
0.0
 11
1.096953107834657
 21
0.976770096186071
 31
0.0
  0
LINE
  5
1E1
  8
COLOR_B7BAC6FF
 10
1.091225433614892
 20
0.9897327655070739
 30
0.0
 11
1.094384486862137
 21
0.9833455323486745
 31
0.0
  0
LINE
  5
1E2
  8
COLOR_B7BAC6FF
 10
1.08746094859118
 20
0.9958993192519456
 30
0.0
 11
1.091225433614892
 21
0.9897327655070739
 31
0.0
  0
LINE
  5
1E3
  8
COLOR_B7BAC6FF
 10
1.083076032289256
 20
1.001812717173966
 30
0.0
 11
1.08746094859118
 21
0.9958993192519456
 31
0.0
  0
LINE
  5
1E4
  8
COLOR_B7BAC6FF
 10
1.079405593722613
 20
1.000415849735907
 30
0.0
 11
1.083076032289256
 21
1.001812717173966
 31
0.0
  0
LINE
  5
1E5
  8
COLOR_B7BAC6FF
 10
1.0724824446309
 20
0.9968201640795608
 30
0.0
 11
1.079405593722613
 21
1.000415849735907
 31
0.0
  0
LINE
  5
1E6
  8
COLOR_B7BAC6FF
 10
1.066026678895639
 20
0.9923139962355105
 30
0.0
 11
1.0724824446309
 21
0.9968201640795608
 31
0.0
  0
LINE
  5
1E7
  8
COLOR_B7BAC6FF
 10
1.051226566237519
 20
0.9783156530184213
 30
0.0
 11
1.066026678895639
 21
0.9923139962355105
 31
0.0
  0
LINE
  5
1E8
  8
COLOR_B7BAC6FF
 10
1.021655010704462
 20
0.9487290136934771
 30
0.0
 11
1.051226566237519
 21
0.9783156530184213
 31
0.0
  0
LINE
  5
1E9
  8
COLOR_B7BAC6FF
 10
1.014831495633589
 20
0.9441769056625048
 30
0.0
 11
1.021655010704462
 21
0.9487290136934771
 31
0.0
  0
LINE
  5
1EA
  8
COLOR_B7BAC6FF
 10
1.007454067950827
 20
0.9405244703634893
 30
0.0
 11
1.014831495633589
 21
0.9441769056625048
 31
0.0
  0
LINE
  5
1EB
  8
COLOR_B7BAC6FF
 10
1.00352404161787
 20
0.9390951745581915
 30
0.0
 11
1.007454067950827
 21
0.9405244703634893
 31
0.0
  0
LINE
  5
1EC
  8
COLOR_B7BAC6FF
 10
0.9994152228174008
 20
0.9379622504195534
 30
0.0
 11
1.00352404161787
 21
0.9390951745581915
 31
0.0
  0
LINE
  5
1ED
  8
COLOR_B7BAC6FF
 10
0.9951141734445723
 20
0.9371495157754659
 30
0.0
 11
0.9994152228174008
 21
0.9379622504195534
 31
0.0
  0
LINE
  5
1EE
  8
COLOR_B7BAC6FF
 10
0.9906074553945392
 20
0.9366807884538189
 30
0.0
 11
0.9951141734445723
 21
0.9371495157754659
 31
0.0
  0
LINE
  5
1EF
  8
COLOR_B7BAC6FF
 10
0.9858816305624525
 20
0.9365798862825032
 30
0.0
 11
0.9906074553945392
 21
0.9366807884538189
 31
0.0
  0
LINE
  5
1F0
  8
COLOR_B7BAC6FF
 10
0.9851197643398097
 20
0.941670498293944
 30
0.0
 11
0.9858816305624525
 21
0.9365798862825032
 31
0.0
  0
LINE
  5
1F1
  8
COLOR_B7BAC6FF
 10
0.9849733767338418
 20
0.9465657255049366
 30
0.0
 11
0.9851197643398097
 21
0.941670498293944
 31
0.0
  0
LINE
  5
1F2
  8
COLOR_B7BAC6FF
 10
0.9853916311508877
 20
0.9512793980110507
 30
0.0
 11
0.9849733767338418
 21
0.9465657255049366
 31
0.0
  0
LINE
  5
1F3
  8
COLOR_B7BAC6FF
 10
0.986323690997286
 20
0.9558253459078566
 30
0.0
 11
0.9853916311508877
 21
0.9512793980110507
 31
0.0
  0
LINE
  5
1F4
  8
COLOR_B7BAC6FF
 10
0.9877187196793757
 20
0.9602173992909243
 30
0.0
 11
0.986323690997286
 21
0.9558253459078566
 31
0.0
  0
LINE
  5
1F5
  8
COLOR_B7BAC6FF
 10
0.9895258806034957
 20
0.9644693882558243
 30
0.0
 11
0.9877187196793757
 21
0.9602173992909243
 31
0.0
  0
LINE
  5
1F6
  8
COLOR_B7BAC6FF
 10
0.991694337175984
 20
0.9685951428981261
 30
0.0
 11
0.9895258806034957
 21
0.9644693882558243
 31
0.0
  0
LINE
  5
1F7
  8
COLOR_B7BAC6FF
 10
0.99417325280318
 20
0.9726084933133999
 30
0.0
 11
0.991694337175984
 21
0.9685951428981261
 31
0.0
  0
LINE
  5
1F8
  8
COLOR_B7BAC6FF
 10
0.9998591148470497
 20
0.9803533018451446
 30
0.0
 11
0.99417325280318
 21
0.9726084933133999
 31
0.0
  0
LINE
  5
1F9
  8
COLOR_B7BAC6FF
 10
1.02485360647858
 20
1.009602386005023
 30
0.0
 11
0.9998591148470497
 21
0.9803533018451446
 31
0.0
  0
LINE
  5
1FA
  8
COLOR_B7BAC6FF
 10
1.029631526504025
 20
1.01703532337602
 30
0.0
 11
1.02485360647858
 21
1.009602386005023
 31
0.0
  0
LINE
  5
1FB
  8
COLOR_B7BAC6FF
 10
1.031520279819246
 20
1.020845957536809
 30
0.0
 11
1.029631526504025
 21
1.01703532337602
 31
0.0
  0
LINE
  5
1FC
  8
COLOR_B7BAC6FF
 10
1.033007779877916
 20
1.024737808808551
 30
0.0
 11
1.031520279819246
 21
1.020845957536809
 31
0.0
  0
LINE
  5
1FD
  8
COLOR_B7BAC6FF
 10
1.034043190086375
 20
1.028724707286816
 30
0.0
 11
1.033007779877916
 21
1.024737808808551
 31
0.0
  0
LINE
  5
1FE
  8
COLOR_B7BAC6FF
 10
1.034575673850962
 20
1.032820483067174
 30
0.0
 11
1.034043190086375
 21
1.028724707286816
 31
0.0
  0
LINE
  5
1FF
  8
COLOR_B7BAC6FF
 10
1.034554394578014
 20
1.037038966245196
 30
0.0
 11
1.034575673850962
 21
1.032820483067174
 31
0.0
  0
LINE
  5
200
  8
COLOR_B7BAC6FF
 10
1.033928515673873
 20
1.041393986916451
 30
0.0
 11
1.034554394578014
 21
1.037038966245196
 31
0.0
  0
LINE
  5
201
  8
COLOR_B7BAC6FF
 10
1.032647200544875
 20
1.04589937517651
 30
0.0
 11
1.033928515673873
 21
1.041393986916451
 31
0.0
  0
LINE
  5
202
  8
COLOR_B7BAC6FF
 10
1.030659612597359
 20
1.050568961120943
 30
0.0
 11
1.032647200544875
 21
1.04589937517651
 31
0.0
  0
LINE
  5
203
  8
COLOR_B7BAC6FF
 10
1.027914915237665
 20
1.055416574845319
 30
0.0
 11
1.030659612597359
 21
1.050568961120943
 31
0.0
  0
LINE
  5
204
  8
COLOR_B7BAC6FF
 10
1.023167561427918
 20
1.056567108537576
 30
0.0
 11
1.027914915237665
 21
1.055416574845319
 31
0.0
  0
LINE
  5
205
  8
COLOR_B7BAC6FF
 10
1.013705954194018
 20
1.058184446951731
 30
0.0
 11
1.023167561427918
 21
1.056567108537576
 31
0.0
  0
LINE
  5
206
  8
COLOR_B7BAC6FF
 10
0.9996606352761652
 20
1.058958285131107
 30
0.0
 11
1.013705954194018
 21
1.058184446951731
 31
0.0
  0
LINE
  5
207
  8
COLOR_B7BAC6FF
 10
0.9858947722283279
 20
1.057840964754719
 30
0.0
 11
0.9996606352761652
 21
1.058958285131107
 31
0.0
  0
LINE
  5
208
  8
COLOR_B7BAC6FF
 10
0.9725241787947295
 20
1.054935361193835
 30
0.0
 11
0.9858947722283279
 21
1.057840964754719
 31
0.0
  0
LINE
  5
209
  8
COLOR_B7BAC6FF
 10
0.9596646687195939
 20
1.050344349819726
 30
0.0
 11
0.9725241787947295
 21
1.054935361193835
 31
0.0
  0
LINE
  5
20A
  8
COLOR_B7BAC6FF
 10
0.9474320557471428
 20
1.044170806003661
 30
0.0
 11
0.9596646687195939
 21
1.050344349819726
 31
0.0
  0
LINE
  5
20B
  8
COLOR_B7BAC6FF
 10
0.9359421536216002
 20
1.03651760511691
 30
0.0
 11
0.9474320557471428
 21
1.044170806003661
 31
0.0
  0
LINE
  5
20C
  8
COLOR_B7BAC6FF
 10
0.9219777840085512
 20
1.024189457774962
 30
0.0
 11
0.9359421536216002
 21
1.03651760511691
 31
0.0
  0
LINE
  5
20D
  8
COLOR_B7BAC6FF
 10
0.9098142018030791
 20
1.009657551254839
 30
0.0
 11
0.9219777840085512
 21
1.024189457774962
 31
0.0
  0
LINE
  5
20F
  8
COLOR_529C96FF
 10
0.4973352365083368
 20
1.129809274176432
 30
0.0
 11
0.4711186462326478
 21
1.125922062955529
 31
0.0
  0
LINE
  5
210
  8
COLOR_529C96FF
 10
0.5465580774905856
 20
1.158350640404076
 30
0.0
 11
0.4973352365083368
 21
1.129809274176432
 31
0.0
  0
LINE
  5
211
  8
COLOR_529C96FF
 10
0.5485751495702986
 20
1.159678208998524
 30
0.0
 11
0.5465580774905856
 21
1.158350640404076
 31
0.0
  0
LINE
  5
212
  8
COLOR_529C96FF
 10
0.5511626882910958
 20
1.160414661351486
 30
0.0
 11
0.5485751495702986
 21
1.159678208998524
 31
0.0
  0
LINE
  5
213
  8
COLOR_529C96FF
 10
0.5836627924584368
 20
1.170509099936707
 30
0.0
 11
0.5511626882910958
 21
1.160414661351486
 31
0.0
  0
LINE
  5
214
  8
COLOR_529C96FF
 10
0.4792097988598881
 20
1.14207040770695
 30
0.0
 11
0.5304292441920814
 21
1.186887276665451
 31
0.0
  0
LINE
  5
215
  8
COLOR_529C96FF
 10
0.4711186462326478
 20
1.125922062955529
 30
0.0
 11
0.4792097988598881
 21
1.14207040770695
 31
0.0
  0
LINE
  5
217
  8
COLOR_E3FFFFFF
 10
0.7054171779106173
 20
0.733747065097178
 30
0.0
 11
0.6877533311221541
 21
0.7986307226359933
 31
0.0
  0
LINE
  5
218
  8
COLOR_E3FFFFFF
 10
0.7266720265223561
 20
0.6982578754338977
 30
0.0
 11
0.7054171779106173
 21
0.733747065097178
 31
0.0
  0
LINE
  5
219
  8
COLOR_E3FFFFFF
 10
0.765776103962296
 20
0.7524548031056053
 30
0.0
 11
0.7266720265223561
 21
0.6982578754338977
 31
0.0
  0
LINE
  5
21A
  8
COLOR_E3FFFFFF
 10
0.6877533311221541
 20
0.7986307226359933
 30
0.0
 11
0.765776103962296
 21
0.7524548031056053
 31
0.0
  0
LINE
  5
21B
  8
COLOR_E3FFFFFF
 10
0.5130959238657211
 20
1.053326095386097
 30
0.0
 11
0.5283549640377072
 21
1.074655819997573
 31
0.0
  0
LINE
  5
21C
  8
COLOR_E3FFFFFF
 10
0.5263746349261728
 20
1.061109896303649
 30
0.0
 11
0.5130959238657211
 21
1.053326095386097
 31
0.0
  0
LINE
  5
21D
  8
COLOR_E3FFFFFF
 10
0.5405160971835296
 20
1.068178758151731
 30
0.0
 11
0.5263746349261728
 21
1.061109896303649
 31
0.0
  0
LINE
  5
21E
  8
COLOR_E3FFFFFF
 10
0.5553508004167714
 20
1.074399583665922
 30
0.0
 11
0.5405160971835296
 21
1.068178758151731
 31
0.0
  0
LINE
  5
21F
  8
COLOR_E3FFFFFF
 10
0.5707092344048788
 20
1.079639275581798
 30
0.0
 11
0.5553508004167714
 21
1.074399583665922
 31
0.0
  0
LINE
  5
220
  8
COLOR_E3FFFFFF
 10
0.5864218889268317
 20
1.083764736634939
 30
0.0
 11
0.5707092344048788
 21
1.079639275581798
 31
0.0
  0
LINE
  5
221
  8
COLOR_E3FFFFFF
 10
0.5943580769439315
 20
1.085368037692853
 30
0.0
 11
0.5864218889268317
 21
1.083764736634939
 31
0.0
  0
LINE
  5
222
  8
COLOR_E3FFFFFF
 10
0.6023192537616104
 20
1.086642869560923
 30
0.0
 11
0.5943580769439315
 21
1.085368037692853
 31
0.0
  0
LINE
  5
223
  8
COLOR_E3FFFFFF
 10
0.6102842306022407
 20
1.0875725950811
 30
0.0
 11
0.6023192537616104
 21
1.086642869560923
 31
0.0
  0
LINE
  5
224
  8
COLOR_E3FFFFFF
 10
0.6182318186881951
 20
1.088140577095328
 30
0.0
 11
0.6102842306022407
 21
1.0875725950811
 31
0.0
  0
LINE
  5
225
  8
COLOR_E3FFFFFF
 10
0.626140829241846
 20
1.088330178445557
 30
0.0
 11
0.6182318186881951
 21
1.088140577095328
 31
0.0
  0
LINE
  5
226
  8
COLOR_E3FFFFFF
 10
0.633990073485566
 20
1.088124761973732
 30
0.0
 11
0.626140829241846
 21
1.088330178445557
 31
0.0
  0
LINE
  5
227
  8
COLOR_E3FFFFFF
 10
0.6417583626417277
 20
1.087507690521802
 30
0.0
 11
0.633990073485566
 21
1.088124761973732
 31
0.0
  0
LINE
  5
228
  8
COLOR_E3FFFFFF
 10
0.6494245079327031
 20
1.086462326931714
 30
0.0
 11
0.6417583626417277
 21
1.087507690521802
 31
0.0
  0
LINE
  5
229
  8
COLOR_E3FFFFFF
 10
0.6569673205808655
 20
1.084972034045414
 30
0.0
 11
0.6494245079327031
 21
1.086462326931714
 31
0.0
  0
LINE
  5
22A
  8
COLOR_E3FFFFFF
 10
0.664365611808587
 20
1.083020174704851
 30
0.0
 11
0.6569673205808655
 21
1.084972034045414
 31
0.0
  0
LINE
  5
22B
  8
COLOR_E3FFFFFF
 10
0.6715981928382401
 20
1.080590111751971
 30
0.0
 11
0.664365611808587
 21
1.083020174704851
 31
0.0
  0
LINE
  5
22C
  8
COLOR_E3FFFFFF
 10
0.6786438748921972
 20
1.077665208028722
 30
0.0
 11
0.6715981928382401
 21
1.080590111751971
 31
0.0
  0
LINE
  5
22D
  8
COLOR_E3FFFFFF
 10
0.6854814691928315
 20
1.074228826377051
 30
0.0
 11
0.6786438748921972
 21
1.077665208028722
 31
0.0
  0
LINE
  5
22E
  8
COLOR_E3FFFFFF
 10
0.6920897869625147
 20
1.070264329638905
 30
0.0
 11
0.6854814691928315
 21
1.074228826377051
 31
0.0
  0
LINE
  5
22F
  8
COLOR_E3FFFFFF
 10
0.6984476394236196
 20
1.065755080656232
 30
0.0
 11
0.6920897869625147
 21
1.070264329638905
 31
0.0
  0
LINE
  5
230
  8
COLOR_E3FFFFFF
 10
0.7045338377985193
 20
1.060684442270978
 30
0.0
 11
0.6984476394236196
 21
1.065755080656232
 31
0.0
  0
LINE
  5
231
  8
COLOR_E3FFFFFF
 10
0.7103271933095854
 20
1.055035777325092
 30
0.0
 11
0.7045338377985193
 21
1.060684442270978
 31
0.0
  0
LINE
  5
232
  8
COLOR_E3FFFFFF
 10
0.7158065171791911
 20
1.04879244866052
 30
0.0
 11
0.7103271933095854
 21
1.055035777325092
 31
0.0
  0
LINE
  5
233
  8
COLOR_E3FFFFFF
 10
0.7209506206297083
 20
1.04193781911921
 30
0.0
 11
0.7158065171791911
 21
1.04879244866052
 31
0.0
  0
LINE
  5
234
  8
COLOR_E3FFFFFF
 10
0.7366619379594664
 20
1.089655601071471
 30
0.0
 11
0.7209506206297083
 21
1.04193781911921
 31
0.0
  0
LINE
  5
235
  8
COLOR_E3FFFFFF
 10
0.7302183713449901
 20
1.09470437553817
 30
0.0
 11
0.7366619379594663
 21
1.089655601071471
 31
0.0
  0
LINE
  5
236
  8
COLOR_E3FFFFFF
 10
0.7235925840793603
 20
1.099253986814998
 30
0.0
 11
0.7302183713449901
 21
1.09470437553817
 31
0.0
  0
LINE
  5
237
  8
COLOR_E3FFFFFF
 10
0.7167989543897985
 20
1.103315722809583
 30
0.0
 11
0.7235925840793603
 21
1.099253986814998
 31
0.0
  0
LINE
  5
238
  8
COLOR_E3FFFFFF
 10
0.7098518605035254
 20
1.106900871429556
 30
0.0
 11
0.7167989543897985
 21
1.103315722809583
 31
0.0
  0
LINE
  5
239
  8
COLOR_E3FFFFFF
 10
0.7027656806477629
 20
1.110020720582547
 30
0.0
 11
0.7098518605035254
 21
1.106900871429556
 31
0.0
  0
LINE
  5
23A
  8
COLOR_E3FFFFFF
 10
0.6955547930497318
 20
1.112686558176187
 30
0.0
 11
0.7027656806477629
 21
1.110020720582547
 31
0.0
  0
LINE
  5
23B
  8
COLOR_E3FFFFFF
 10
0.6882335759366531
 20
1.114909672118104
 30
0.0
 11
0.6955547930497318
 21
1.112686558176187
 31
0.0
  0
LINE
  5
23C
  8
COLOR_E3FFFFFF
 10
0.6808164075357488
 20
1.116701350315928
 30
0.0
 11
0.6882335759366531
 21
1.114909672118104
 31
0.0
  0
LINE
  5
23D
  8
COLOR_E3FFFFFF
 10
0.6733176660742395
 20
1.118072880677291
 30
0.0
 11
0.6808164075357488
 21
1.116701350315928
 31
0.0
  0
LINE
  5
23E
  8
COLOR_E3FFFFFF
 10
0.6657517297793463
 20
1.119035551109821
 30
0.0
 11
0.6733176660742395
 21
1.118072880677291
 31
0.0
  0
LINE
  5
23F
  8
COLOR_E3FFFFFF
 10
0.6581329768782908
 20
1.119600649521149
 30
0.0
 11
0.6657517297793463
 21
1.119035551109821
 31
0.0
  0
LINE
  5
240
  8
COLOR_E3FFFFFF
 10
0.6504757855982942
 20
1.119779463818904
 30
0.0
 11
0.6581329768782908
 21
1.119600649521149
 31
0.0
  0
LINE
  5
241
  8
COLOR_E3FFFFFF
 10
0.6427945341665773
 20
1.119583281910717
 30
0.0
 11
0.6504757855982942
 21
1.119779463818904
 31
0.0
  0
LINE
  5
242
  8
COLOR_E3FFFFFF
 10
0.635103600810362
 20
1.119023391704217
 30
0.0
 11
0.6427945341665773
 21
1.119583281910717
 31
0.0
  0
LINE
  5
243
  8
COLOR_E3FFFFFF
 10
0.6274173637568689
 20
1.118111081107034
 30
0.0
 11
0.635103600810362
 21
1.119023391704217
 31
0.0
  0
LINE
  5
244
  8
COLOR_E3FFFFFF
 10
0.6197502012333196
 20
1.116857638026799
 30
0.0
 11
0.6274173637568689
 21
1.118111081107034
 31
0.0
  0
LINE
  5
245
  8
COLOR_E3FFFFFF
 10
0.612116491466935
 20
1.115274350371141
 30
0.0
 11
0.6197502012333196
 21
1.116857638026799
 31
0.0
  0
LINE
  5
246
  8
COLOR_E3FFFFFF
 10
0.6045306126849367
 20
1.113372506047691
 30
0.0
 11
0.612116491466935
 21
1.115274350371141
 31
0.0
  0
LINE
  5
247
  8
COLOR_E3FFFFFF
 10
0.5895598609829834
 20
1.108658299027931
 30
0.0
 11
0.6045306126849367
 21
1.113372506047691
 31
0.0
  0
LINE
  5
248
  8
COLOR_E3FFFFFF
 10
0.574952971945229
 20
1.102805320228559
 30
0.0
 11
0.5895598609829834
 21
1.108658299027931
 31
0.0
  0
LINE
  5
249
  8
COLOR_E3FFFFFF
 10
0.5608249713894433
 20
1.095903872910615
 30
0.0
 11
0.574952971945229
 21
1.102805320228559
 31
0.0
  0
LINE
  5
24A
  8
COLOR_E3FFFFFF
 10
0.5472908851333964
 20
1.088044260335138
 30
0.0
 11
0.5608249713894433
 21
1.095903872910615
 31
0.0
  0
LINE
  5
24B
  8
COLOR_E3FFFFFF
 10
0.5344657389948578
 20
1.079316785763168
 30
0.0
 11
0.5472908851333964
 21
1.088044260335138
 31
0.0
  0
LINE
  5
24C
  8
COLOR_E3FFFFFF
 10
0.5283549640377072
 20
1.074655819997573
 30
0.0
 11
0.5344657389948578
 21
1.079316785763168
 31
0.0
  0
LINE
  5
24D
  8
COLOR_E3FFFFFF
 10
0.5511626882910958
 20
1.160414661351486
 30
0.0
 11
0.5836627924584368
 21
1.170509099936707
 31
0.0
  0
LINE
  5
24E
  8
COLOR_E3FFFFFF
 10
0.5465580774905856
 20
1.158350640404076
 30
0.0
 11
0.5511626882910958
 21
1.160414661351486
 31
0.0
  0
LINE
  5
24F
  8
COLOR_E3FFFFFF
 10
0.4973352365083368
 20
1.129809274176432
 30
0.0
 11
0.5465580774905856
 21
1.158350640404076
 31
0.0
  0
LINE
  5
250
  8
COLOR_E3FFFFFF
 10
0.5248159027459777
 20
1.11781724488704
 30
0.0
 11
0.4973352365083368
 21
1.129809274176432
 31
0.0
  0
LINE
  5
251
  8
COLOR_E3FFFFFF
 10
0.49526804009227
 20
1.09784287185763
 30
0.0
 11
0.5248159027459777
 21
1.11781724488704
 31
0.0
  0
LINE
  5
252
  8
COLOR_E3FFFFFF
 10
0.4737525997786133
 20
1.080055713005009
 30
0.0
 11
0.49526804009227
 21
1.09784287185763
 31
0.0
  0
LINE
  5
253
  8
COLOR_E3FFFFFF
 10
0.4666054998133494
 20
1.07118267080092
 30
0.0
 11
0.4737525997786133
 21
1.080055713005009
 31
0.0
  0
LINE
  5
254
  8
COLOR_E3FFFFFF
 10
0.4628859421105049
 20
1.064714465123947
 30
0.0
 11
0.4666054998133494
 21
1.07118267080092
 31
0.0
  0
LINE
  5
255
  8
COLOR_E3FFFFFF
 10
0.4601676819284108
 20
1.057740430536722
 30
0.0
 11
0.4628859421105049
 21
1.064714465123947
 31
0.0
  0
LINE
  5
256
  8
COLOR_E3FFFFFF
 10
0.4592282768991322
 20
1.054046704131002
 30
0.0
 11
0.4601676819284108
 21
1.057740430536722
 31
0.0
  0
LINE
  5
257
  8
COLOR_E3FFFFFF
 10
0.4585922824398256
 20
1.050206092572801
 30
0.0
 11
0.4592282768991322
 21
1.054046704131002
 31
0.0
  0
LINE
  5
258
  8
COLOR_E3FFFFFF
 10
0.4582773939470863
 20
1.046211786553815
 30
0.0
 11
0.4585922824398256
 21
1.050206092572801
 31
0.0
  0
LINE
  5
259
  8
COLOR_E3FFFFFF
 10
0.4583013068175085
 20
1.042056976765737
 30
0.0
 11
0.4582773939470863
 21
1.046211786553815
 31
0.0
  0
LINE
  5
25A
  8
COLOR_E3FFFFFF
 10
0.4586817164476877
 20
1.037734853900262
 30
0.0
 11
0.4583013068175085
 21
1.042056976765737
 31
0.0
  0
LINE
  5
25B
  8
COLOR_E3FFFFFF
 10
0.459436318234218
 20
1.033238608649084
 30
0.0
 11
0.4586817164476877
 21
1.037734853900262
 31
0.0
  0
LINE
  5
25C
  8
COLOR_E3FFFFFF
 10
0.5198484883526029
 20
1.093688852387988
 30
0.0
 11
0.459436318234218
 21
1.033238608649084
 31
0.0
  0
LINE
  5
25D
  8
COLOR_E3FFFFFF
 10
0.5283549640377072
 20
1.074655819997573
 30
0.0
 11
0.5198484883526029
 21
1.093688852387988
 31
0.0
  0
LINE
  5
25E
  8
COLOR_E3FFFFFF
 10
0.5270751470629395
 20
1.077660498590372
 30
0.0
 11
0.5283549640377072
 21
1.074655819997573
 31
0.0
  0
LINE
  5
25F
  8
COLOR_E3FFFFFF
 10
0.5261574622004176
 20
1.080516546004209
 30
0.0
 11
0.5270751470629395
 21
1.077660498590372
 31
0.0
  0
LINE
  5
260
  8
COLOR_E3FFFFFF
 10
0.5255835994989984
 20
1.083230000788534
 30
0.0
 11
0.5261574622004176
 21
1.080516546004209
 31
0.0
  0
LINE
  5
261
  8
COLOR_E3FFFFFF
 10
0.525335249007538
 20
1.085806901492799
 30
0.0
 11
0.5255835994989984
 21
1.083230000788534
 31
0.0
  0
LINE
  5
262
  8
COLOR_E3FFFFFF
 10
0.5253941007748935
 20
1.088253286666455
 30
0.0
 11
0.525335249007538
 21
1.085806901492799
 31
0.0
  0
LINE
  5
263
  8
COLOR_E3FFFFFF
 10
0.5263601712814759
 20
1.092778664619746
 30
0.0
 11
0.5253941007748935
 21
1.088253286666455
 31
0.0
  0
LINE
  5
264
  8
COLOR_E3FFFFFF
 10
0.528335331409598
 20
1.096854443044016
 30
0.0
 11
0.5263601712814759
 21
1.092778664619746
 31
0.0
  0
LINE
  5
265
  8
COLOR_E3FFFFFF
 10
0.532869690497154
 20
1.102230786178907
 30
0.0
 11
0.528335331409598
 21
1.096854443044016
 31
0.0
  0
LINE
  5
266
  8
COLOR_E3FFFFFF
 10
0.5628862857121602
 20
1.119072094866708
 30
0.0
 11
0.532869690497154
 21
1.102230786178907
 31
0.0
  0
LINE
  5
267
  8
COLOR_E3FFFFFF
 10
0.5713613478627969
 20
1.123512100224908
 30
0.0
 11
0.5628862857121602
 21
1.119072094866708
 31
0.0
  0
LINE
  5
268
  8
COLOR_E3FFFFFF
 10
0.5816245231236775
 20
1.12819153803082
 30
0.0
 11
0.5713613478627969
 21
1.123512100224908
 31
0.0
  0
LINE
  5
269
  8
COLOR_E3FFFFFF
 10
0.5920408095386576
 20
1.131958421582085
 30
0.0
 11
0.5816245231236775
 21
1.12819153803082
 31
0.0
  0
LINE
  5
26A
  8
COLOR_E3FFFFFF
 10
0.607906978327551
 20
1.13602351875893
 30
0.0
 11
0.5920408095386576
 21
1.131958421582085
 31
0.0
  0
LINE
  5
26B
  8
COLOR_E3FFFFFF
 10
0.6294042902960343
 20
1.138786502367075
 30
0.0
 11
0.607906978327551
 21
1.13602351875893
 31
0.0
  0
LINE
  5
26C
  8
COLOR_E3FFFFFF
 10
0.6565930495282889
 20
1.138616847123788
 30
0.0
 11
0.6294042902960343
 21
1.138786502367075
 31
0.0
  0
LINE
  5
26D
  8
COLOR_E3FFFFFF
 10
0.7267096800666555
 20
1.125502480168525
 30
0.0
 11
0.6565930495282889
 21
1.138616847123788
 31
0.0
  0
LINE
  5
26E
  8
COLOR_E3FFFFFF
 10
0.7196628643862337
 20
1.134683635564143
 30
0.0
 11
0.7267096800666555
 21
1.125502480168525
 31
0.0
  0
LINE
  5
26F
  8
COLOR_E3FFFFFF
 10
0.7119446000038149
 20
1.142883564818248
 30
0.0
 11
0.7196628643862337
 21
1.134683635564143
 31
0.0
  0
LINE
  5
270
  8
COLOR_E3FFFFFF
 10
0.7036158217398518
 20
1.150121682184038
 30
0.0
 11
0.7119446000038149
 21
1.142883564818248
 31
0.0
  0
LINE
  5
271
  8
COLOR_E3FFFFFF
 10
0.6947374644147968
 20
1.156417401914711
 30
0.0
 11
0.7036158217398518
 21
1.150121682184038
 31
0.0
  0
LINE
  5
272
  8
COLOR_E3FFFFFF
 10
0.6853704628491026
 20
1.161790138263466
 30
0.0
 11
0.6947374644147968
 21
1.156417401914711
 31
0.0
  0
LINE
  5
273
  8
COLOR_E3FFFFFF
 10
0.6755757518632224
 20
1.166259305483499
 30
0.0
 11
0.6853704628491026
 21
1.161790138263466
 31
0.0
  0
LINE
  5
274
  8
COLOR_E3FFFFFF
 10
0.6654142662776081
 20
1.16984431782801
 30
0.0
 11
0.6755757518632224
 21
1.166259305483499
 31
0.0
  0
LINE
  5
275
  8
COLOR_E3FFFFFF
 10
0.6549469409127131
 20
1.172564589550195
 30
0.0
 11
0.6654142662776081
 21
1.16984431782801
 31
0.0
  0
LINE
  5
276
  8
COLOR_E3FFFFFF
 10
0.638805798198959
 20
1.175066077145485
 30
0.0
 11
0.6549469409127131
 21
1.172564589550195
 31
0.0
  0
LINE
  5
277
  8
COLOR_E3FFFFFF
 10
0.6223192743468691
 20
1.17573110351478
 30
0.0
 11
0.638805798198959
 21
1.175066077145485
 31
0.0
  0
LINE
  5
278
  8
COLOR_E3FFFFFF
 10
0.6056930243754717
 20
1.174625191762626
 30
0.0
 11
0.6223192743468691
 21
1.17573110351478
 31
0.0
  0
LINE
  5
279
  8
COLOR_E3FFFFFF
 10
0.589132703303794
 20
1.171813864993564
 30
0.0
 11
0.6056930243754717
 21
1.174625191762626
 31
0.0
  0
LINE
  5
27A
  8
COLOR_E3FFFFFF
 10
0.5836627924584368
 20
1.170509099936707
 30
0.0
 11
0.589132703303794
 21
1.171813864993564
 31
0.0
  0
LINE
  5
27B
  8
COLOR_E3FFFFFF
 10
0.6753246520113532
 20
1.187922008574603
 30
0.0
 11
0.5849976745969254
 21
1.202314134852326
 31
0.0
  0
LINE
  5
27C
  8
COLOR_E3FFFFFF
 10
0.6921398310113351
 20
1.181172061196518
 30
0.0
 11
0.6753246520113532
 21
1.187922008574603
 31
0.0
  0
LINE
  5
27D
  8
COLOR_E3FFFFFF
 10
0.7040984109703883
 20
1.174369264835039
 30
0.0
 11
0.6921398310113351
 21
1.181172061196518
 31
0.0
  0
LINE
  5
27E
  8
COLOR_E3FFFFFF
 10
0.7116997289894238
 20
1.168863519983362
 30
0.0
 11
0.7040984109703883
 21
1.174369264835039
 31
0.0
  0
LINE
  5
27F
  8
COLOR_E3FFFFFF
 10
0.7219128330417396
 20
1.162028762108942
 30
0.0
 11
0.7116997289894238
 21
1.168863519983362
 31
0.0
  0
LINE
  5
280
  8
COLOR_E3FFFFFF
 10
0.7307314104336494
 20
1.154013842268602
 30
0.0
 11
0.7219128330417396
 21
1.162028762108942
 31
0.0
  0
LINE
  5
281
  8
COLOR_E3FFFFFF
 10
0.7405906712156374
 20
1.141788738890517
 30
0.0
 11
0.7307314104336494
 21
1.154013842268602
 31
0.0
  0
LINE
  5
282
  8
COLOR_E3FFFFFF
 10
0.75664751880484
 20
1.10984076357927
 30
0.0
 11
0.7405906712156374
 21
1.141788738890517
 31
0.0
  0
LINE
  5
283
  8
COLOR_E3FFFFFF
 10
0.7687599647171102
 20
1.071769773097573
 30
0.0
 11
0.75664751880484
 21
1.10984076357927
 31
0.0
  0
LINE
  5
284
  8
COLOR_E3FFFFFF
 10
0.7929831169425252
 20
1.072631184810458
 30
0.0
 11
0.7687599647171102
 21
1.071769773097573
 31
0.0
  0
LINE
  5
285
  8
COLOR_E3FFFFFF
 10
0.7826922044979098
 20
1.142135373432865
 30
0.0
 11
0.7929831169425252
 21
1.072631184810458
 31
0.0
  0
LINE
  5
286
  8
COLOR_E3FFFFFF
 10
0.7770536029754019
 20
1.154741548993186
 30
0.0
 11
0.7826922044979098
 21
1.142135373432865
 31
0.0
  0
LINE
  5
287
  8
COLOR_E3FFFFFF
 10
0.7711517881343765
 20
1.163452671873178
 30
0.0
 11
0.7770536029754019
 21
1.154741548993186
 31
0.0
  0
LINE
  5
288
  8
COLOR_E3FFFFFF
 10
0.7662794293303625
 20
1.168832971600697
 30
0.0
 11
0.7711517881343765
 21
1.163452671873178
 31
0.0
  0
LINE
  5
289
  8
COLOR_E3FFFFFF
 10
0.7615401282305717
 20
1.173873372634152
 30
0.0
 11
0.7662794293303625
 21
1.168832971600697
 31
0.0
  0
LINE
  5
28A
  8
COLOR_E3FFFFFF
 10
0.7565880179009126
 20
1.178561252379419
 30
0.0
 11
0.7615401282305717
 21
1.173873372634152
 31
0.0
  0
LINE
  5
28B
  8
COLOR_E3FFFFFF
 10
0.7514347454471572
 20
1.182904939565639
 30
0.0
 11
0.7565880179009126
 21
1.178561252379419
 31
0.0
  0
LINE
  5
28C
  8
COLOR_E3FFFFFF
 10
0.7460919579750753
 20
1.186912762921954
 30
0.0
 11
0.7514347454471572
 21
1.182904939565639
 31
0.0
  0
LINE
  5
28D
  8
COLOR_E3FFFFFF
 10
0.7405713025904388
 20
1.190593051177509
 30
0.0
 11
0.7460919579750753
 21
1.186912762921954
 31
0.0
  0
LINE
  5
28E
  8
COLOR_E3FFFFFF
 10
0.7348844263990181
 20
1.193954133061443
 30
0.0
 11
0.7405713025904388
 21
1.190593051177509
 31
0.0
  0
LINE
  5
28F
  8
COLOR_E3FFFFFF
 10
0.7290429765065835
 20
1.197004337302901
 30
0.0
 11
0.7348844263990181
 21
1.193954133061443
 31
0.0
  0
LINE
  5
290
  8
COLOR_E3FFFFFF
 10
0.723058600018907
 20
1.199751992631024
 30
0.0
 11
0.7290429765065835
 21
1.197004337302901
 31
0.0
  0
LINE
  5
291
  8
COLOR_E3FFFFFF
 10
0.7107076556809099
 20
1.204372971463835
 30
0.0
 11
0.723058600018907
 21
1.199751992631024
 31
0.0
  0
LINE
  5
292
  8
COLOR_E3FFFFFF
 10
0.6979247702311938
 20
1.207883699393014
 30
0.0
 11
0.7107076556809099
 21
1.204372971463835
 31
0.0
  0
LINE
  5
293
  8
COLOR_E3FFFFFF
 10
0.6848031205159255
 20
1.210350806251701
 30
0.0
 11
0.6979247702311938
 21
1.207883699393014
 31
0.0
  0
LINE
  5
294
  8
COLOR_E3FFFFFF
 10
0.6714358833812719
 20
1.211840921873034
 30
0.0
 11
0.6848031205159255
 21
1.210350806251701
 31
0.0
  0
LINE
  5
295
  8
COLOR_E3FFFFFF
 10
0.6511283756189351
 20
1.212389989494985
 30
0.0
 11
0.6714358833812719
 21
1.211840921873034
 31
0.0
  0
LINE
  5
296
  8
COLOR_E3FFFFFF
 10
0.6307924159226717
 20
1.211115619644294
 30
0.0
 11
0.6511283756189351
 21
1.212389989494985
 31
0.0
  0
LINE
  5
297
  8
COLOR_E3FFFFFF
 10
0.6041770760330756
 20
1.206968675579237
 30
0.0
 11
0.6307924159226717
 21
1.211115619644294
 31
0.0
  0
LINE
  5
298
  8
COLOR_E3FFFFFF
 10
0.5849976745969254
 20
1.202314134852326
 30
0.0
 11
0.6041770760330756
 21
1.206968675579237
 31
0.0
  0
LINE
  5
299
  8
COLOR_E3FFFFFF
 10
0.5783644647455162
 20
1.21527057266936
 30
0.0
 11
0.5756674740765472
 21
1.214019303843693
 31
0.0
  0
LINE
  5
29A
  8
COLOR_E3FFFFFF
 10
0.5756674740765472
 20
1.214019303843693
 30
0.0
 11
0.5783644647455162
 21
1.21527057266936
 31
0.0
  0
LINE
  5
29B
  8
COLOR_E3FFFFFF
 10
0.5803754665522016
 20
1.256771917578479
 30
0.0
 11
0.5769290325696176
 21
1.258162604923332
 31
0.0
  0
LINE
  5
29C
  8
COLOR_E3FFFFFF
 10
0.6808307600376711
 20
1.233256780440761
 30
0.0
 11
0.5803754665522016
 21
1.256771917578479
 31
0.0
  0
LINE
  5
29D
  8
COLOR_E3FFFFFF
 10
0.7566110362191097
 20
1.203564647383595
 30
0.0
 11
0.6808307600376711
 21
1.233256780440761
 31
0.0
  0
LINE
  5
29E
  8
COLOR_E3FFFFFF
 10
0.774770882221501
 20
1.188996598195758
 30
0.0
 11
0.7566110362191097
 21
1.203564647383595
 31
0.0
  0
LINE
  5
29F
  8
COLOR_E3FFFFFF
 10
0.7802045245427802
 20
1.183263064204621
 30
0.0
 11
0.774770882221501
 21
1.188996598195758
 31
0.0
  0
LINE
  5
2A0
  8
COLOR_E3FFFFFF
 10
0.8195165971536879
 20
1.107160262923093
 30
0.0
 11
0.7802045245427802
 21
1.183263064204621
 31
0.0
  0
LINE
  5
2A1
  8
COLOR_E3FFFFFF
 10
0.820891472078747
 20
1.118416395190806
 30
0.0
 11
0.8195165971536879
 21
1.107160262923093
 31
0.0
  0
LINE
  5
2A2
  8
COLOR_E3FFFFFF
 10
0.8211516058026175
 20
1.129534514619515
 30
0.0
 11
0.820891472078747
 21
1.118416395190806
 31
0.0
  0
LINE
  5
2A3
  8
COLOR_E3FFFFFF
 10
0.8203466582211288
 20
1.140471632824866
 30
0.0
 11
0.8211516058026175
 21
1.129534514619515
 31
0.0
  0
LINE
  5
2A4
  8
COLOR_E3FFFFFF
 10
0.8185262892301092
 20
1.151184761422507
 30
0.0
 11
0.8203466582211288
 21
1.140471632824866
 31
0.0
  0
LINE
  5
2A5
  8
COLOR_E3FFFFFF
 10
0.8157401587253882
 20
1.161630912028086
 30
0.0
 11
0.8185262892301092
 21
1.151184761422507
 31
0.0
  0
LINE
  5
2A6
  8
COLOR_E3FFFFFF
 10
0.8120379266027947
 20
1.17176709625725
 30
0.0
 11
0.8157401587253882
 21
1.161630912028086
 31
0.0
  0
LINE
  5
2A7
  8
COLOR_E3FFFFFF
 10
0.8074692527581576
 20
1.181550325725645
 30
0.0
 11
0.8120379266027947
 21
1.17176709625725
 31
0.0
  0
LINE
  5
2A8
  8
COLOR_E3FFFFFF
 10
0.8020837970873059
 20
1.190937612048919
 30
0.0
 11
0.8074692527581576
 21
1.181550325725645
 31
0.0
  0
LINE
  5
2A9
  8
COLOR_E3FFFFFF
 10
0.7925827786790027
 20
1.204182111045956
 30
0.0
 11
0.8020837970873059
 21
1.190937612048919
 31
0.0
  0
LINE
  5
2AA
  8
COLOR_E3FFFFFF
 10
0.7815233380757555
 20
1.216293928304486
 30
0.0
 11
0.7925827786790027
 21
1.204182111045956
 31
0.0
  0
LINE
  5
2AB
  8
COLOR_E3FFFFFF
 10
0.7690730774259869
 20
1.227127978027318
 30
0.0
 11
0.7815233380757555
 21
1.216293928304486
 31
0.0
  0
LINE
  5
2AC
  8
COLOR_E3FFFFFF
 10
0.7553995988781205
 20
1.236539174417262
 30
0.0
 11
0.7690730774259869
 21
1.227127978027318
 31
0.0
  0
LINE
  5
2AD
  8
COLOR_E3FFFFFF
 10
0.7505989147684877
 20
1.239334973693507
 30
0.0
 11
0.7553995988781205
 21
1.236539174417262
 31
0.0
  0
LINE
  5
2AE
  8
COLOR_E3FFFFFF
 10
0.739698339231649
 20
1.245483009055681
 30
0.0
 11
0.7505989147684877
 21
1.239334973693507
 31
0.0
  0
LINE
  5
2AF
  8
COLOR_E3FFFFFF
 10
0.728489510629173
 20
1.250548287336693
 30
0.0
 11
0.739698339231649
 21
1.245483009055681
 31
0.0
  0
LINE
  5
2B0
  8
COLOR_E3FFFFFF
 10
0.717008128533497
 20
1.254618240794743
 30
0.0
 11
0.728489510629173
 21
1.250548287336693
 31
0.0
  0
LINE
  5
2B1
  8
COLOR_E3FFFFFF
 10
0.6993531104049393
 20
1.259048195003576
 30
0.0
 11
0.717008128533497
 21
1.254618240794743
 31
0.0
  0
LINE
  5
2B2
  8
COLOR_E3FFFFFF
 10
0.6751923450167415
 20
1.262287198144849
 30
0.0
 11
0.6993531104049393
 21
1.259048195003576
 31
0.0
  0
LINE
  5
2B3
  8
COLOR_E3FFFFFF
 10
0.5950577713869116
 20
1.259810006916229
 30
0.0
 11
0.6751923450167415
 21
1.262287198144849
 31
0.0
  0
LINE
  5
2B4
  8
COLOR_E3FFFFFF
 10
0.5769290325696176
 20
1.258162604923332
 30
0.0
 11
0.5950577713869116
 21
1.259810006916229
 31
0.0
  0
LINE
  5
2B6
  8
COLOR_F9FBFFFF
 10
0.7641833417851724
 20
1.252919681020432
 30
0.0
 11
0.7213850981077722
 21
1.276035507687019
 31
0.0
  0
LINE
  5
2B7
  8
COLOR_F9FBFFFF
 10
0.7843457967951377
 20
1.238713407147028
 30
0.0
 11
0.7641833417851724
 21
1.252919681020432
 31
0.0
  0
LINE
  5
2B8
  8
COLOR_F9FBFFFF
 10
0.798221317708216
 20
1.226738993019411
 30
0.0
 11
0.7843457967951377
 21
1.238713407147028
 31
0.0
  0
LINE
  5
2B9
  8
COLOR_F9FBFFFF
 10
0.8066766709319394
 20
1.218081602975131
 30
0.0
 11
0.798221317708216
 21
1.226738993019411
 31
0.0
  0
LINE
  5
2BA
  8
COLOR_F9FBFFFF
 10
0.8143706460508979
 20
1.208856023810375
 30
0.0
 11
0.8066766709319394
 21
1.218081602975131
 31
0.0
  0
LINE
  5
2BB
  8
COLOR_F9FBFFFF
 10
0.8211957720392896
 20
1.199037714422474
 30
0.0
 11
0.8143706460508979
 21
1.208856023810375
 31
0.0
  0
LINE
  5
2BC
  8
COLOR_F9FBFFFF
 10
0.8270445778713125
 20
1.188602133708758
 30
0.0
 11
0.8211957720392896
 21
1.199037714422474
 31
0.0
  0
LINE
  5
2BD
  8
COLOR_F9FBFFFF
 10
0.8295692760331227
 20
1.183145197510135
 30
0.0
 11
0.8270445778713125
 21
1.188602133708758
 31
0.0
  0
LINE
  5
2BE
  8
COLOR_F9FBFFFF
 10
0.8318095925211649
 20
1.177524740566559
 30
0.0
 11
0.8295692760331227
 21
1.183145197510135
 31
0.0
  0
LINE
  5
2BF
  8
COLOR_F9FBFFFF
 10
0.8337520934572142
 20
1.171737695240193
 30
0.0
 11
0.8318095925211649
 21
1.177524740566559
 31
0.0
  0
LINE
  5
2C0
  8
COLOR_F9FBFFFF
 10
0.8353833449630452
 20
1.165780993893206
 30
0.0
 11
0.8337520934572142
 21
1.171737695240193
 31
0.0
  0
LINE
  5
2C1
  8
COLOR_F9FBFFFF
 10
0.8366899131604326
 20
1.159651568887764
 30
0.0
 11
0.8353833449630452
 21
1.165780993893206
 31
0.0
  0
LINE
  5
2C2
  8
COLOR_F9FBFFFF
 10
0.8376583641711514
 20
1.153346352586032
 30
0.0
 11
0.8366899131604326
 21
1.159651568887764
 31
0.0
  0
LINE
  5
2C3
  8
COLOR_F9FBFFFF
 10
0.839124062022541
 20
1.139661842990831
 30
0.0
 11
0.8376583641711514
 21
1.153346352586032
 31
0.0
  0
LINE
  5
2C4
  8
COLOR_F9FBFFFF
 10
0.8376494537377608
 20
1.121491754305644
 30
0.0
 11
0.839124062022541
 21
1.139661842990831
 31
0.0
  0
LINE
  5
2C5
  8
COLOR_F9FBFFFF
 10
0.8337589771275381
 20
1.107254660507242
 30
0.0
 11
0.8376494537377608
 21
1.121491754305644
 31
0.0
  0
LINE
  5
2C6
  8
COLOR_F9FBFFFF
 10
0.8292246071656036
 20
1.097370764228014
 30
0.0
 11
0.8337589771275381
 21
1.107254660507242
 31
0.0
  0
LINE
  5
2C7
  8
COLOR_F9FBFFFF
 10
0.8232794990943914
 20
1.088609889102864
 30
0.0
 11
0.8292246071656036
 21
1.097370764228014
 31
0.0
  0
LINE
  5
2C8
  8
COLOR_F9FBFFFF
 10
0.8185211698916453
 20
1.083589879575575
 30
0.0
 11
0.8232794990943914
 21
1.088609889102864
 31
0.0
  0
LINE
  5
2C9
  8
COLOR_F9FBFFFF
 10
0.8131190753318223
 20
1.079364000433696
 30
0.0
 11
0.8185211698916453
 21
1.083589879575575
 31
0.0
  0
LINE
  5
2CA
  8
COLOR_F9FBFFFF
 10
0.8070665071581861
 20
1.07605025562622
 30
0.0
 11
0.8131190753318223
 21
1.079364000433696
 31
0.0
  0
LINE
  5
2CB
  8
COLOR_F9FBFFFF
 10
0.8037941991359574
 20
1.074772309831945
 30
0.0
 11
0.8070665071581861
 21
1.07605025562622
 31
0.0
  0
LINE
  5
2CC
  8
COLOR_F9FBFFFF
 10
0.8003567571139992
 20
1.073766649102143
 30
0.0
 11
0.8037941991359574
 21
1.074772309831945
 31
0.0
  0
LINE
  5
2CD
  8
COLOR_F9FBFFFF
 10
0.7967533425602191
 20
1.073048023930439
 30
0.0
 11
0.8003567571139992
 21
1.073766649102143
 31
0.0
  0
LINE
  5
2CE
  8
COLOR_F9FBFFFF
 10
0.7929831169425252
 20
1.072631184810458
 30
0.0
 11
0.7967533425602191
 21
1.073048023930439
 31
0.0
  0
LINE
  5
2CF
  8
COLOR_F9FBFFFF
 10
0.7687599647171102
 20
1.071769773097573
 30
0.0
 11
0.7929831169425252
 21
1.072631184810458
 31
0.0
  0
LINE
  5
2D0
  8
COLOR_F9FBFFFF
 10
0.7366619379594663
 20
1.089655601071471
 30
0.0
 11
0.7687599647171102
 21
1.071769773097573
 31
0.0
  0
LINE
  5
2D1
  8
COLOR_F9FBFFFF
 10
0.7209506206297083
 20
1.04193781911921
 30
0.0
 11
0.7366619379594664
 21
1.089655601071471
 31
0.0
  0
LINE
  5
2D2
  8
COLOR_F9FBFFFF
 10
0.7165998830626017
 20
0.9924220405570121
 30
0.0
 11
0.7209506206297086
 21
1.041937819119211
 31
0.0
  0
LINE
  5
2D3
  8
COLOR_F9FBFFFF
 10
0.7055643687027553
 20
0.9875409652958473
 30
0.0
 11
0.7165998830626017
 21
0.9924220405570121
 31
0.0
  0
LINE
  5
2D4
  8
COLOR_F9FBFFFF
 10
0.6949607585542149
 20
0.9820516859211327
 30
0.0
 11
0.7055643687027553
 21
0.9875409652958473
 31
0.0
  0
LINE
  5
2D5
  8
COLOR_F9FBFFFF
 10
0.6847961970728942
 20
0.9759824163237627
 30
0.0
 11
0.6949607585542149
 21
0.9820516859211327
 31
0.0
  0
LINE
  5
2D6
  8
COLOR_F9FBFFFF
 10
0.675077828714706
 20
0.9693613703946333
 30
0.0
 11
0.6847961970728942
 21
0.9759824163237627
 31
0.0
  0
LINE
  5
2D7
  8
COLOR_F9FBFFFF
 10
0.6658127979355644
 20
0.9622167620246386
 30
0.0
 11
0.675077828714706
 21
0.9693613703946333
 31
0.0
  0
LINE
  5
2D8
  8
COLOR_F9FBFFFF
 10
0.6570082491913826
 20
0.9545768051046746
 30
0.0
 11
0.6658127979355644
 21
0.9622167620246386
 31
0.0
  0
LINE
  5
2D9
  8
COLOR_F9FBFFFF
 10
0.6486713269380739
 20
0.9464697135256359
 30
0.0
 11
0.6570082491913826
 21
0.9545768051046746
 31
0.0
  0
LINE
  5
2DA
  8
COLOR_F9FBFFFF
 10
0.6408091756315518
 20
0.937923701178418
 30
0.0
 11
0.6486713269380739
 21
0.9464697135256359
 31
0.0
  0
LINE
  5
2DB
  8
COLOR_F9FBFFFF
 10
0.6334289397277301
 20
0.9289669819539154
 30
0.0
 11
0.6408091756315518
 21
0.937923701178418
 31
0.0
  0
LINE
  5
2DC
  8
COLOR_F9FBFFFF
 10
0.6265377636825215
 20
0.9196277697430237
 30
0.0
 11
0.6334289397277301
 21
0.9289669819539154
 31
0.0
  0
LINE
  5
2DD
  8
COLOR_F9FBFFFF
 10
0.6201427919518402
 20
0.9099342784366379
 30
0.0
 11
0.6265377636825215
 21
0.9196277697430237
 31
0.0
  0
LINE
  5
2DE
  8
COLOR_F9FBFFFF
 10
0.6142511689915989
 20
0.8999147219256531
 30
0.0
 11
0.6201427919518402
 21
0.9099342784366379
 31
0.0
  0
LINE
  5
2DF
  8
COLOR_F9FBFFFF
 10
0.6088700392577117
 20
0.8895973141009644
 30
0.0
 11
0.6142511689915989
 21
0.8999147219256531
 31
0.0
  0
LINE
  5
2E0
  8
COLOR_F9FBFFFF
 10
0.6040065472060918
 20
0.8790102688534673
 30
0.0
 11
0.6088700392577117
 21
0.8895973141009644
 31
0.0
  0
LINE
  5
2E1
  8
COLOR_F9FBFFFF
 10
0.5996678372926524
 20
0.8681818000740562
 30
0.0
 11
0.6040065472060918
 21
0.8790102688534673
 31
0.0
  0
LINE
  5
2E2
  8
COLOR_F9FBFFFF
 10
0.5958610539733071
 20
0.8571401216536267
 30
0.0
 11
0.5996678372926524
 21
0.8681818000740562
 31
0.0
  0
LINE
  5
2E3
  8
COLOR_F9FBFFFF
 10
0.5925933417039694
 20
0.8459134474830736
 30
0.0
 11
0.5958610539733071
 21
0.8571401216536267
 31
0.0
  0
LINE
  5
2E4
  8
COLOR_F9FBFFFF
 10
0.5898718449405524
 20
0.8345299914532925
 30
0.0
 11
0.5925933417039694
 21
0.8459134474830736
 31
0.0
  0
LINE
  5
2E5
  8
COLOR_F9FBFFFF
 10
0.5877037081389701
 20
0.8230179674551782
 30
0.0
 11
0.5898718449405524
 21
0.8345299914532925
 31
0.0
  0
LINE
  5
2E6
  8
COLOR_F9FBFFFF
 10
0.5860960757551356
 20
0.8114055893796256
 30
0.0
 11
0.5877037081389701
 21
0.8230179674551782
 31
0.0
  0
LINE
  5
2E7
  8
COLOR_F9FBFFFF
 10
0.5850560922449622
 20
0.7997210711175303
 30
0.0
 11
0.5860960757551356
 21
0.8114055893796256
 31
0.0
  0
LINE
  5
2E8
  8
COLOR_F9FBFFFF
 10
0.5845909020643635
 20
0.7879926265597873
 30
0.0
 11
0.5850560922449622
 21
0.7997210711175303
 31
0.0
  0
LINE
  5
2E9
  8
COLOR_F9FBFFFF
 10
0.5847076496692533
 20
0.776248469597291
 30
0.0
 11
0.5845909020643635
 21
0.7879926265597873
 31
0.0
  0
LINE
  5
2EA
  8
COLOR_F9FBFFFF
 10
0.5854134795155443
 20
0.7645168141209377
 30
0.0
 11
0.5847076496692533
 21
0.776248469597291
 31
0.0
  0
LINE
  5
2EB
  8
COLOR_F9FBFFFF
 10
0.5867155360591503
 20
0.7528258740216219
 30
0.0
 11
0.5854134795155443
 21
0.7645168141209377
 31
0.0
  0
LINE
  5
2EC
  8
COLOR_F9FBFFFF
 10
0.5886209637559849
 20
0.7412038631902382
 30
0.0
 11
0.5867155360591503
 21
0.7528258740216219
 31
0.0
  0
LINE
  5
2ED
  8
COLOR_F9FBFFFF
 10
0.5911369070619611
 20
0.7296789955176827
 30
0.0
 11
0.5886209637559849
 21
0.7412038631902382
 31
0.0
  0
LINE
  5
2EE
  8
COLOR_F9FBFFFF
 10
0.594270510432993
 20
0.7182794848948496
 30
0.0
 11
0.5911369070619611
 21
0.7296789955176827
 31
0.0
  0
LINE
  5
2EF
  8
COLOR_F9FBFFFF
 10
0.5980289183249932
 20
0.7070335452126351
 30
0.0
 11
0.594270510432993
 21
0.7182794848948496
 31
0.0
  0
LINE
  5
2F0
  8
COLOR_F9FBFFFF
 10
0.609269202723389
 20
0.6838975189190865
 30
0.0
 11
0.5980289183249932
 21
0.7070335452126351
 31
0.0
  0
LINE
  5
2F1
  8
COLOR_F9FBFFFF
 10
0.6735794342124704
 20
0.6102192535251744
 30
0.0
 11
0.609269202723389
 21
0.6838975189190865
 31
0.0
  0
LINE
  5
2F2
  8
COLOR_F9FBFFFF
 10
0.7184705245874732
 20
0.6716555481988755
 30
0.0
 11
0.6735794342124704
 21
0.6102192535251744
 31
0.0
  0
LINE
  5
2F3
  8
COLOR_F9FBFFFF
 10
0.7099673605750464
 20
0.6856104201303054
 30
0.0
 11
0.7184705245874732
 21
0.6716555481988755
 31
0.0
  0
LINE
  5
2F4
  8
COLOR_F9FBFFFF
 10
0.697437364410658
 20
0.7048937308646809
 30
0.0
 11
0.7099673605750464
 21
0.6856104201303054
 31
0.0
  0
LINE
  5
2F5
  8
COLOR_F9FBFFFF
 10
0.684355636092207
 20
0.7306422592588174
 30
0.0
 11
0.697437364410658
 21
0.7048937308646809
 31
0.0
  0
LINE
  5
2F6
  8
COLOR_F9FBFFFF
 10
0.6764967340610699
 20
0.7522533361408983
 30
0.0
 11
0.684355636092207
 21
0.7306422592588174
 31
0.0
  0
LINE
  5
2F7
  8
COLOR_F9FBFFFF
 10
0.6724147791680078
 20
0.7688888327305783
 30
0.0
 11
0.6764967340610699
 21
0.7522533361408983
 31
0.0
  0
LINE
  5
2F8
  8
COLOR_F9FBFFFF
 10
0.6700945675293696
 20
0.785773853637815
 30
0.0
 11
0.6724147791680078
 21
0.7688888327305783
 31
0.0
  0
LINE
  5
2F9
  8
COLOR_F9FBFFFF
 10
0.6696191328798284
 20
0.7971173199209124
 30
0.0
 11
0.6700945675293696
 21
0.785773853637815
 31
0.0
  0
LINE
  5
2FA
  8
COLOR_F9FBFFFF
 10
0.6700656355178933
 20
0.8084939274868139
 30
0.0
 11
0.6696191328798284
 21
0.7971173199209124
 31
0.0
  0
LINE
  5
2FB
  8
COLOR_F9FBFFFF
 10
0.67148965155782
 20
0.8198725729699646
 30
0.0
 11
0.6700656355178933
 21
0.8084939274868139
 31
0.0
  0
LINE
  5
2FC
  8
COLOR_F9FBFFFF
 10
0.6739467571138651
 20
0.8312221530048092
 30
0.0
 11
0.67148965155782
 21
0.8198725729699646
 31
0.0
  0
LINE
  5
2FD
  8
COLOR_F9FBFFFF
 10
0.6774925283002838
 20
0.8425115642257925
 30
0.0
 11
0.6739467571138651
 21
0.8312221530048092
 31
0.0
  0
LINE
  5
2FE
  8
COLOR_F9FBFFFF
 10
0.7723009601372497
 20
0.7692712518332263
 30
0.0
 11
0.6774925283002838
 21
0.8425115642257925
 31
0.0
  0
LINE
  5
2FF
  8
COLOR_F9FBFFFF
 10
0.8121566497123911
 20
0.7988931631351286
 30
0.0
 11
0.7723009601372498
 21
0.7692712518332264
 31
0.0
  0
LINE
  5
300
  8
COLOR_F9FBFFFF
 10
0.9098142018030791
 20
1.009657551254839
 30
0.0
 11
0.9036379368856507
 21
0.9421347374927763
 31
0.0
  0
LINE
  5
301
  8
COLOR_F9FBFFFF
 10
0.9019418880325887
 20
1.178662020776575
 30
0.0
 11
0.8975253575944053
 21
1.189348521478301
 31
0.0
  0
LINE
  5
302
  8
COLOR_F9FBFFFF
 10
0.9053633698687172
 20
1.167821970321674
 30
0.0
 11
0.9019418880325887
 21
1.178662020776575
 31
0.0
  0
LINE
  5
303
  8
COLOR_F9FBFFFF
 10
0.9078087029988239
 20
1.156876233763096
 30
0.0
 11
0.9053633698687172
 21
1.167821970321674
 31
0.0
  0
LINE
  5
304
  8
COLOR_F9FBFFFF
 10
0.9092967873189394
 20
1.145872674750338
 30
0.0
 11
0.9078087029988239
 21
1.156876233763096
 31
0.0
  0
LINE
  5
305
  8
COLOR_F9FBFFFF
 10
0.9098465227250958
 20
1.134859156932896
 30
0.0
 11
0.9092967873189394
 21
1.145872674750338
 31
0.0
  0
LINE
  5
306
  8
COLOR_F9FBFFFF
 10
0.9094768091133252
 20
1.123883543960267
 30
0.0
 11
0.9098465227250958
 21
1.134859156932896
 31
0.0
  0
LINE
  5
307
  8
COLOR_F9FBFFFF
 10
0.9082065463796588
 20
1.112993699481948
 30
0.0
 11
0.9094768091133252
 21
1.123883543960267
 31
0.0
  0
LINE
  5
308
  8
COLOR_F9FBFFFF
 10
0.9060546344201287
 20
1.102237487147437
 30
0.0
 11
0.9082065463796588
 21
1.112993699481948
 31
0.0
  0
LINE
  5
309
  8
COLOR_F9FBFFFF
 10
0.9012150177049089
 20
1.086458430648581
 30
0.0
 11
0.9060546344201287
 21
1.102237487147437
 31
0.0
  0
LINE
  5
30A
  8
COLOR_F9FBFFFF
 10
0.8944980021466744
 20
1.07124927950171
 30
0.0
 11
0.9012150177049089
 21
1.086458430648581
 31
0.0
  0
LINE
  5
30B
  8
COLOR_F9FBFFFF
 10
0.8859673748945325
 20
1.056771573523876
 30
0.0
 11
0.8944980021466744
 21
1.07124927950171
 31
0.0
  0
LINE
  5
30C
  8
COLOR_F9FBFFFF
 10
0.8756869230975907
 20
1.04318685253213
 30
0.0
 11
0.8859673748945325
 21
1.056771573523876
 31
0.0
  0
LINE
  5
30D
  8
COLOR_F9FBFFFF
 10
0.8718822808724507
 20
1.038884973771774
 30
0.0
 11
0.8756869230975907
 21
1.04318685253213
 31
0.0
  0
LINE
  5
30E
  8
COLOR_F9FBFFFF
 10
0.8643084438967616
 20
0.9842378522105729
 30
0.0
 11
0.8718822808724507
 21
1.038884973771774
 31
0.0
  0
LINE
  5
30F
  8
COLOR_F9FBFFFF
 10
0.8590289741758286
 20
0.9708616190613193
 30
0.0
 11
0.8643084438967616
 21
0.9842378522105729
 31
0.0
  0
LINE
  5
310
  8
COLOR_F9FBFFFF
 10
0.8533925639726024
 20
0.9619256495187867
 30
0.0
 11
0.8590289741758286
 21
0.9708616190613193
 31
0.0
  0
LINE
  5
311
  8
COLOR_F9FBFFFF
 10
0.8486852929393539
 20
0.9566394896207144
 30
0.0
 11
0.8533925639726024
 21
0.9619256495187867
 31
0.0
  0
LINE
  5
312
  8
COLOR_F9FBFFFF
 10
0.8431242203070702
 20
0.9519830570429236
 30
0.0
 11
0.8486852929393539
 21
0.9566394896207144
 31
0.0
  0
LINE
  5
313
  8
COLOR_F9FBFFFF
 10
0.8366287144636174
 20
0.9480358987706046
 30
0.0
 11
0.8431242203070702
 21
0.9519830570429236
 31
0.0
  0
LINE
  5
314
  8
COLOR_F9FBFFFF
 10
0.8330053517089105
 20
0.9463531559318688
 30
0.0
 11
0.8366287144636174
 21
0.9480358987706046
 31
0.0
  0
LINE
  5
315
  8
COLOR_F9FBFFFF
 10
0.7840671615449096
 20
0.9362564876786931
 30
0.0
 11
0.8330053517089105
 21
0.9463531559318688
 31
0.0
  0
LINE
  5
316
  8
COLOR_F9FBFFFF
 10
0.7718600914632826
 20
0.9373592165914615
 30
0.0
 11
0.7840671615449096
 21
0.9362564876786931
 31
0.0
  0
LINE
  5
317
  8
COLOR_F9FBFFFF
 10
0.7632824557485883
 20
0.9399028645447384
 30
0.0
 11
0.7718600914632826
 21
0.9373592165914615
 31
0.0
  0
LINE
  5
318
  8
COLOR_F9FBFFFF
 10
0.7579454071684208
 20
0.9425585200923676
 30
0.0
 11
0.7632824557485883
 21
0.9399028645447384
 31
0.0
  0
LINE
  5
319
  8
COLOR_F9FBFFFF
 10
0.7529795983677176
 20
0.946070730279829
 30
0.0
 11
0.7579454071684208
 21
0.9425585200923676
 31
0.0
  0
LINE
  5
31A
  8
COLOR_F9FBFFFF
 10
0.7484417204285592
 20
0.9505154743443877
 30
0.0
 11
0.7529795983677176
 21
0.946070730279829
 31
0.0
  0
LINE
  5
31B
  8
COLOR_F9FBFFFF
 10
0.8143778591594659
 20
0.9643659448712509
 30
0.0
 11
0.7484417204285592
 21
0.9505154743443877
 31
0.0
  0
LINE
  5
31C
  8
COLOR_F9FBFFFF
 10
0.8262358086820322
 20
0.9700058562185975
 30
0.0
 11
0.8143778591594659
 21
0.9643659448712509
 31
0.0
  0
LINE
  5
31D
  8
COLOR_F9FBFFFF
 10
0.8342876579827914
 20
0.975883245202105
 30
0.0
 11
0.8262358086820322
 21
0.9700058562185975
 31
0.0
  0
LINE
  5
31E
  8
COLOR_F9FBFFFF
 10
0.8391673556510362
 20
0.9807478615673498
 30
0.0
 11
0.8342876579827914
 21
0.975883245202105
 31
0.0
  0
LINE
  5
31F
  8
COLOR_F9FBFFFF
 10
0.8443662320398618
 20
0.9869566745128322
 30
0.0
 11
0.8391673556510362
 21
0.9807478615673498
 31
0.0
  0
LINE
  5
320
  8
COLOR_F9FBFFFF
 10
0.8488703593088662
 20
0.9960741184451632
 30
0.0
 11
0.8443662320398618
 21
0.9869566745128322
 31
0.0
  0
LINE
  5
321
  8
COLOR_F9FBFFFF
 10
0.8513628958847118
 20
1.047942755165236
 30
0.0
 11
0.8488703593088662
 21
0.9960741184451632
 31
0.0
  0
LINE
  5
322
  8
COLOR_F9FBFFFF
 10
0.8516820022990161
 20
1.052990247922035
 30
0.0
 11
0.8513628958847118
 21
1.047942755165236
 31
0.0
  0
LINE
  5
323
  8
COLOR_F9FBFFFF
 10
0.8930684900710381
 20
1.100771079799716
 30
0.0
 11
0.8516820022990161
 21
1.052990247922035
 31
0.0
  0
LINE
  5
324
  8
COLOR_F9FBFFFF
 10
0.8847833203230473
 20
1.17261340076718
 30
0.0
 11
0.8930684900710381
 21
1.100771079799716
 31
0.0
  0
LINE
  5
325
  8
COLOR_F9FBFFFF
 10
0.877487004075925
 20
1.189027368912885
 30
0.0
 11
0.8847833203230473
 21
1.17261340076718
 31
0.0
  0
LINE
  5
326
  8
COLOR_F9FBFFFF
 10
0.8690848871304829
 20
1.201140305383094
 30
0.0
 11
0.877487004075925
 21
1.189027368912885
 31
0.0
  0
LINE
  5
327
  8
COLOR_F9FBFFFF
 10
0.8618087667330011
 20
1.210665297235503
 30
0.0
 11
0.8690848871304829
 21
1.201140305383094
 31
0.0
  0
LINE
  5
328
  8
COLOR_F9FBFFFF
 10
0.853848039420765
 20
1.219348795180004
 30
0.0
 11
0.8618087667330011
 21
1.210665297235503
 31
0.0
  0
LINE
  5
329
  8
COLOR_F9FBFFFF
 10
0.8452635416284663
 20
1.227237742448303
 30
0.0
 11
0.853848039420765
 21
1.219348795180004
 31
0.0
  0
LINE
  5
32A
  8
COLOR_F9FBFFFF
 10
0.8361161097907948
 20
1.234379082272109
 30
0.0
 11
0.8452635416284663
 21
1.227237742448303
 31
0.0
  0
LINE
  5
32B
  8
COLOR_F9FBFFFF
 10
0.8214725404001001
 20
1.24379201636875
 30
0.0
 11
0.8361161097907948
 21
1.234379082272109
 31
0.0
  0
LINE
  5
32C
  8
COLOR_F9FBFFFF
 10
0.8005453187774841
 20
1.254164105937808
 30
0.0
 11
0.8214725404001001
 21
1.24379201636875
 31
0.0
  0
LINE
  5
32D
  8
COLOR_F9FBFFFF
 10
0.7614321941706882
 20
1.267378684056299
 30
0.0
 11
0.8005453187774841
 21
1.254164105937808
 31
0.0
  0
LINE
  5
32E
  8
COLOR_F9FBFFFF
 10
0.7213850981077722
 20
1.276035507687019
 30
0.0
 11
0.7614321941706882
 21
1.267378684056299
 31
0.0
  0
LINE
  5
330
  8
COLOR_599D99FF
 10
0.7161667916848572
 20
0.5521775416218095
 30
0.0
 11
0.7335850995067642
 21
0.5703755244114603
 31
0.0
  0
LINE
  5
331
  8
COLOR_599D99FF
 10
0.7330635099614103
 20
0.5467325466728197
 30
0.0
 11
0.716166791684857
 21
0.5521775416218101
 31
0.0
  0
LINE
  5
332
  8
COLOR_599D99FF
 10
0.7336237808937334
 20
0.5417166608852723
 30
0.0
 11
0.7330635099614103
 21
0.5467325466728197
 31
0.0
  0
LINE
  5
333
  8
COLOR_599D99FF
 10
0.7341018681703158
 20
0.5267980551762598
 30
0.0
 11
0.7336237808937334
 21
0.5417166608852723
 31
0.0
  0
LINE
  5
334
  8
COLOR_599D99FF
 10
0.7323429468601321
 20
0.5071675034744687
 30
0.0
 11
0.7341018681703158
 21
0.5267980551762598
 31
0.0
  0
LINE
  5
335
  8
COLOR_599D99FF
 10
0.705082151128546
 20
0.4063614150033019
 30
0.0
 11
0.7323429468601321
 21
0.5071675034744687
 31
0.0
  0
LINE
  5
336
  8
COLOR_599D99FF
 10
0.7278799561038303
 20
0.4100081136083171
 30
0.0
 11
0.705082151128546
 21
0.4063614150033019
 31
0.0
  0
LINE
  5
337
  8
COLOR_599D99FF
 10
0.7677883228161368
 20
0.5548054239445891
 30
0.0
 11
0.7278799561038303
 21
0.4100081136083171
 31
0.0
  0
LINE
  5
338
  8
COLOR_599D99FF
 10
0.7335850995067642
 20
0.5703755244114603
 30
0.0
 11
0.7677883228161368
 21
0.5548054239445891
 31
0.0
  0
LINE
  5
339
  8
COLOR_599D99FF
 10
0.7266720265223561
 20
0.6982578754338977
 30
0.0
 11
0.7099673605750464
 21
0.6856104201303054
 31
0.0
  0
LINE
  5
33A
  8
COLOR_599D99FF
 10
0.7054171779106173
 20
0.733747065097178
 30
0.0
 11
0.7266720265223561
 21
0.6982578754338977
 31
0.0
  0
LINE
  5
33B
  8
COLOR_599D99FF
 10
0.6877533311221541
 20
0.7986307226359933
 30
0.0
 11
0.7054171779106173
 21
0.733747065097178
 31
0.0
  0
LINE
  5
33C
  8
COLOR_599D99FF
 10
0.765776103962296
 20
0.7524548031056053
 30
0.0
 11
0.6877533311221541
 21
0.7986307226359933
 31
0.0
  0
LINE
  5
33D
  8
COLOR_599D99FF
 10
0.7723009601372497
 20
0.7692712518332263
 30
0.0
 11
0.765776103962296
 21
0.7524548031056053
 31
0.0
  0
LINE
  5
33E
  8
COLOR_599D99FF
 10
0.6774925283002838
 20
0.8425115642257925
 30
0.0
 11
0.7723009601372497
 21
0.7692712518332263
 31
0.0
  0
LINE
  5
33F
  8
COLOR_599D99FF
 10
0.6739467571138651
 20
0.8312221530048092
 30
0.0
 11
0.6774925283002838
 21
0.8425115642257925
 31
0.0
  0
LINE
  5
340
  8
COLOR_599D99FF
 10
0.67148965155782
 20
0.8198725729699646
 30
0.0
 11
0.6739467571138651
 21
0.8312221530048092
 31
0.0
  0
LINE
  5
341
  8
COLOR_599D99FF
 10
0.6700656355178933
 20
0.8084939274868139
 30
0.0
 11
0.67148965155782
 21
0.8198725729699646
 31
0.0
  0
LINE
  5
342
  8
COLOR_599D99FF
 10
0.6696191328798284
 20
0.7971173199209124
 30
0.0
 11
0.6700656355178933
 21
0.8084939274868139
 31
0.0
  0
LINE
  5
343
  8
COLOR_599D99FF
 10
0.6700945675293696
 20
0.785773853637815
 30
0.0
 11
0.6696191328798284
 21
0.7971173199209124
 31
0.0
  0
LINE
  5
344
  8
COLOR_599D99FF
 10
0.6724147791680078
 20
0.7688888327305783
 30
0.0
 11
0.6700945675293696
 21
0.785773853637815
 31
0.0
  0
LINE
  5
345
  8
COLOR_599D99FF
 10
0.6764967340610699
 20
0.7522533361408983
 30
0.0
 11
0.6724147791680078
 21
0.7688888327305783
 31
0.0
  0
LINE
  5
346
  8
COLOR_599D99FF
 10
0.684355636092207
 20
0.7306422592588174
 30
0.0
 11
0.6764967340610699
 21
0.7522533361408983
 31
0.0
  0
LINE
  5
347
  8
COLOR_599D99FF
 10
0.697437364410658
 20
0.7048937308646809
 30
0.0
 11
0.684355636092207
 21
0.7306422592588174
 31
0.0
  0
LINE
  5
348
  8
COLOR_599D99FF
 10
0.7099673605750464
 20
0.6856104201303054
 30
0.0
 11
0.697437364410658
 21
0.7048937308646809
 31
0.0
  0
LINE
  5
349
  8
COLOR_599D99FF
 10
0.4316031190896584
 20
0.9714434317663422
 30
0.0
 11
0.459436318234218
 21
1.033238608649084
 31
0.0
  0
LINE
  5
34A
  8
COLOR_599D99FF
 10
0.4551167514809421
 20
0.9864165204954176
 30
0.0
 11
0.4316031190896584
 21
0.9714434317663422
 31
0.0
  0
LINE
  5
34B
  8
COLOR_599D99FF
 10
0.5375067386492607
 20
1.04235001013152
 30
0.0
 11
0.4551167514809421
 21
0.9864165204954176
 31
0.0
  0
LINE
  5
34C
  8
COLOR_599D99FF
 10
0.5563743415140788
 20
1.051857129015153
 30
0.0
 11
0.5375067386492607
 21
1.04235001013152
 31
0.0
  0
LINE
  5
34D
  8
COLOR_599D99FF
 10
0.5694023177456398
 20
1.057142828048461
 30
0.0
 11
0.5563743415140788
 21
1.051857129015153
 31
0.0
  0
LINE
  5
34E
  8
COLOR_599D99FF
 10
0.5828523812073657
 20
1.061419691455533
 30
0.0
 11
0.5694023177456398
 21
1.057142828048461
 31
0.0
  0
LINE
  5
34F
  8
COLOR_599D99FF
 10
0.5897524173744032
 20
1.063135096018442
 30
0.0
 11
0.5828523812073657
 21
1.061419691455533
 31
0.0
  0
LINE
  5
350
  8
COLOR_599D99FF
 10
0.5967780414188169
 20
1.064544635137845
 30
0.0
 11
0.5897524173744032
 21
1.063135096018442
 31
0.0
  0
LINE
  5
351
  8
COLOR_599D99FF
 10
0.6039359420305519
 20
1.065630423301428
 30
0.0
 11
0.5967780414188169
 21
1.064544635137845
 31
0.0
  0
LINE
  5
352
  8
COLOR_599D99FF
 10
0.6112328078995529
 20
1.066374574996874
 30
0.0
 11
0.6039359420305519
 21
1.065630423301428
 31
0.0
  0
LINE
  5
353
  8
COLOR_599D99FF
 10
0.622952131364553
 20
1.067098191489009
 30
0.0
 11
0.6112328078995529
 21
1.066374574996874
 31
0.0
  0
LINE
  5
354
  8
COLOR_599D99FF
 10
0.6436210785797384
 20
1.065610824933561
 30
0.0
 11
0.622952131364553
 21
1.067098191489009
 31
0.0
  0
LINE
  5
355
  8
COLOR_599D99FF
 10
0.6599460115411552
 20
1.061720679673902
 30
0.0
 11
0.6436210785797384
 21
1.065610824933561
 31
0.0
  0
LINE
  5
356
  8
COLOR_599D99FF
 10
0.6713476597269333
 20
1.057066808583533
 30
0.0
 11
0.6599460115411552
 21
1.061720679673902
 31
0.0
  0
LINE
  5
357
  8
COLOR_599D99FF
 10
0.6782908457402844
 20
1.053079895238455
 30
0.0
 11
0.6713476597269333
 21
1.057066808583533
 31
0.0
  0
LINE
  5
358
  8
COLOR_599D99FF
 10
0.6845478303328583
 20
1.048349712435134
 30
0.0
 11
0.6782908457402844
 21
1.053079895238455
 31
0.0
  0
LINE
  5
359
  8
COLOR_599D99FF
 10
0.6899815810483334
 20
1.042845571576104
 30
0.0
 11
0.6845478303328583
 21
1.048349712435134
 31
0.0
  0
LINE
  5
35A
  8
COLOR_599D99FF
 10
0.692346921059558
 20
1.039793676688989
 30
0.0
 11
0.6899815810483334
 21
1.042845571576104
 31
0.0
  0
LINE
  5
35B
  8
COLOR_599D99FF
 10
0.6944550654303877
 20
1.036536784063897
 30
0.0
 11
0.692346921059558
 21
1.039793676688989
 31
0.0
  0
LINE
  5
35C
  8
COLOR_599D99FF
 10
0.6962888851037811
 20
1.033071057626145
 30
0.0
 11
0.6944550654303877
 21
1.036536784063897
 31
0.0
  0
LINE
  5
35D
  8
COLOR_599D99FF
 10
0.6978312510226984
 20
1.02939266130105
 30
0.0
 11
0.6962888851037811
 21
1.033071057626145
 31
0.0
  0
LINE
  5
35E
  8
COLOR_599D99FF
 10
0.6990650341301
 20
1.025497759013926
 30
0.0
 11
0.6978312510226984
 21
1.02939266130105
 31
0.0
  0
LINE
  5
35F
  8
COLOR_599D99FF
 10
0.6999731053689445
 20
1.021382514690093
 30
0.0
 11
0.6990650341301
 21
1.025497759013926
 31
0.0
  0
LINE
  5
360
  8
COLOR_599D99FF
 10
0.7005383356821927
 20
1.017043092254866
 30
0.0
 11
0.6999731053689445
 21
1.021382514690093
 31
0.0
  0
LINE
  5
361
  8
COLOR_599D99FF
 10
0.7007435960128032
 20
1.012475655633562
 30
0.0
 11
0.7005383356821927
 21
1.017043092254866
 31
0.0
  0
LINE
  5
362
  8
COLOR_599D99FF
 10
0.6885891085357222
 20
1.005732621025472
 30
0.0
 11
0.7007435960128032
 21
1.012475655633562
 31
0.0
  0
LINE
  5
363
  8
COLOR_599D99FF
 10
0.6769392817827654
 20
0.9983521778801098
 30
0.0
 11
0.6885891085357222
 21
1.005732621025472
 31
0.0
  0
LINE
  5
364
  8
COLOR_599D99FF
 10
0.6658037841683268
 20
0.9903658481431638
 30
0.0
 11
0.6769392817827654
 21
0.9983521778801098
 31
0.0
  0
LINE
  5
365
  8
COLOR_599D99FF
 10
0.6551922841067986
 20
0.9818051537603236
 30
0.0
 11
0.6658037841683268
 21
0.9903658481431638
 31
0.0
  0
LINE
  5
366
  8
COLOR_599D99FF
 10
0.6451144500125751
 20
0.9727016166772785
 30
0.0
 11
0.6551922841067986
 21
0.9818051537603236
 31
0.0
  0
LINE
  5
367
  8
COLOR_599D99FF
 10
0.6355799503000488
 20
0.9630867588397182
 30
0.0
 11
0.6451144500125751
 21
0.9727016166772785
 31
0.0
  0
LINE
  5
368
  8
COLOR_599D99FF
 10
0.6265984533836129
 20
0.9529921021933322
 30
0.0
 11
0.6355799503000488
 21
0.9630867588397182
 31
0.0
  0
LINE
  5
369
  8
COLOR_599D99FF
 10
0.6181796276776608
 20
0.9424491686838097
 30
0.0
 11
0.6265984533836129
 21
0.9529921021933322
 31
0.0
  0
LINE
  5
36A
  8
COLOR_599D99FF
 10
0.6103331415965857
 20
0.9314894802568404
 30
0.0
 11
0.6181796276776608
 21
0.9424491686838097
 31
0.0
  0
LINE
  5
36B
  8
COLOR_599D99FF
 10
0.6030686635547808
 20
0.920144558858114
 30
0.0
 11
0.6103331415965857
 21
0.9314894802568404
 31
0.0
  0
LINE
  5
36C
  8
COLOR_599D99FF
 10
0.5963958619666393
 20
0.908445926433319
 30
0.0
 11
0.6030686635547808
 21
0.920144558858114
 31
0.0
  0
LINE
  5
36D
  8
COLOR_599D99FF
 10
0.5903244052465544
 20
0.896425104928146
 30
0.0
 11
0.5963958619666393
 21
0.908445926433319
 31
0.0
  0
LINE
  5
36E
  8
COLOR_599D99FF
 10
0.5848639618089193
 20
0.8841136162882839
 30
0.0
 11
0.5903244052465544
 21
0.896425104928146
 31
0.0
  0
LINE
  5
36F
  8
COLOR_599D99FF
 10
0.5800242000681272
 20
0.8715429824594219
 30
0.0
 11
0.5848639618089193
 21
0.8841136162882839
 31
0.0
  0
LINE
  5
370
  8
COLOR_599D99FF
 10
0.5758147884385713
 20
0.8587447253872499
 30
0.0
 11
0.5800242000681272
 21
0.8715429824594219
 31
0.0
  0
LINE
  5
371
  8
COLOR_599D99FF
 10
0.5722453953346448
 20
0.8457503670174574
 30
0.0
 11
0.5758147884385713
 21
0.8587447253872499
 31
0.0
  0
LINE
  5
372
  8
COLOR_599D99FF
 10
0.569325689170741
 20
0.8325914292957333
 30
0.0
 11
0.5722453953346448
 21
0.8457503670174574
 31
0.0
  0
LINE
  5
373
  8
COLOR_599D99FF
 10
0.5670653383612527
 20
0.8192994341677678
 30
0.0
 11
0.569325689170741
 21
0.8325914292957333
 31
0.0
  0
LINE
  5
374
  8
COLOR_599D99FF
 10
0.5654740113205737
 20
0.80590590357925
 30
0.0
 11
0.5670653383612527
 21
0.8192994341677678
 31
0.0
  0
LINE
  5
375
  8
COLOR_599D99FF
 10
0.5645613764630971
 20
0.7924423594758692
 30
0.0
 11
0.5654740113205737
 21
0.80590590357925
 31
0.0
  0
LINE
  5
376
  8
COLOR_599D99FF
 10
0.5643371022032156
 20
0.7789403238033152
 30
0.0
 11
0.5645613764630971
 21
0.7924423594758692
 31
0.0
  0
LINE
  5
377
  8
COLOR_599D99FF
 10
0.5648108569553228
 20
0.7654313185072773
 30
0.0
 11
0.5643371022032156
 21
0.7789403238033152
 31
0.0
  0
LINE
  5
378
  8
COLOR_599D99FF
 10
0.5659923091338122
 20
0.7519468655334447
 30
0.0
 11
0.5648108569553228
 21
0.7654313185072773
 31
0.0
  0
LINE
  5
379
  8
COLOR_599D99FF
 10
0.5678911271530762
 20
0.7385184868275071
 30
0.0
 11
0.5659923091338122
 21
0.7519468655334447
 31
0.0
  0
LINE
  5
37A
  8
COLOR_599D99FF
 10
0.5705169794275085
 20
0.7251777043351542
 30
0.0
 11
0.5678911271530762
 21
0.7385184868275071
 31
0.0
  0
LINE
  5
37B
  8
COLOR_599D99FF
 10
0.5738795343715025
 20
0.7119560400020749
 30
0.0
 11
0.5705169794275085
 21
0.7251777043351542
 31
0.0
  0
LINE
  5
37C
  8
COLOR_599D99FF
 10
0.577988460399451
 20
0.6988850157739592
 30
0.0
 11
0.5738795343715025
 21
0.7119560400020749
 31
0.0
  0
LINE
  5
37D
  8
COLOR_599D99FF
 10
0.5828534259257475
 20
0.6859961535964962
 30
0.0
 11
0.577988460399451
 21
0.6988850157739592
 31
0.0
  0
LINE
  5
37E
  8
COLOR_599D99FF
 10
0.5884840993647849
 20
0.6733209754153756
 30
0.0
 11
0.5828534259257475
 21
0.6859961535964962
 31
0.0
  0
LINE
  5
37F
  8
COLOR_599D99FF
 10
0.594270510432993
 20
0.7182794848948496
 30
0.0
 11
0.5980289183249932
 21
0.7070335452126351
 31
0.0
  0
LINE
  5
380
  8
COLOR_599D99FF
 10
0.5911369070619611
 20
0.7296789955176827
 30
0.0
 11
0.594270510432993
 21
0.7182794848948496
 31
0.0
  0
LINE
  5
381
  8
COLOR_599D99FF
 10
0.5886209637559849
 20
0.7412038631902382
 30
0.0
 11
0.5911369070619611
 21
0.7296789955176827
 31
0.0
  0
LINE
  5
382
  8
COLOR_599D99FF
 10
0.5867155360591503
 20
0.7528258740216219
 30
0.0
 11
0.5886209637559849
 21
0.7412038631902382
 31
0.0
  0
LINE
  5
383
  8
COLOR_599D99FF
 10
0.5854134795155443
 20
0.7645168141209377
 30
0.0
 11
0.5867155360591503
 21
0.7528258740216219
 31
0.0
  0
LINE
  5
384
  8
COLOR_599D99FF
 10
0.5847076496692533
 20
0.776248469597291
 30
0.0
 11
0.5854134795155443
 21
0.7645168141209377
 31
0.0
  0
LINE
  5
385
  8
COLOR_599D99FF
 10
0.5845909020643635
 20
0.7879926265597873
 30
0.0
 11
0.5847076496692533
 21
0.776248469597291
 31
0.0
  0
LINE
  5
386
  8
COLOR_599D99FF
 10
0.5850560922449622
 20
0.7997210711175303
 30
0.0
 11
0.5845909020643635
 21
0.7879926265597873
 31
0.0
  0
LINE
  5
387
  8
COLOR_599D99FF
 10
0.5860960757551356
 20
0.8114055893796256
 30
0.0
 11
0.5850560922449622
 21
0.7997210711175303
 31
0.0
  0
LINE
  5
388
  8
COLOR_599D99FF
 10
0.5877037081389701
 20
0.8230179674551782
 30
0.0
 11
0.5860960757551356
 21
0.8114055893796256
 31
0.0
  0
LINE
  5
389
  8
COLOR_599D99FF
 10
0.5898718449405524
 20
0.8345299914532925
 30
0.0
 11
0.5877037081389701
 21
0.8230179674551782
 31
0.0
  0
LINE
  5
38A
  8
COLOR_599D99FF
 10
0.5925933417039694
 20
0.8459134474830736
 30
0.0
 11
0.5898718449405524
 21
0.8345299914532925
 31
0.0
  0
LINE
  5
38B
  8
COLOR_599D99FF
 10
0.5958610539733071
 20
0.8571401216536267
 30
0.0
 11
0.5925933417039694
 21
0.8459134474830736
 31
0.0
  0
LINE
  5
38C
  8
COLOR_599D99FF
 10
0.5996678372926524
 20
0.8681818000740562
 30
0.0
 11
0.5958610539733071
 21
0.8571401216536267
 31
0.0
  0
LINE
  5
38D
  8
COLOR_599D99FF
 10
0.6040065472060918
 20
0.8790102688534673
 30
0.0
 11
0.5996678372926524
 21
0.8681818000740562
 31
0.0
  0
LINE
  5
38E
  8
COLOR_599D99FF
 10
0.6088700392577117
 20
0.8895973141009644
 30
0.0
 11
0.6040065472060918
 21
0.8790102688534673
 31
0.0
  0
LINE
  5
38F
  8
COLOR_599D99FF
 10
0.6142511689915989
 20
0.8999147219256531
 30
0.0
 11
0.6088700392577117
 21
0.8895973141009644
 31
0.0
  0
LINE
  5
390
  8
COLOR_599D99FF
 10
0.6201427919518402
 20
0.9099342784366379
 30
0.0
 11
0.6142511689915989
 21
0.8999147219256531
 31
0.0
  0
LINE
  5
391
  8
COLOR_599D99FF
 10
0.6265377636825215
 20
0.9196277697430237
 30
0.0
 11
0.6201427919518402
 21
0.9099342784366379
 31
0.0
  0
LINE
  5
392
  8
COLOR_599D99FF
 10
0.6334289397277301
 20
0.9289669819539154
 30
0.0
 11
0.6265377636825215
 21
0.9196277697430237
 31
0.0
  0
LINE
  5
393
  8
COLOR_599D99FF
 10
0.6408091756315518
 20
0.937923701178418
 30
0.0
 11
0.6334289397277301
 21
0.9289669819539154
 31
0.0
  0
LINE
  5
394
  8
COLOR_599D99FF
 10
0.6486713269380739
 20
0.9464697135256359
 30
0.0
 11
0.6408091756315518
 21
0.937923701178418
 31
0.0
  0
LINE
  5
395
  8
COLOR_599D99FF
 10
0.6570082491913826
 20
0.9545768051046746
 30
0.0
 11
0.6486713269380739
 21
0.9464697135256359
 31
0.0
  0
LINE
  5
396
  8
COLOR_599D99FF
 10
0.6658127979355644
 20
0.9622167620246386
 30
0.0
 11
0.6570082491913826
 21
0.9545768051046746
 31
0.0
  0
LINE
  5
397
  8
COLOR_599D99FF
 10
0.675077828714706
 20
0.9693613703946333
 30
0.0
 11
0.6658127979355644
 21
0.9622167620246386
 31
0.0
  0
LINE
  5
398
  8
COLOR_599D99FF
 10
0.6847961970728942
 20
0.9759824163237627
 30
0.0
 11
0.675077828714706
 21
0.9693613703946333
 31
0.0
  0
LINE
  5
399
  8
COLOR_599D99FF
 10
0.6949607585542149
 20
0.9820516859211327
 30
0.0
 11
0.6847961970728942
 21
0.9759824163237627
 31
0.0
  0
LINE
  5
39A
  8
COLOR_599D99FF
 10
0.7055643687027553
 20
0.9875409652958473
 30
0.0
 11
0.6949607585542149
 21
0.9820516859211327
 31
0.0
  0
LINE
  5
39B
  8
COLOR_599D99FF
 10
0.7165998830626017
 20
0.9924220405570121
 30
0.0
 11
0.7055643687027553
 21
0.9875409652958473
 31
0.0
  0
LINE
  5
39C
  8
COLOR_599D99FF
 10
0.7209506206297086
 20
1.041937819119211
 30
0.0
 11
0.7165998830626017
 21
0.9924220405570121
 31
0.0
  0
LINE
  5
39D
  8
COLOR_599D99FF
 10
0.7158065171791911
 20
1.04879244866052
 30
0.0
 11
0.7209506206297083
 21
1.04193781911921
 31
0.0
  0
LINE
  5
39E
  8
COLOR_599D99FF
 10
0.7103271933095854
 20
1.055035777325092
 30
0.0
 11
0.7158065171791911
 21
1.04879244866052
 31
0.0
  0
LINE
  5
39F
  8
COLOR_599D99FF
 10
0.7045338377985193
 20
1.060684442270978
 30
0.0
 11
0.7103271933095854
 21
1.055035777325092
 31
0.0
  0
LINE
  5
3A0
  8
COLOR_599D99FF
 10
0.6984476394236196
 20
1.065755080656232
 30
0.0
 11
0.7045338377985193
 21
1.060684442270978
 31
0.0
  0
LINE
  5
3A1
  8
COLOR_599D99FF
 10
0.6920897869625147
 20
1.070264329638905
 30
0.0
 11
0.6984476394236196
 21
1.065755080656232
 31
0.0
  0
LINE
  5
3A2
  8
COLOR_599D99FF
 10
0.6854814691928315
 20
1.074228826377051
 30
0.0
 11
0.6920897869625147
 21
1.070264329638905
 31
0.0
  0
LINE
  5
3A3
  8
COLOR_599D99FF
 10
0.6786438748921972
 20
1.077665208028722
 30
0.0
 11
0.6854814691928315
 21
1.074228826377051
 31
0.0
  0
LINE
  5
3A4
  8
COLOR_599D99FF
 10
0.6715981928382401
 20
1.080590111751971
 30
0.0
 11
0.6786438748921972
 21
1.077665208028722
 31
0.0
  0
LINE
  5
3A5
  8
COLOR_599D99FF
 10
0.664365611808587
 20
1.083020174704851
 30
0.0
 11
0.6715981928382401
 21
1.080590111751971
 31
0.0
  0
LINE
  5
3A6
  8
COLOR_599D99FF
 10
0.6569673205808655
 20
1.084972034045414
 30
0.0
 11
0.664365611808587
 21
1.083020174704851
 31
0.0
  0
LINE
  5
3A7
  8
COLOR_599D99FF
 10
0.6494245079327031
 20
1.086462326931714
 30
0.0
 11
0.6569673205808655
 21
1.084972034045414
 31
0.0
  0
LINE
  5
3A8
  8
COLOR_599D99FF
 10
0.6417583626417277
 20
1.087507690521802
 30
0.0
 11
0.6494245079327031
 21
1.086462326931714
 31
0.0
  0
LINE
  5
3A9
  8
COLOR_599D99FF
 10
0.633990073485566
 20
1.088124761973732
 30
0.0
 11
0.6417583626417277
 21
1.087507690521802
 31
0.0
  0
LINE
  5
3AA
  8
COLOR_599D99FF
 10
0.626140829241846
 20
1.088330178445557
 30
0.0
 11
0.633990073485566
 21
1.088124761973732
 31
0.0
  0
LINE
  5
3AB
  8
COLOR_599D99FF
 10
0.6182318186881951
 20
1.088140577095328
 30
0.0
 11
0.626140829241846
 21
1.088330178445557
 31
0.0
  0
LINE
  5
3AC
  8
COLOR_599D99FF
 10
0.6102842306022407
 20
1.0875725950811
 30
0.0
 11
0.6182318186881951
 21
1.088140577095328
 31
0.0
  0
LINE
  5
3AD
  8
COLOR_599D99FF
 10
0.6023192537616104
 20
1.086642869560923
 30
0.0
 11
0.6102842306022407
 21
1.0875725950811
 31
0.0
  0
LINE
  5
3AE
  8
COLOR_599D99FF
 10
0.5943580769439315
 20
1.085368037692853
 30
0.0
 11
0.6023192537616104
 21
1.086642869560923
 31
0.0
  0
LINE
  5
3AF
  8
COLOR_599D99FF
 10
0.5864218889268317
 20
1.083764736634939
 30
0.0
 11
0.5943580769439315
 21
1.085368037692853
 31
0.0
  0
LINE
  5
3B0
  8
COLOR_599D99FF
 10
0.5707092344048788
 20
1.079639275581798
 30
0.0
 11
0.5864218889268317
 21
1.083764736634939
 31
0.0
  0
LINE
  5
3B1
  8
COLOR_599D99FF
 10
0.5553508004167714
 20
1.074399583665922
 30
0.0
 11
0.5707092344048788
 21
1.079639275581798
 31
0.0
  0
LINE
  5
3B2
  8
COLOR_599D99FF
 10
0.5405160971835296
 20
1.068178758151731
 30
0.0
 11
0.5553508004167714
 21
1.074399583665922
 31
0.0
  0
LINE
  5
3B3
  8
COLOR_599D99FF
 10
0.5263746349261728
 20
1.061109896303649
 30
0.0
 11
0.5405160971835296
 21
1.068178758151731
 31
0.0
  0
LINE
  5
3B4
  8
COLOR_599D99FF
 10
0.5130959238657211
 20
1.053326095386097
 30
0.0
 11
0.5263746349261728
 21
1.061109896303649
 31
0.0
  0
LINE
  5
3B5
  8
COLOR_599D99FF
 10
0.5283549640377072
 20
1.074655819997573
 30
0.0
 11
0.5130959238657211
 21
1.053326095386097
 31
0.0
  0
LINE
  5
3B6
  8
COLOR_599D99FF
 10
0.5198484883526029
 20
1.093688852387988
 30
0.0
 11
0.5283549640377072
 21
1.074655819997573
 31
0.0
  0
LINE
  5
3B7
  8
COLOR_599D99FF
 10
0.459436318234218
 20
1.033238608649084
 30
0.0
 11
0.5198484883526029
 21
1.093688852387988
 31
0.0
  0
LINE
  5
3B8
  8
COLOR_599D99FF
 10
0.5465580774905856
 20
1.158350640404076
 30
0.0
 11
0.5485751495702986
 21
1.159678208998524
 31
0.0
  0
LINE
  5
3B9
  8
COLOR_599D99FF
 10
0.5511626882910958
 20
1.160414661351486
 30
0.0
 11
0.5465580774905856
 21
1.158350640404076
 31
0.0
  0
LINE
  5
3BA
  8
COLOR_599D99FF
 10
0.5485751495702986
 20
1.159678208998524
 30
0.0
 11
0.5511626882910958
 21
1.160414661351486
 31
0.0
  0
LINE
  5
3BB
  8
COLOR_599D99FF
 10
0.5438664178761543
 20
1.254751271510425
 30
0.0
 11
0.5516250279035625
 21
1.280325038119564
 31
0.0
  0
LINE
  5
3BC
  8
COLOR_599D99FF
 10
0.5769290325696176
 20
1.258162604923332
 30
0.0
 11
0.5438664178761543
 21
1.254751271510425
 31
0.0
  0
LINE
  5
3BD
  8
COLOR_599D99FF
 10
0.5950577713869116
 20
1.259810006916229
 30
0.0
 11
0.5769290325696176
 21
1.258162604923332
 31
0.0
  0
LINE
  5
3BE
  8
COLOR_599D99FF
 10
0.6751923450167415
 20
1.262287198144849
 30
0.0
 11
0.5950577713869116
 21
1.259810006916229
 31
0.0
  0
LINE
  5
3BF
  8
COLOR_599D99FF
 10
0.6993531104049393
 20
1.259048195003576
 30
0.0
 11
0.6751923450167415
 21
1.262287198144849
 31
0.0
  0
LINE
  5
3C0
  8
COLOR_599D99FF
 10
0.717008128533497
 20
1.254618240794743
 30
0.0
 11
0.6993531104049393
 21
1.259048195003576
 31
0.0
  0
LINE
  5
3C1
  8
COLOR_599D99FF
 10
0.728489510629173
 20
1.250548287336693
 30
0.0
 11
0.717008128533497
 21
1.254618240794743
 31
0.0
  0
LINE
  5
3C2
  8
COLOR_599D99FF
 10
0.739698339231649
 20
1.245483009055681
 30
0.0
 11
0.728489510629173
 21
1.250548287336693
 31
0.0
  0
LINE
  5
3C3
  8
COLOR_599D99FF
 10
0.7505989147684877
 20
1.239334973693507
 30
0.0
 11
0.739698339231649
 21
1.245483009055681
 31
0.0
  0
LINE
  5
3C4
  8
COLOR_599D99FF
 10
0.7553995988781205
 20
1.236539174417262
 30
0.0
 11
0.7505989147684877
 21
1.239334973693507
 31
0.0
  0
LINE
  5
3C5
  8
COLOR_599D99FF
 10
0.7690730774259869
 20
1.227127978027318
 30
0.0
 11
0.7553995988781205
 21
1.236539174417262
 31
0.0
  0
LINE
  5
3C6
  8
COLOR_599D99FF
 10
0.7815233380757555
 20
1.216293928304486
 30
0.0
 11
0.7690730774259869
 21
1.227127978027318
 31
0.0
  0
LINE
  5
3C7
  8
COLOR_599D99FF
 10
0.7925827786790027
 20
1.204182111045956
 30
0.0
 11
0.7815233380757555
 21
1.216293928304486
 31
0.0
  0
LINE
  5
3C8
  8
COLOR_599D99FF
 10
0.8020837970873059
 20
1.190937612048919
 30
0.0
 11
0.7925827786790027
 21
1.204182111045956
 31
0.0
  0
LINE
  5
3C9
  8
COLOR_599D99FF
 10
0.8074692527581576
 20
1.181550325725645
 30
0.0
 11
0.8020837970873059
 21
1.190937612048919
 31
0.0
  0
LINE
  5
3CA
  8
COLOR_599D99FF
 10
0.8120379266027947
 20
1.17176709625725
 30
0.0
 11
0.8074692527581576
 21
1.181550325725645
 31
0.0
  0
LINE
  5
3CB
  8
COLOR_599D99FF
 10
0.8157401587253882
 20
1.161630912028086
 30
0.0
 11
0.8120379266027947
 21
1.17176709625725
 31
0.0
  0
LINE
  5
3CC
  8
COLOR_599D99FF
 10
0.8185262892301092
 20
1.151184761422507
 30
0.0
 11
0.8157401587253882
 21
1.161630912028086
 31
0.0
  0
LINE
  5
3CD
  8
COLOR_599D99FF
 10
0.8203466582211288
 20
1.140471632824866
 30
0.0
 11
0.8185262892301092
 21
1.151184761422507
 31
0.0
  0
LINE
  5
3CE
  8
COLOR_599D99FF
 10
0.8211516058026175
 20
1.129534514619515
 30
0.0
 11
0.8203466582211288
 21
1.140471632824866
 31
0.0
  0
LINE
  5
3CF
  8
COLOR_599D99FF
 10
0.820891472078747
 20
1.118416395190806
 30
0.0
 11
0.8211516058026175
 21
1.129534514619515
 31
0.0
  0
LINE
  5
3D0
  8
COLOR_599D99FF
 10
0.8195165971536879
 20
1.107160262923093
 30
0.0
 11
0.820891472078747
 21
1.118416395190806
 31
0.0
  0
LINE
  5
3D1
  8
COLOR_599D99FF
 10
0.7802045245427802
 20
1.183263064204621
 30
0.0
 11
0.8195165971536879
 21
1.107160262923093
 31
0.0
  0
LINE
  5
3D2
  8
COLOR_599D99FF
 10
0.774770882221501
 20
1.188996598195758
 30
0.0
 11
0.7802045245427802
 21
1.183263064204621
 31
0.0
  0
LINE
  5
3D3
  8
COLOR_599D99FF
 10
0.7566110362191097
 20
1.203564647383595
 30
0.0
 11
0.774770882221501
 21
1.188996598195758
 31
0.0
  0
LINE
  5
3D4
  8
COLOR_599D99FF
 10
0.6808307600376711
 20
1.233256780440761
 30
0.0
 11
0.7566110362191097
 21
1.203564647383595
 31
0.0
  0
LINE
  5
3D5
  8
COLOR_599D99FF
 10
0.5783644647455162
 20
1.21527057266936
 30
0.0
 11
0.6808307600376711
 21
1.233256780440761
 31
0.0
  0
LINE
  5
3D6
  8
COLOR_599D99FF
 10
0.5756674740765472
 20
1.214019303843693
 30
0.0
 11
0.5783644647455162
 21
1.21527057266936
 31
0.0
  0
LINE
  5
3D7
  8
COLOR_599D99FF
 10
0.5304292441920814
 20
1.186887276665451
 30
0.0
 11
0.5756674740765472
 21
1.214019303843693
 31
0.0
  0
LINE
  5
3D8
  8
COLOR_599D99FF
 10
0.589132703303794
 20
1.171813864993564
 30
0.0
 11
0.5836627924584368
 21
1.170509099936707
 31
0.0
  0
LINE
  5
3D9
  8
COLOR_599D99FF
 10
0.6056930243754717
 20
1.174625191762626
 30
0.0
 11
0.589132703303794
 21
1.171813864993564
 31
0.0
  0
LINE
  5
3DA
  8
COLOR_599D99FF
 10
0.6223192743468691
 20
1.17573110351478
 30
0.0
 11
0.6056930243754717
 21
1.174625191762626
 31
0.0
  0
LINE
  5
3DB
  8
COLOR_599D99FF
 10
0.638805798198959
 20
1.175066077145485
 30
0.0
 11
0.6223192743468691
 21
1.17573110351478
 31
0.0
  0
LINE
  5
3DC
  8
COLOR_599D99FF
 10
0.6549469409127131
 20
1.172564589550195
 30
0.0
 11
0.638805798198959
 21
1.175066077145485
 31
0.0
  0
LINE
  5
3DD
  8
COLOR_599D99FF
 10
0.6654142662776081
 20
1.16984431782801
 30
0.0
 11
0.6549469409127131
 21
1.172564589550195
 31
0.0
  0
LINE
  5
3DE
  8
COLOR_599D99FF
 10
0.6755757518632224
 20
1.166259305483499
 30
0.0
 11
0.6654142662776081
 21
1.16984431782801
 31
0.0
  0
LINE
  5
3DF
  8
COLOR_599D99FF
 10
0.6853704628491026
 20
1.161790138263466
 30
0.0
 11
0.6755757518632224
 21
1.166259305483499
 31
0.0
  0
LINE
  5
3E0
  8
COLOR_599D99FF
 10
0.6947374644147968
 20
1.156417401914711
 30
0.0
 11
0.6853704628491026
 21
1.161790138263466
 31
0.0
  0
LINE
  5
3E1
  8
COLOR_599D99FF
 10
0.7036158217398518
 20
1.150121682184038
 30
0.0
 11
0.6947374644147968
 21
1.156417401914711
 31
0.0
  0
LINE
  5
3E2
  8
COLOR_599D99FF
 10
0.7119446000038149
 20
1.142883564818248
 30
0.0
 11
0.7036158217398518
 21
1.150121682184038
 31
0.0
  0
LINE
  5
3E3
  8
COLOR_599D99FF
 10
0.7196628643862337
 20
1.134683635564143
 30
0.0
 11
0.7119446000038149
 21
1.142883564818248
 31
0.0
  0
LINE
  5
3E4
  8
COLOR_599D99FF
 10
0.7267096800666555
 20
1.125502480168525
 30
0.0
 11
0.7196628643862337
 21
1.134683635564143
 31
0.0
  0
LINE
  5
3E5
  8
COLOR_599D99FF
 10
0.6565930495282889
 20
1.138616847123788
 30
0.0
 11
0.7267096800666555
 21
1.125502480168525
 31
0.0
  0
LINE
  5
3E6
  8
COLOR_599D99FF
 10
0.6294042902960343
 20
1.138786502367075
 30
0.0
 11
0.6565930495282889
 21
1.138616847123788
 31
0.0
  0
LINE
  5
3E7
  8
COLOR_599D99FF
 10
0.607906978327551
 20
1.13602351875893
 30
0.0
 11
0.6294042902960343
 21
1.138786502367075
 31
0.0
  0
LINE
  5
3E8
  8
COLOR_599D99FF
 10
0.5920408095386576
 20
1.131958421582085
 30
0.0
 11
0.607906978327551
 21
1.13602351875893
 31
0.0
  0
LINE
  5
3E9
  8
COLOR_599D99FF
 10
0.5816245231236775
 20
1.12819153803082
 30
0.0
 11
0.5920408095386576
 21
1.131958421582085
 31
0.0
  0
LINE
  5
3EA
  8
COLOR_599D99FF
 10
0.5713613478627969
 20
1.123512100224908
 30
0.0
 11
0.5816245231236775
 21
1.12819153803082
 31
0.0
  0
LINE
  5
3EB
  8
COLOR_599D99FF
 10
0.5628862857121602
 20
1.119072094866708
 30
0.0
 11
0.5713613478627969
 21
1.123512100224908
 31
0.0
  0
LINE
  5
3EC
  8
COLOR_599D99FF
 10
0.532869690497154
 20
1.102230786178907
 30
0.0
 11
0.5628862857121602
 21
1.119072094866708
 31
0.0
  0
LINE
  5
3ED
  8
COLOR_599D99FF
 10
0.528335331409598
 20
1.096854443044016
 30
0.0
 11
0.532869690497154
 21
1.102230786178907
 31
0.0
  0
LINE
  5
3EE
  8
COLOR_599D99FF
 10
0.5263601712814759
 20
1.092778664619746
 30
0.0
 11
0.528335331409598
 21
1.096854443044016
 31
0.0
  0
LINE
  5
3EF
  8
COLOR_599D99FF
 10
0.5253941007748935
 20
1.088253286666455
 30
0.0
 11
0.5263601712814759
 21
1.092778664619746
 31
0.0
  0
LINE
  5
3F0
  8
COLOR_599D99FF
 10
0.525335249007538
 20
1.085806901492799
 30
0.0
 11
0.5253941007748935
 21
1.088253286666455
 31
0.0
  0
LINE
  5
3F1
  8
COLOR_599D99FF
 10
0.5255835994989984
 20
1.083230000788534
 30
0.0
 11
0.525335249007538
 21
1.085806901492799
 31
0.0
  0
LINE
  5
3F2
  8
COLOR_599D99FF
 10
0.5261574622004176
 20
1.080516546004209
 30
0.0
 11
0.5255835994989984
 21
1.083230000788534
 31
0.0
  0
LINE
  5
3F3
  8
COLOR_599D99FF
 10
0.5270751470629395
 20
1.077660498590372
 30
0.0
 11
0.5261574622004176
 21
1.080516546004209
 31
0.0
  0
LINE
  5
3F4
  8
COLOR_599D99FF
 10
0.5283549640377072
 20
1.074655819997573
 30
0.0
 11
0.5270751470629395
 21
1.077660498590372
 31
0.0
  0
LINE
  5
3F5
  8
COLOR_599D99FF
 10
0.5344657389948578
 20
1.079316785763168
 30
0.0
 11
0.5283549640377072
 21
1.074655819997573
 31
0.0
  0
LINE
  5
3F6
  8
COLOR_599D99FF
 10
0.5472908851333964
 20
1.088044260335138
 30
0.0
 11
0.5344657389948578
 21
1.079316785763168
 31
0.0
  0
LINE
  5
3F7
  8
COLOR_599D99FF
 10
0.5608249713894433
 20
1.095903872910615
 30
0.0
 11
0.5472908851333964
 21
1.088044260335138
 31
0.0
  0
LINE
  5
3F8
  8
COLOR_599D99FF
 10
0.574952971945229
 20
1.102805320228559
 30
0.0
 11
0.5608249713894433
 21
1.095903872910615
 31
0.0
  0
LINE
  5
3F9
  8
COLOR_599D99FF
 10
0.5895598609829834
 20
1.108658299027931
 30
0.0
 11
0.574952971945229
 21
1.102805320228559
 31
0.0
  0
LINE
  5
3FA
  8
COLOR_599D99FF
 10
0.6045306126849367
 20
1.113372506047691
 30
0.0
 11
0.5895598609829834
 21
1.108658299027931
 31
0.0
  0
LINE
  5
3FB
  8
COLOR_599D99FF
 10
0.612116491466935
 20
1.115274350371141
 30
0.0
 11
0.6045306126849367
 21
1.113372506047691
 31
0.0
  0
LINE
  5
3FC
  8
COLOR_599D99FF
 10
0.6197502012333196
 20
1.116857638026799
 30
0.0
 11
0.612116491466935
 21
1.115274350371141
 31
0.0
  0
LINE
  5
3FD
  8
COLOR_599D99FF
 10
0.6274173637568689
 20
1.118111081107034
 30
0.0
 11
0.6197502012333196
 21
1.116857638026799
 31
0.0
  0
LINE
  5
3FE
  8
COLOR_599D99FF
 10
0.635103600810362
 20
1.119023391704217
 30
0.0
 11
0.6274173637568689
 21
1.118111081107034
 31
0.0
  0
LINE
  5
3FF
  8
COLOR_599D99FF
 10
0.6427945341665773
 20
1.119583281910717
 30
0.0
 11
0.635103600810362
 21
1.119023391704217
 31
0.0
  0
LINE
  5
400
  8
COLOR_599D99FF
 10
0.6504757855982942
 20
1.119779463818904
 30
0.0
 11
0.6427945341665773
 21
1.119583281910717
 31
0.0
  0
LINE
  5
401
  8
COLOR_599D99FF
 10
0.6581329768782908
 20
1.119600649521149
 30
0.0
 11
0.6504757855982942
 21
1.119779463818904
 31
0.0
  0
LINE
  5
402
  8
COLOR_599D99FF
 10
0.6657517297793463
 20
1.119035551109821
 30
0.0
 11
0.6581329768782908
 21
1.119600649521149
 31
0.0
  0
LINE
  5
403
  8
COLOR_599D99FF
 10
0.6733176660742395
 20
1.118072880677291
 30
0.0
 11
0.6657517297793463
 21
1.119035551109821
 31
0.0
  0
LINE
  5
404
  8
COLOR_599D99FF
 10
0.6808164075357488
 20
1.116701350315928
 30
0.0
 11
0.6733176660742395
 21
1.118072880677291
 31
0.0
  0
LINE
  5
405
  8
COLOR_599D99FF
 10
0.6882335759366531
 20
1.114909672118104
 30
0.0
 11
0.6808164075357488
 21
1.116701350315928
 31
0.0
  0
LINE
  5
406
  8
COLOR_599D99FF
 10
0.6955547930497318
 20
1.112686558176187
 30
0.0
 11
0.6882335759366531
 21
1.114909672118104
 31
0.0
  0
LINE
  5
407
  8
COLOR_599D99FF
 10
0.7027656806477629
 20
1.110020720582547
 30
0.0
 11
0.6955547930497318
 21
1.112686558176187
 31
0.0
  0
LINE
  5
408
  8
COLOR_599D99FF
 10
0.7098518605035254
 20
1.106900871429556
 30
0.0
 11
0.7027656806477629
 21
1.110020720582547
 31
0.0
  0
LINE
  5
409
  8
COLOR_599D99FF
 10
0.7167989543897985
 20
1.103315722809583
 30
0.0
 11
0.7098518605035254
 21
1.106900871429556
 31
0.0
  0
LINE
  5
40A
  8
COLOR_599D99FF
 10
0.7235925840793603
 20
1.099253986814998
 30
0.0
 11
0.7167989543897985
 21
1.103315722809583
 31
0.0
  0
LINE
  5
40B
  8
COLOR_599D99FF
 10
0.7302183713449901
 20
1.09470437553817
 30
0.0
 11
0.7235925840793603
 21
1.099253986814998
 31
0.0
  0
LINE
  5
40C
  8
COLOR_599D99FF
 10
0.7366619379594663
 20
1.089655601071471
 30
0.0
 11
0.7302183713449901
 21
1.09470437553817
 31
0.0
  0
LINE
  5
40D
  8
COLOR_599D99FF
 10
0.7687599647171102
 20
1.071769773097573
 30
0.0
 11
0.7366619379594663
 21
1.089655601071471
 31
0.0
  0
LINE
  5
40E
  8
COLOR_599D99FF
 10
0.75664751880484
 20
1.10984076357927
 30
0.0
 11
0.7687599647171102
 21
1.071769773097573
 31
0.0
  0
LINE
  5
40F
  8
COLOR_599D99FF
 10
0.7405906712156374
 20
1.141788738890517
 30
0.0
 11
0.75664751880484
 21
1.10984076357927
 31
0.0
  0
LINE
  5
410
  8
COLOR_599D99FF
 10
0.7307314104336494
 20
1.154013842268602
 30
0.0
 11
0.7405906712156374
 21
1.141788738890517
 31
0.0
  0
LINE
  5
411
  8
COLOR_599D99FF
 10
0.7219128330417396
 20
1.162028762108942
 30
0.0
 11
0.7307314104336494
 21
1.154013842268602
 31
0.0
  0
LINE
  5
412
  8
COLOR_599D99FF
 10
0.7116997289894238
 20
1.168863519983362
 30
0.0
 11
0.7219128330417396
 21
1.162028762108942
 31
0.0
  0
LINE
  5
413
  8
COLOR_599D99FF
 10
0.7040984109703883
 20
1.174369264835039
 30
0.0
 11
0.7116997289894238
 21
1.168863519983362
 31
0.0
  0
LINE
  5
414
  8
COLOR_599D99FF
 10
0.6921398310113351
 20
1.181172061196518
 30
0.0
 11
0.7040984109703883
 21
1.174369264835039
 31
0.0
  0
LINE
  5
415
  8
COLOR_599D99FF
 10
0.6753246520113532
 20
1.187922008574603
 30
0.0
 11
0.6921398310113351
 21
1.181172061196518
 31
0.0
  0
LINE
  5
416
  8
COLOR_599D99FF
 10
0.5849976745969254
 20
1.202314134852326
 30
0.0
 11
0.6753246520113532
 21
1.187922008574603
 31
0.0
  0
LINE
  5
417
  8
COLOR_599D99FF
 10
0.6041770760330756
 20
1.206968675579237
 30
0.0
 11
0.5849976745969254
 21
1.202314134852326
 31
0.0
  0
LINE
  5
418
  8
COLOR_599D99FF
 10
0.6307924159226717
 20
1.211115619644294
 30
0.0
 11
0.6041770760330756
 21
1.206968675579237
 31
0.0
  0
LINE
  5
419
  8
COLOR_599D99FF
 10
0.6511283756189351
 20
1.212389989494985
 30
0.0
 11
0.6307924159226717
 21
1.211115619644294
 31
0.0
  0
LINE
  5
41A
  8
COLOR_599D99FF
 10
0.6714358833812719
 20
1.211840921873034
 30
0.0
 11
0.6511283756189351
 21
1.212389989494985
 31
0.0
  0
LINE
  5
41B
  8
COLOR_599D99FF
 10
0.6848031205159255
 20
1.210350806251701
 30
0.0
 11
0.6714358833812719
 21
1.211840921873034
 31
0.0
  0
LINE
  5
41C
  8
COLOR_599D99FF
 10
0.6979247702311938
 20
1.207883699393014
 30
0.0
 11
0.6848031205159255
 21
1.210350806251701
 31
0.0
  0
LINE
  5
41D
  8
COLOR_599D99FF
 10
0.7107076556809099
 20
1.204372971463835
 30
0.0
 11
0.6979247702311938
 21
1.207883699393014
 31
0.0
  0
LINE
  5
41E
  8
COLOR_599D99FF
 10
0.723058600018907
 20
1.199751992631024
 30
0.0
 11
0.7107076556809099
 21
1.204372971463835
 31
0.0
  0
LINE
  5
41F
  8
COLOR_599D99FF
 10
0.7290429765065835
 20
1.197004337302901
 30
0.0
 11
0.723058600018907
 21
1.199751992631024
 31
0.0
  0
LINE
  5
420
  8
COLOR_599D99FF
 10
0.7348844263990181
 20
1.193954133061443
 30
0.0
 11
0.7290429765065835
 21
1.197004337302901
 31
0.0
  0
LINE
  5
421
  8
COLOR_599D99FF
 10
0.7405713025904388
 20
1.190593051177509
 30
0.0
 11
0.7348844263990181
 21
1.193954133061443
 31
0.0
  0
LINE
  5
422
  8
COLOR_599D99FF
 10
0.7460919579750753
 20
1.186912762921954
 30
0.0
 11
0.7405713025904388
 21
1.190593051177509
 31
0.0
  0
LINE
  5
423
  8
COLOR_599D99FF
 10
0.7514347454471572
 20
1.182904939565639
 30
0.0
 11
0.7460919579750753
 21
1.186912762921954
 31
0.0
  0
LINE
  5
424
  8
COLOR_599D99FF
 10
0.7565880179009126
 20
1.178561252379419
 30
0.0
 11
0.7514347454471572
 21
1.182904939565639
 31
0.0
  0
LINE
  5
425
  8
COLOR_599D99FF
 10
0.7615401282305717
 20
1.173873372634152
 30
0.0
 11
0.7565880179009126
 21
1.178561252379419
 31
0.0
  0
LINE
  5
426
  8
COLOR_599D99FF
 10
0.7662794293303625
 20
1.168832971600697
 30
0.0
 11
0.7615401282305717
 21
1.173873372634152
 31
0.0
  0
LINE
  5
427
  8
COLOR_599D99FF
 10
0.7711517881343765
 20
1.163452671873178
 30
0.0
 11
0.7662794293303625
 21
1.168832971600697
 31
0.0
  0
LINE
  5
428
  8
COLOR_599D99FF
 10
0.7770536029754019
 20
1.154741548993186
 30
0.0
 11
0.7711517881343765
 21
1.163452671873178
 31
0.0
  0
LINE
  5
429
  8
COLOR_599D99FF
 10
0.7826922044979098
 20
1.142135373432865
 30
0.0
 11
0.7770536029754019
 21
1.154741548993186
 31
0.0
  0
LINE
  5
42A
  8
COLOR_599D99FF
 10
0.7929831169425252
 20
1.072631184810458
 30
0.0
 11
0.7826922044979098
 21
1.142135373432865
 31
0.0
  0
LINE
  5
42B
  8
COLOR_599D99FF
 10
0.7967533425602191
 20
1.073048023930439
 30
0.0
 11
0.7929831169425252
 21
1.072631184810458
 31
0.0
  0
LINE
  5
42C
  8
COLOR_599D99FF
 10
0.8003567571139992
 20
1.073766649102143
 30
0.0
 11
0.7967533425602191
 21
1.073048023930439
 31
0.0
  0
LINE
  5
42D
  8
COLOR_599D99FF
 10
0.8037941991359574
 20
1.074772309831945
 30
0.0
 11
0.8003567571139992
 21
1.073766649102143
 31
0.0
  0
LINE
  5
42E
  8
COLOR_599D99FF
 10
0.8070665071581861
 20
1.07605025562622
 30
0.0
 11
0.8037941991359574
 21
1.074772309831945
 31
0.0
  0
LINE
  5
42F
  8
COLOR_599D99FF
 10
0.8131190753318223
 20
1.079364000433696
 30
0.0
 11
0.8070665071581861
 21
1.07605025562622
 31
0.0
  0
LINE
  5
430
  8
COLOR_599D99FF
 10
0.8185211698916453
 20
1.083589879575575
 30
0.0
 11
0.8131190753318223
 21
1.079364000433696
 31
0.0
  0
LINE
  5
431
  8
COLOR_599D99FF
 10
0.8232794990943914
 20
1.088609889102864
 30
0.0
 11
0.8185211698916453
 21
1.083589879575575
 31
0.0
  0
LINE
  5
432
  8
COLOR_599D99FF
 10
0.8292246071656036
 20
1.097370764228014
 30
0.0
 11
0.8232794990943914
 21
1.088609889102864
 31
0.0
  0
LINE
  5
433
  8
COLOR_599D99FF
 10
0.8337589771275381
 20
1.107254660507242
 30
0.0
 11
0.8292246071656036
 21
1.097370764228014
 31
0.0
  0
LINE
  5
434
  8
COLOR_599D99FF
 10
0.8376494537377608
 20
1.121491754305644
 30
0.0
 11
0.8337589771275381
 21
1.107254660507242
 31
0.0
  0
LINE
  5
435
  8
COLOR_599D99FF
 10
0.839124062022541
 20
1.139661842990831
 30
0.0
 11
0.8376494537377608
 21
1.121491754305644
 31
0.0
  0
LINE
  5
436
  8
COLOR_599D99FF
 10
0.8376583641711514
 20
1.153346352586032
 30
0.0
 11
0.839124062022541
 21
1.139661842990831
 31
0.0
  0
LINE
  5
437
  8
COLOR_599D99FF
 10
0.8366899131604326
 20
1.159651568887764
 30
0.0
 11
0.8376583641711514
 21
1.153346352586032
 31
0.0
  0
LINE
  5
438
  8
COLOR_599D99FF
 10
0.8353833449630452
 20
1.165780993893206
 30
0.0
 11
0.8366899131604326
 21
1.159651568887764
 31
0.0
  0
LINE
  5
439
  8
COLOR_599D99FF
 10
0.8337520934572142
 20
1.171737695240193
 30
0.0
 11
0.8353833449630452
 21
1.165780993893206
 31
0.0
  0
LINE
  5
43A
  8
COLOR_599D99FF
 10
0.8318095925211649
 20
1.177524740566559
 30
0.0
 11
0.8337520934572142
 21
1.171737695240193
 31
0.0
  0
LINE
  5
43B
  8
COLOR_599D99FF
 10
0.8295692760331227
 20
1.183145197510135
 30
0.0
 11
0.8318095925211649
 21
1.177524740566559
 31
0.0
  0
LINE
  5
43C
  8
COLOR_599D99FF
 10
0.8270445778713125
 20
1.188602133708758
 30
0.0
 11
0.8295692760331227
 21
1.183145197510135
 31
0.0
  0
LINE
  5
43D
  8
COLOR_599D99FF
 10
0.8211957720392896
 20
1.199037714422474
 30
0.0
 11
0.8270445778713125
 21
1.188602133708758
 31
0.0
  0
LINE
  5
43E
  8
COLOR_599D99FF
 10
0.8143706460508979
 20
1.208856023810375
 30
0.0
 11
0.8211957720392896
 21
1.199037714422474
 31
0.0
  0
LINE
  5
43F
  8
COLOR_599D99FF
 10
0.8066766709319394
 20
1.218081602975131
 30
0.0
 11
0.8143706460508979
 21
1.208856023810375
 31
0.0
  0
LINE
  5
440
  8
COLOR_599D99FF
 10
0.798221317708216
 20
1.226738993019411
 30
0.0
 11
0.8066766709319394
 21
1.218081602975131
 31
0.0
  0
LINE
  5
441
  8
COLOR_599D99FF
 10
0.7843457967951377
 20
1.238713407147028
 30
0.0
 11
0.798221317708216
 21
1.226738993019411
 31
0.0
  0
LINE
  5
442
  8
COLOR_599D99FF
 10
0.7641833417851724
 20
1.252919681020432
 30
0.0
 11
0.7843457967951377
 21
1.238713407147028
 31
0.0
  0
LINE
  5
443
  8
COLOR_599D99FF
 10
0.7213850981077722
 20
1.276035507687019
 30
0.0
 11
0.7641833417851724
 21
1.252919681020432
 31
0.0
  0
LINE
  5
444
  8
COLOR_599D99FF
 10
0.7614321941706882
 20
1.267378684056299
 30
0.0
 11
0.7213850981077722
 21
1.276035507687019
 31
0.0
  0
LINE
  5
445
  8
COLOR_599D99FF
 10
0.8005453187774841
 20
1.254164105937808
 30
0.0
 11
0.7614321941706882
 21
1.267378684056299
 31
0.0
  0
LINE
  5
446
  8
COLOR_599D99FF
 10
0.8214725404001001
 20
1.24379201636875
 30
0.0
 11
0.8005453187774841
 21
1.254164105937808
 31
0.0
  0
LINE
  5
447
  8
COLOR_599D99FF
 10
0.8361161097907948
 20
1.234379082272109
 30
0.0
 11
0.8214725404001001
 21
1.24379201636875
 31
0.0
  0
LINE
  5
448
  8
COLOR_599D99FF
 10
0.8452635416284663
 20
1.227237742448303
 30
0.0
 11
0.8361161097907948
 21
1.234379082272109
 31
0.0
  0
LINE
  5
449
  8
COLOR_599D99FF
 10
0.853848039420765
 20
1.219348795180004
 30
0.0
 11
0.8452635416284663
 21
1.227237742448303
 31
0.0
  0
LINE
  5
44A
  8
COLOR_599D99FF
 10
0.8618087667330011
 20
1.210665297235503
 30
0.0
 11
0.853848039420765
 21
1.219348795180004
 31
0.0
  0
LINE
  5
44B
  8
COLOR_599D99FF
 10
0.8690848871304829
 20
1.201140305383094
 30
0.0
 11
0.8618087667330011
 21
1.210665297235503
 31
0.0
  0
LINE
  5
44C
  8
COLOR_599D99FF
 10
0.877487004075925
 20
1.189027368912885
 30
0.0
 11
0.8690848871304829
 21
1.201140305383094
 31
0.0
  0
LINE
  5
44D
  8
COLOR_599D99FF
 10
0.8847833203230473
 20
1.17261340076718
 30
0.0
 11
0.877487004075925
 21
1.189027368912885
 31
0.0
  0
LINE
  5
44E
  8
COLOR_599D99FF
 10
0.8930684900710381
 20
1.100771079799716
 30
0.0
 11
0.8847833203230473
 21
1.17261340076718
 31
0.0
  0
LINE
  5
44F
  8
COLOR_599D99FF
 10
0.8516820022990161
 20
1.052990247922035
 30
0.0
 11
0.8930684900710381
 21
1.100771079799716
 31
0.0
  0
LINE
  5
450
  8
COLOR_599D99FF
 10
0.8513628958847118
 20
1.047942755165236
 30
0.0
 11
0.8516820022990161
 21
1.052990247922035
 31
0.0
  0
LINE
  5
451
  8
COLOR_599D99FF
 10
0.8488703593088662
 20
0.9960741184451632
 30
0.0
 11
0.8513628958847118
 21
1.047942755165236
 31
0.0
  0
LINE
  5
452
  8
COLOR_599D99FF
 10
0.8443662320398618
 20
0.9869566745128322
 30
0.0
 11
0.8488703593088662
 21
0.9960741184451632
 31
0.0
  0
LINE
  5
453
  8
COLOR_599D99FF
 10
0.8391673556510362
 20
0.9807478615673498
 30
0.0
 11
0.8443662320398618
 21
0.9869566745128322
 31
0.0
  0
LINE
  5
454
  8
COLOR_599D99FF
 10
0.8342876579827914
 20
0.975883245202105
 30
0.0
 11
0.8391673556510362
 21
0.9807478615673498
 31
0.0
  0
LINE
  5
455
  8
COLOR_599D99FF
 10
0.8262358086820322
 20
0.9700058562185975
 30
0.0
 11
0.8342876579827914
 21
0.975883245202105
 31
0.0
  0
LINE
  5
456
  8
COLOR_599D99FF
 10
0.8143778591594659
 20
0.9643659448712509
 30
0.0
 11
0.8262358086820322
 21
0.9700058562185975
 31
0.0
  0
LINE
  5
457
  8
COLOR_599D99FF
 10
0.7484417204285592
 20
0.9505154743443877
 30
0.0
 11
0.8143778591594659
 21
0.9643659448712509
 31
0.0
  0
LINE
  5
458
  8
COLOR_599D99FF
 10
0.7529795983677176
 20
0.946070730279829
 30
0.0
 11
0.7484417204285592
 21
0.9505154743443877
 31
0.0
  0
LINE
  5
459
  8
COLOR_599D99FF
 10
0.7579454071684208
 20
0.9425585200923676
 30
0.0
 11
0.7529795983677176
 21
0.946070730279829
 31
0.0
  0
LINE
  5
45A
  8
COLOR_599D99FF
 10
0.7632824557485883
 20
0.9399028645447384
 30
0.0
 11
0.7579454071684208
 21
0.9425585200923676
 31
0.0
  0
LINE
  5
45B
  8
COLOR_599D99FF
 10
0.7718600914632826
 20
0.9373592165914615
 30
0.0
 11
0.7632824557485883
 21
0.9399028645447384
 31
0.0
  0
LINE
  5
45C
  8
COLOR_599D99FF
 10
0.7840671615449096
 20
0.9362564876786931
 30
0.0
 11
0.7718600914632826
 21
0.9373592165914615
 31
0.0
  0
LINE
  5
45D
  8
COLOR_599D99FF
 10
0.8330053517089105
 20
0.9463531559318688
 30
0.0
 11
0.7840671615449096
 21
0.9362564876786931
 31
0.0
  0
LINE
  5
45E
  8
COLOR_599D99FF
 10
0.8366287144636174
 20
0.9480358987706046
 30
0.0
 11
0.8330053517089105
 21
0.9463531559318688
 31
0.0
  0
LINE
  5
45F
  8
COLOR_599D99FF
 10
0.8431242203070702
 20
0.9519830570429236
 30
0.0
 11
0.8366287144636174
 21
0.9480358987706046
 31
0.0
  0
LINE
  5
460
  8
COLOR_599D99FF
 10
0.8486852929393539
 20
0.9566394896207144
 30
0.0
 11
0.8431242203070702
 21
0.9519830570429236
 31
0.0
  0
LINE
  5
461
  8
COLOR_599D99FF
 10
0.8533925639726024
 20
0.9619256495187867
 30
0.0
 11
0.8486852929393539
 21
0.9566394896207144
 31
0.0
  0
LINE
  5
462
  8
COLOR_599D99FF
 10
0.8590289741758286
 20
0.9708616190613193
 30
0.0
 11
0.8533925639726024
 21
0.9619256495187867
 31
0.0
  0
LINE
  5
463
  8
COLOR_599D99FF
 10
0.8643084438967616
 20
0.9842378522105729
 30
0.0
 11
0.8590289741758286
 21
0.9708616190613193
 31
0.0
  0
LINE
  5
464
  8
COLOR_599D99FF
 10
0.8718822808724507
 20
1.038884973771774
 30
0.0
 11
0.8643084438967616
 21
0.9842378522105729
 31
0.0
  0
LINE
  5
465
  8
COLOR_599D99FF
 10
0.8756869230975907
 20
1.04318685253213
 30
0.0
 11
0.8718822808724507
 21
1.038884973771774
 31
0.0
  0
LINE
  5
466
  8
COLOR_599D99FF
 10
0.8859673748945325
 20
1.056771573523876
 30
0.0
 11
0.8756869230975907
 21
1.04318685253213
 31
0.0
  0
LINE
  5
467
  8
COLOR_599D99FF
 10
0.8944980021466744
 20
1.07124927950171
 30
0.0
 11
0.8859673748945325
 21
1.056771573523876
 31
0.0
  0
LINE
  5
468
  8
COLOR_599D99FF
 10
0.9012150177049089
 20
1.086458430648581
 30
0.0
 11
0.8944980021466744
 21
1.07124927950171
 31
0.0
  0
LINE
  5
469
  8
COLOR_599D99FF
 10
0.9060546344201287
 20
1.102237487147437
 30
0.0
 11
0.9012150177049089
 21
1.086458430648581
 31
0.0
  0
LINE
  5
46A
  8
COLOR_599D99FF
 10
0.9082065463796588
 20
1.112993699481948
 30
0.0
 11
0.9060546344201287
 21
1.102237487147437
 31
0.0
  0
LINE
  5
46B
  8
COLOR_599D99FF
 10
0.9094768091133252
 20
1.123883543960267
 30
0.0
 11
0.9082065463796588
 21
1.112993699481948
 31
0.0
  0
LINE
  5
46C
  8
COLOR_599D99FF
 10
0.9098465227250958
 20
1.134859156932896
 30
0.0
 11
0.9094768091133252
 21
1.123883543960267
 31
0.0
  0
LINE
  5
46D
  8
COLOR_599D99FF
 10
0.9092967873189394
 20
1.145872674750338
 30
0.0
 11
0.9098465227250958
 21
1.134859156932896
 31
0.0
  0
LINE
  5
46E
  8
COLOR_599D99FF
 10
0.9078087029988239
 20
1.156876233763096
 30
0.0
 11
0.9092967873189394
 21
1.145872674750338
 31
0.0
  0
LINE
  5
46F
  8
COLOR_599D99FF
 10
0.9053633698687172
 20
1.167821970321674
 30
0.0
 11
0.9078087029988239
 21
1.156876233763096
 31
0.0
  0
LINE
  5
470
  8
COLOR_599D99FF
 10
0.9019418880325887
 20
1.178662020776575
 30
0.0
 11
0.9053633698687172
 21
1.167821970321674
 31
0.0
  0
LINE
  5
471
  8
COLOR_599D99FF
 10
0.8975253575944053
 20
1.189348521478301
 30
0.0
 11
0.9019418880325887
 21
1.178662020776575
 31
0.0
  0
LINE
  5
472
  8
COLOR_599D99FF
 10
0.8906542198343905
 20
1.201696593807426
 30
0.0
 11
0.8975253575944053
 21
1.189348521478301
 31
0.0
  0
LINE
  5
473
  8
COLOR_599D99FF
 10
0.8830825541729694
 20
1.213190903913919
 30
0.0
 11
0.8906542198343905
 21
1.201696593807426
 31
0.0
  0
LINE
  5
474
  8
COLOR_599D99FF
 10
0.8748480664101757
 20
1.223853211480728
 30
0.0
 11
0.8830825541729694
 21
1.213190903913919
 31
0.0
  0
LINE
  5
475
  8
COLOR_599D99FF
 10
0.8659884623460417
 20
1.233705276190798
 30
0.0
 11
0.8748480664101757
 21
1.223853211480728
 31
0.0
  0
LINE
  5
476
  8
COLOR_599D99FF
 10
0.8565414477806006
 20
1.242768857727075
 30
0.0
 11
0.8659884623460417
 21
1.233705276190798
 31
0.0
  0
LINE
  5
477
  8
COLOR_599D99FF
 10
0.8465447285138854
 20
1.251065715772506
 30
0.0
 11
0.8565414477806006
 21
1.242768857727075
 31
0.0
  0
LINE
  5
478
  8
COLOR_599D99FF
 10
0.8360360103459291
 20
1.258617610010036
 30
0.0
 11
0.8465447285138854
 21
1.251065715772506
 31
0.0
  0
LINE
  5
479
  8
COLOR_599D99FF
 10
0.8250529990767647
 20
1.265446300122611
 30
0.0
 11
0.8360360103459291
 21
1.258617610010036
 31
0.0
  0
LINE
  5
47A
  8
COLOR_599D99FF
 10
0.8136334005064247
 20
1.271573545793178
 30
0.0
 11
0.8250529990767647
 21
1.265446300122611
 31
0.0
  0
LINE
  5
47B
  8
COLOR_599D99FF
 10
0.8018149204349425
 20
1.277021106704681
 30
0.0
 11
0.8136334005064247
 21
1.271573545793178
 31
0.0
  0
LINE
  5
47C
  8
COLOR_599D99FF
 10
0.7896352646623511
 20
1.281810742540069
 30
0.0
 11
0.8018149204349425
 21
1.277021106704681
 31
0.0
  0
LINE
  5
47D
  8
COLOR_599D99FF
 10
0.7771321389886829
 20
1.285964212982285
 30
0.0
 11
0.7896352646623511
 21
1.281810742540069
 31
0.0
  0
LINE
  5
47E
  8
COLOR_599D99FF
 10
0.7643432492139717
 20
1.289503277714278
 30
0.0
 11
0.7771321389886829
 21
1.285964212982285
 31
0.0
  0
LINE
  5
47F
  8
COLOR_599D99FF
 10
0.7513063011382496
 20
1.292449696418991
 30
0.0
 11
0.7643432492139717
 21
1.289503277714278
 31
0.0
  0
LINE
  5
480
  8
COLOR_599D99FF
 10
0.7380590005615502
 20
1.294825228779372
 30
0.0
 11
0.7513063011382496
 21
1.292449696418991
 31
0.0
  0
LINE
  5
481
  8
COLOR_599D99FF
 10
0.7246390532839059
 20
1.296651634478367
 30
0.0
 11
0.7380590005615502
 21
1.294825228779372
 31
0.0
  0
LINE
  5
482
  8
COLOR_599D99FF
 10
0.7110841651053501
 20
1.297950673198921
 30
0.0
 11
0.7246390532839059
 21
1.296651634478367
 31
0.0
  0
LINE
  5
483
  8
COLOR_599D99FF
 10
0.6974320418259153
 20
1.29874410462398
 30
0.0
 11
0.7110841651053501
 21
1.297950673198921
 31
0.0
  0
LINE
  5
484
  8
COLOR_599D99FF
 10
0.683720389245635
 20
1.299053688436492
 30
0.0
 11
0.6974320418259153
 21
1.29874410462398
 31
0.0
  0
LINE
  5
485
  8
COLOR_599D99FF
 10
0.6699869131645421
 20
1.2989011843194
 30
0.0
 11
0.683720389245635
 21
1.299053688436492
 31
0.0
  0
LINE
  5
486
  8
COLOR_599D99FF
 10
0.6562693193826687
 20
1.298308351955653
 30
0.0
 11
0.6699869131645421
 21
1.2989011843194
 31
0.0
  0
LINE
  5
487
  8
COLOR_599D99FF
 10
0.6426053137000486
 20
1.297296951028195
 30
0.0
 11
0.6562693193826687
 21
1.298308351955653
 31
0.0
  0
LINE
  5
488
  8
COLOR_599D99FF
 10
0.6290326019167148
 20
1.295888741219972
 30
0.0
 11
0.6426053137000486
 21
1.297296951028195
 31
0.0
  0
LINE
  5
489
  8
COLOR_599D99FF
 10
0.6155888898326998
 20
1.294105482213932
 30
0.0
 11
0.6290326019167148
 21
1.295888741219972
 31
0.0
  0
LINE
  5
48A
  8
COLOR_599D99FF
 10
0.6023118832480366
 20
1.291968933693019
 30
0.0
 11
0.6155888898326998
 21
1.294105482213932
 31
0.0
  0
LINE
  5
48B
  8
COLOR_599D99FF
 10
0.5892392879627586
 20
1.289500855340179
 30
0.0
 11
0.6023118832480366
 21
1.291968933693019
 31
0.0
  0
LINE
  5
48C
  8
COLOR_599D99FF
 10
0.5764088097768981
 20
1.28672300683836
 30
0.0
 11
0.5892392879627586
 21
1.289500855340179
 31
0.0
  0
LINE
  5
48D
  8
COLOR_599D99FF
 10
0.5638581544904886
 20
1.283657147870506
 30
0.0
 11
0.5764088097768981
 21
1.28672300683836
 31
0.0
  0
LINE
  5
48E
  8
COLOR_599D99FF
 10
0.5516250279035625
 20
1.280325038119564
 30
0.0
 11
0.5638581544904886
 21
1.283657147870506
 31
0.0
  0
LINE
  5
490
  8
COLOR_FEFEFEFF
 10
0.5638581544904886
 20
1.283657147870506
 30
0.0
 11
0.5516250279035625
 21
1.280325038119564
 31
0.0
  0
LINE
  5
491
  8
COLOR_FEFEFEFF
 10
0.5764088097768981
 20
1.28672300683836
 30
0.0
 11
0.5638581544904886
 21
1.283657147870506
 31
0.0
  0
LINE
  5
492
  8
COLOR_FEFEFEFF
 10
0.5892392879627586
 20
1.289500855340179
 30
0.0
 11
0.5764088097768981
 21
1.28672300683836
 31
0.0
  0
LINE
  5
493
  8
COLOR_FEFEFEFF
 10
0.6023118832480366
 20
1.291968933693019
 30
0.0
 11
0.5892392879627586
 21
1.289500855340179
 31
0.0
  0
LINE
  5
494
  8
COLOR_FEFEFEFF
 10
0.6155888898326998
 20
1.294105482213932
 30
0.0
 11
0.6023118832480366
 21
1.291968933693019
 31
0.0
  0
LINE
  5
495
  8
COLOR_FEFEFEFF
 10
0.6290326019167148
 20
1.295888741219972
 30
0.0
 11
0.6155888898326998
 21
1.294105482213932
 31
0.0
  0
LINE
  5
496
  8
COLOR_FEFEFEFF
 10
0.6426053137000486
 20
1.297296951028195
 30
0.0
 11
0.6290326019167148
 21
1.295888741219972
 31
0.0
  0
LINE
  5
497
  8
COLOR_FEFEFEFF
 10
0.6562693193826687
 20
1.298308351955653
 30
0.0
 11
0.6426053137000486
 21
1.297296951028195
 31
0.0
  0
LINE
  5
498
  8
COLOR_FEFEFEFF
 10
0.6699869131645421
 20
1.2989011843194
 30
0.0
 11
0.6562693193826687
 21
1.298308351955653
 31
0.0
  0
LINE
  5
499
  8
COLOR_FEFEFEFF
 10
0.683720389245635
 20
1.299053688436492
 30
0.0
 11
0.6699869131645421
 21
1.2989011843194
 31
0.0
  0
LINE
  5
49A
  8
COLOR_FEFEFEFF
 10
0.6974320418259153
 20
1.29874410462398
 30
0.0
 11
0.683720389245635
 21
1.299053688436492
 31
0.0
  0
LINE
  5
49B
  8
COLOR_FEFEFEFF
 10
0.7110841651053501
 20
1.297950673198921
 30
0.0
 11
0.6974320418259153
 21
1.29874410462398
 31
0.0
  0
LINE
  5
49C
  8
COLOR_FEFEFEFF
 10
0.7246390532839059
 20
1.296651634478367
 30
0.0
 11
0.7110841651053501
 21
1.297950673198921
 31
0.0
  0
LINE
  5
49D
  8
COLOR_FEFEFEFF
 10
0.7380590005615502
 20
1.294825228779372
 30
0.0
 11
0.7246390532839059
 21
1.296651634478367
 31
0.0
  0
LINE
  5
49E
  8
COLOR_FEFEFEFF
 10
0.7513063011382496
 20
1.292449696418991
 30
0.0
 11
0.7380590005615502
 21
1.294825228779372
 31
0.0
  0
LINE
  5
49F
  8
COLOR_FEFEFEFF
 10
0.7643432492139717
 20
1.289503277714278
 30
0.0
 11
0.7513063011382496
 21
1.292449696418991
 31
0.0
  0
LINE
  5
4A0
  8
COLOR_FEFEFEFF
 10
0.7771321389886829
 20
1.285964212982285
 30
0.0
 11
0.7643432492139717
 21
1.289503277714278
 31
0.0
  0
LINE
  5
4A1
  8
COLOR_FEFEFEFF
 10
0.7896352646623511
 20
1.281810742540069
 30
0.0
 11
0.7771321389886829
 21
1.285964212982285
 31
0.0
  0
LINE
  5
4A2
  8
COLOR_FEFEFEFF
 10
0.8018149204349425
 20
1.277021106704681
 30
0.0
 11
0.7896352646623511
 21
1.281810742540069
 31
0.0
  0
LINE
  5
4A3
  8
COLOR_FEFEFEFF
 10
0.8136334005064247
 20
1.271573545793178
 30
0.0
 11
0.8018149204349425
 21
1.277021106704681
 31
0.0
  0
LINE
  5
4A4
  8
COLOR_FEFEFEFF
 10
0.8250529990767647
 20
1.265446300122611
 30
0.0
 11
0.8136334005064247
 21
1.271573545793178
 31
0.0
  0
LINE
  5
4A5
  8
COLOR_FEFEFEFF
 10
0.8360360103459291
 20
1.258617610010036
 30
0.0
 11
0.8250529990767647
 21
1.265446300122611
 31
0.0
  0
LINE
  5
4A6
  8
COLOR_FEFEFEFF
 10
0.8465447285138854
 20
1.251065715772506
 30
0.0
 11
0.8360360103459291
 21
1.258617610010036
 31
0.0
  0
LINE
  5
4A7
  8
COLOR_FEFEFEFF
 10
0.8565414477806006
 20
1.242768857727075
 30
0.0
 11
0.8465447285138854
 21
1.251065715772506
 31
0.0
  0
LINE
  5
4A8
  8
COLOR_FEFEFEFF
 10
0.8659884623460417
 20
1.233705276190798
 30
0.0
 11
0.8565414477806006
 21
1.242768857727075
 31
0.0
  0
LINE
  5
4A9
  8
COLOR_FEFEFEFF
 10
0.8748480664101757
 20
1.223853211480728
 30
0.0
 11
0.8659884623460417
 21
1.233705276190798
 31
0.0
  0
LINE
  5
4AA
  8
COLOR_FEFEFEFF
 10
0.8830825541729694
 20
1.213190903913919
 30
0.0
 11
0.8748480664101757
 21
1.223853211480728
 31
0.0
  0
LINE
  5
4AB
  8
COLOR_FEFEFEFF
 10
0.8906542198343905
 20
1.201696593807426
 30
0.0
 11
0.8830825541729694
 21
1.213190903913919
 31
0.0
  0
LINE
  5
4AC
  8
COLOR_FEFEFEFF
 10
0.8975253575944053
 20
1.189348521478301
 30
0.0
 11
0.8906542198343905
 21
1.201696593807426
 31
0.0
  0
LINE
  5
4AD
  8
COLOR_FEFEFEFF
 10
0.9219777840085512
 20
1.024189457774962
 30
0.0
 11
0.9098142018030791
 21
1.009657551254839
 31
0.0
  0
LINE
  5
4AE
  8
COLOR_FEFEFEFF
 10
0.9359421536216002
 20
1.03651760511691
 30
0.0
 11
0.9219777840085512
 21
1.024189457774962
 31
0.0
  0
LINE
  5
4AF
  8
COLOR_FEFEFEFF
 10
0.9474320557471428
 20
1.044170806003661
 30
0.0
 11
0.9359421536216002
 21
1.03651760511691
 31
0.0
  0
LINE
  5
4B0
  8
COLOR_FEFEFEFF
 10
0.9596646687195939
 20
1.050344349819726
 30
0.0
 11
0.9474320557471428
 21
1.044170806003661
 31
0.0
  0
LINE
  5
4B1
  8
COLOR_FEFEFEFF
 10
0.9725241787947295
 20
1.054935361193835
 30
0.0
 11
0.9596646687195939
 21
1.050344349819726
 31
0.0
  0
LINE
  5
4B2
  8
COLOR_FEFEFEFF
 10
0.9858947722283279
 20
1.057840964754719
 30
0.0
 11
0.9725241787947295
 21
1.054935361193835
 31
0.0
  0
LINE
  5
4B3
  8
COLOR_FEFEFEFF
 10
0.9996606352761652
 20
1.058958285131107
 30
0.0
 11
0.9858947722283279
 21
1.057840964754719
 31
0.0
  0
LINE
  5
4B4
  8
COLOR_FEFEFEFF
 10
1.013705954194018
 20
1.058184446951731
 30
0.0
 11
0.9996606352761652
 21
1.058958285131107
 31
0.0
  0
LINE
  5
4B5
  8
COLOR_FEFEFEFF
 10
1.023167561427918
 20
1.056567108537576
 30
0.0
 11
1.013705954194018
 21
1.058184446951731
 31
0.0
  0
LINE
  5
4B6
  8
COLOR_FEFEFEFF
 10
1.027914915237665
 20
1.055416574845319
 30
0.0
 11
1.023167561427918
 21
1.056567108537576
 31
0.0
  0
LINE
  5
4B7
  8
COLOR_FEFEFEFF
 10
1.030659612597359
 20
1.050568961120943
 30
0.0
 11
1.027914915237665
 21
1.055416574845319
 31
0.0
  0
LINE
  5
4B8
  8
COLOR_FEFEFEFF
 10
1.032647200544875
 20
1.04589937517651
 30
0.0
 11
1.030659612597359
 21
1.050568961120943
 31
0.0
  0
LINE
  5
4B9
  8
COLOR_FEFEFEFF
 10
1.033928515673873
 20
1.041393986916451
 30
0.0
 11
1.032647200544875
 21
1.04589937517651
 31
0.0
  0
LINE
  5
4BA
  8
COLOR_FEFEFEFF
 10
1.034554394578014
 20
1.037038966245196
 30
0.0
 11
1.033928515673873
 21
1.041393986916451
 31
0.0
  0
LINE
  5
4BB
  8
COLOR_FEFEFEFF
 10
1.034575673850962
 20
1.032820483067174
 30
0.0
 11
1.034554394578014
 21
1.037038966245196
 31
0.0
  0
LINE
  5
4BC
  8
COLOR_FEFEFEFF
 10
1.034043190086375
 20
1.028724707286816
 30
0.0
 11
1.034575673850962
 21
1.032820483067174
 31
0.0
  0
LINE
  5
4BD
  8
COLOR_FEFEFEFF
 10
1.033007779877916
 20
1.024737808808551
 30
0.0
 11
1.034043190086375
 21
1.028724707286816
 31
0.0
  0
LINE
  5
4BE
  8
COLOR_FEFEFEFF
 10
1.031520279819246
 20
1.020845957536809
 30
0.0
 11
1.033007779877916
 21
1.024737808808551
 31
0.0
  0
LINE
  5
4BF
  8
COLOR_FEFEFEFF
 10
1.029631526504025
 20
1.01703532337602
 30
0.0
 11
1.031520279819246
 21
1.020845957536809
 31
0.0
  0
LINE
  5
4C0
  8
COLOR_FEFEFEFF
 10
1.02485360647858
 20
1.009602386005023
 30
0.0
 11
1.029631526504025
 21
1.01703532337602
 31
0.0
  0
LINE
  5
4C1
  8
COLOR_FEFEFEFF
 10
0.9998591148470497
 20
0.9803533018451446
 30
0.0
 11
1.02485360647858
 21
1.009602386005023
 31
0.0
  0
LINE
  5
4C2
  8
COLOR_FEFEFEFF
 10
0.99417325280318
 20
0.9726084933133999
 30
0.0
 11
0.9998591148470497
 21
0.9803533018451446
 31
0.0
  0
LINE
  5
4C3
  8
COLOR_FEFEFEFF
 10
0.991694337175984
 20
0.9685951428981261
 30
0.0
 11
0.99417325280318
 21
0.9726084933133999
 31
0.0
  0
LINE
  5
4C4
  8
COLOR_FEFEFEFF
 10
0.9895258806034957
 20
0.9644693882558243
 30
0.0
 11
0.991694337175984
 21
0.9685951428981261
 31
0.0
  0
LINE
  5
4C5
  8
COLOR_FEFEFEFF
 10
0.9877187196793757
 20
0.9602173992909243
 30
0.0
 11
0.9895258806034957
 21
0.9644693882558243
 31
0.0
  0
LINE
  5
4C6
  8
COLOR_FEFEFEFF
 10
0.986323690997286
 20
0.9558253459078566
 30
0.0
 11
0.9877187196793757
 21
0.9602173992909243
 31
0.0
  0
LINE
  5
4C7
  8
COLOR_FEFEFEFF
 10
0.9853916311508877
 20
0.9512793980110507
 30
0.0
 11
0.986323690997286
 21
0.9558253459078566
 31
0.0
  0
LINE
  5
4C8
  8
COLOR_FEFEFEFF
 10
0.9849733767338418
 20
0.9465657255049366
 30
0.0
 11
0.9853916311508877
 21
0.9512793980110507
 31
0.0
  0
LINE
  5
4C9
  8
COLOR_FEFEFEFF
 10
0.9851197643398097
 20
0.941670498293944
 30
0.0
 11
0.9849733767338418
 21
0.9465657255049366
 31
0.0
  0
LINE
  5
4CA
  8
COLOR_FEFEFEFF
 10
0.9858816305624525
 20
0.9365798862825032
 30
0.0
 11
0.9851197643398097
 21
0.941670498293944
 31
0.0
  0
LINE
  5
4CB
  8
COLOR_FEFEFEFF
 10
0.9906074553945392
 20
0.9366807884538189
 30
0.0
 11
0.9858816305624525
 21
0.9365798862825032
 31
0.0
  0
LINE
  5
4CC
  8
COLOR_FEFEFEFF
 10
0.9951141734445723
 20
0.9371495157754659
 30
0.0
 11
0.9906074553945392
 21
0.9366807884538189
 31
0.0
  0
LINE
  5
4CD
  8
COLOR_FEFEFEFF
 10
0.9994152228174008
 20
0.9379622504195534
 30
0.0
 11
0.9951141734445723
 21
0.9371495157754659
 31
0.0
  0
LINE
  5
4CE
  8
COLOR_FEFEFEFF
 10
1.00352404161787
 20
0.9390951745581915
 30
0.0
 11
0.9994152228174008
 21
0.9379622504195534
 31
0.0
  0
LINE
  5
4CF
  8
COLOR_FEFEFEFF
 10
1.007454067950827
 20
0.9405244703634893
 30
0.0
 11
1.00352404161787
 21
0.9390951745581915
 31
0.0
  0
LINE
  5
4D0
  8
COLOR_FEFEFEFF
 10
1.014831495633589
 20
0.9441769056625048
 30
0.0
 11
1.007454067950827
 21
0.9405244703634893
 31
0.0
  0
LINE
  5
4D1
  8
COLOR_FEFEFEFF
 10
1.021655010704462
 20
0.9487290136934771
 30
0.0
 11
1.014831495633589
 21
0.9441769056625048
 31
0.0
  0
LINE
  5
4D2
  8
COLOR_FEFEFEFF
 10
1.051226566237519
 20
0.9783156530184213
 30
0.0
 11
1.021655010704462
 21
0.9487290136934771
 31
0.0
  0
LINE
  5
4D3
  8
COLOR_FEFEFEFF
 10
1.066026678895639
 20
0.9923139962355105
 30
0.0
 11
1.051226566237519
 21
0.9783156530184213
 31
0.0
  0
LINE
  5
4D4
  8
COLOR_FEFEFEFF
 10
1.0724824446309
 20
0.9968201640795608
 30
0.0
 11
1.066026678895639
 21
0.9923139962355105
 31
0.0
  0
LINE
  5
4D5
  8
COLOR_FEFEFEFF
 10
1.079405593722613
 20
1.000415849735907
 30
0.0
 11
1.0724824446309
 21
0.9968201640795608
 31
0.0
  0
LINE
  5
4D6
  8
COLOR_FEFEFEFF
 10
1.083076032289256
 20
1.001812717173966
 30
0.0
 11
1.079405593722613
 21
1.000415849735907
 31
0.0
  0
LINE
  5
4D7
  8
COLOR_FEFEFEFF
 10
1.08746094859118
 20
0.9958993192519456
 30
0.0
 11
1.083076032289256
 21
1.001812717173966
 31
0.0
  0
LINE
  5
4D8
  8
COLOR_FEFEFEFF
 10
1.091225433614892
 20
0.9897327655070739
 30
0.0
 11
1.08746094859118
 21
0.9958993192519456
 31
0.0
  0
LINE
  5
4D9
  8
COLOR_FEFEFEFF
 10
1.094384486862137
 20
0.9833455323486745
 30
0.0
 11
1.091225433614892
 21
0.9897327655070739
 31
0.0
  0
LINE
  5
4DA
  8
COLOR_FEFEFEFF
 10
1.096953107834657
 20
0.976770096186071
 30
0.0
 11
1.094384486862137
 21
0.9833455323486745
 31
0.0
  0
LINE
  5
4DB
  8
COLOR_FEFEFEFF
 10
1.098946296034194
 20
0.9700389334285873
 30
0.0
 11
1.096953107834657
 21
0.976770096186071
 31
0.0
  0
LINE
  5
4DC
  8
COLOR_FEFEFEFF
 10
1.100379050962493
 20
0.9631845204855469
 30
0.0
 11
1.098946296034194
 21
0.9700389334285873
 31
0.0
  0
LINE
  5
4DD
  8
COLOR_FEFEFEFF
 10
1.101266372121295
 20
0.9562393337662735
 30
0.0
 11
1.100379050962493
 21
0.9631845204855469
 31
0.0
  0
LINE
  5
4DE
  8
COLOR_FEFEFEFF
 10
1.101623259012344
 20
0.9492358496800906
 30
0.0
 11
1.101266372121295
 21
0.9562393337662735
 31
0.0
  0
LINE
  5
4DF
  8
COLOR_FEFEFEFF
 10
1.101464711137383
 20
0.9422065446363218
 30
0.0
 11
1.101623259012344
 21
0.9492358496800906
 31
0.0
  0
LINE
  5
4E0
  8
COLOR_FEFEFEFF
 10
1.100805727998154
 20
0.9351838950442913
 30
0.0
 11
1.101464711137383
 21
0.9422065446363218
 31
0.0
  0
LINE
  5
4E1
  8
COLOR_FEFEFEFF
 10
1.099661309096402
 20
0.9282003773133221
 30
0.0
 11
1.100805727998154
 21
0.9351838950442913
 31
0.0
  0
LINE
  5
4E2
  8
COLOR_FEFEFEFF
 10
1.098046453933869
 20
0.9212884678527379
 30
0.0
 11
1.099661309096402
 21
0.9282003773133221
 31
0.0
  0
LINE
  5
4E3
  8
COLOR_FEFEFEFF
 10
1.095976162012297
 20
0.9144806430718629
 30
0.0
 11
1.098046453933869
 21
0.9212884678527379
 31
0.0
  0
LINE
  5
4E4
  8
COLOR_FEFEFEFF
 10
1.09346543283343
 20
0.90780937938002
 30
0.0
 11
1.095976162012297
 21
0.9144806430718629
 31
0.0
  0
LINE
  5
4E5
  8
COLOR_FEFEFEFF
 10
1.09052926589901
 20
0.9013071531865333
 30
0.0
 11
1.09346543283343
 21
0.90780937938002
 31
0.0
  0
LINE
  5
4E6
  8
COLOR_FEFEFEFF
 10
1.087182660710782
 20
0.8950064409007261
 30
0.0
 11
1.09052926589901
 21
0.9013071531865333
 31
0.0
  0
LINE
  5
4E7
  8
COLOR_FEFEFEFF
 10
1.083440616770487
 20
0.8889397189319226
 30
0.0
 11
1.087182660710782
 21
0.8950064409007261
 31
0.0
  0
LINE
  5
4E8
  8
COLOR_FEFEFEFF
 10
1.079318133579869
 20
0.8831394636894457
 30
0.0
 11
1.083440616770487
 21
0.8889397189319226
 31
0.0
  0
LINE
  5
4E9
  8
COLOR_FEFEFEFF
 10
1.074830210640671
 20
0.8776381515826197
 30
0.0
 11
1.079318133579869
 21
0.8831394636894457
 31
0.0
  0
LINE
  5
4EA
  8
COLOR_FEFEFEFF
 10
1.069991847454635
 20
0.8724682590207677
 30
0.0
 11
1.074830210640671
 21
0.8776381515826197
 31
0.0
  0
LINE
  5
4EB
  8
COLOR_FEFEFEFF
 10
1.064818043523505
 20
0.8676622624132138
 30
0.0
 11
1.069991847454635
 21
0.8724682590207677
 31
0.0
  0
LINE
  5
4EC
  8
COLOR_FEFEFEFF
 10
1.059323798349024
 20
0.8632526381692814
 30
0.0
 11
1.064818043523505
 21
0.8676622624132138
 31
0.0
  0
LINE
  5
4ED
  8
COLOR_FEFEFEFF
 10
1.053524111432935
 20
0.8592718626982941
 30
0.0
 11
1.059323798349024
 21
0.8632526381692814
 31
0.0
  0
LINE
  5
4EE
  8
COLOR_FEFEFEFF
 10
1.047433982276979
 20
0.8557524124095757
 30
0.0
 11
1.053524111432935
 21
0.8592718626982941
 31
0.0
  0
LINE
  5
4EF
  8
COLOR_FEFEFEFF
 10
1.041068410382902
 20
0.8527267637124497
 30
0.0
 11
1.047433982276979
 21
0.8557524124095757
 31
0.0
  0
LINE
  5
4F0
  8
COLOR_FEFEFEFF
 10
1.034442395252446
 20
0.8502273930162396
 30
0.0
 11
1.041068410382902
 21
0.8527267637124497
 31
0.0
  0
LINE
  5
4F1
  8
COLOR_FEFEFEFF
 10
1.027570936387353
 20
0.8482867767302694
 30
0.0
 11
1.034442395252446
 21
0.8502273930162396
 31
0.0
  0
LINE
  5
4F2
  8
COLOR_FEFEFEFF
 10
1.020469033289366
 20
0.8469373912638626
 30
0.0
 11
1.027570936387353
 21
0.8482867767302694
 31
0.0
  0
LINE
  5
4F3
  8
COLOR_FEFEFEFF
 10
1.013151685460229
 20
0.8462117130263427
 30
0.0
 11
1.020469033289366
 21
0.8469373912638626
 31
0.0
  0
LINE
  5
4F4
  8
COLOR_FEFEFEFF
 10
1.005134542146117
 20
0.8450474314563257
 30
0.0
 11
1.013151685460229
 21
0.8462117130263427
 31
0.0
  0
LINE
  5
4F5
  8
COLOR_FEFEFEFF
 10
0.9975010318106003
 20
0.8433137164539599
 30
0.0
 11
1.005134542146117
 21
0.8450474314563257
 31
0.0
  0
LINE
  5
4F6
  8
COLOR_FEFEFEFF
 10
0.9902285804847349
 20
0.8410438354360317
 30
0.0
 11
0.9975010318106003
 21
0.8433137164539599
 31
0.0
  0
LINE
  5
4F7
  8
COLOR_FEFEFEFF
 10
0.9832946141995749
 20
0.8382710558193275
 30
0.0
 11
0.9902285804847349
 21
0.8410438354360317
 31
0.0
  0
LINE
  5
4F8
  8
COLOR_FEFEFEFF
 10
0.976676558986176
 20
0.8350286450206337
 30
0.0
 11
0.9832946141995749
 21
0.8382710558193275
 31
0.0
  0
LINE
  5
4F9
  8
COLOR_FEFEFEFF
 10
0.9703518408755921
 20
0.8313498704567367
 30
0.0
 11
0.976676558986176
 21
0.8350286450206337
 31
0.0
  0
LINE
  5
4FA
  8
COLOR_FEFEFEFF
 10
0.9642978858988782
 20
0.8272679995444234
 30
0.0
 11
0.9703518408755921
 21
0.8313498704567367
 31
0.0
  0
LINE
  5
4FB
  8
COLOR_FEFEFEFF
 10
0.9584921200870898
 20
0.8228162997004794
 30
0.0
 11
0.9642978858988782
 21
0.8272679995444234
 31
0.0
  0
LINE
  5
4FC
  8
COLOR_FEFEFEFF
 10
0.9529119694712808
 20
0.8180280383416918
 30
0.0
 11
0.9584921200870898
 21
0.8228162997004794
 31
0.0
  0
LINE
  5
4FD
  8
COLOR_FEFEFEFF
 10
0.9475348600825064
 20
0.8129364828848472
 30
0.0
 11
0.9529119694712808
 21
0.8180280383416918
 31
0.0
  0
LINE
  5
4FE
  8
COLOR_FEFEFEFF
 10
0.9372994691102806
 20
0.8019765593441311
 30
0.0
 11
0.9475348600825064
 21
0.8129364828848472
 31
0.0
  0
LINE
  5
4FF
  8
COLOR_FEFEFEFF
 10
0.8999647605137217
 20
0.7526585846162627
 30
0.0
 11
0.9372994691102806
 21
0.8019765593441311
 31
0.0
  0
LINE
  5
500
  8
COLOR_FEFEFEFF
 10
0.8706943580795407
 20
0.7173698103372688
 30
0.0
 11
0.8809332348689871
 21
0.7284385795934069
 31
0.0
  0
LINE
  5
501
  8
COLOR_FEFEFEFF
 10
0.8653151323017394
 20
0.712212169981775
 30
0.0
 11
0.8706943580795407
 21
0.7173698103372688
 31
0.0
  0
LINE
  5
502
  8
COLOR_FEFEFEFF
 10
0.8597326163099595
 20
0.7073500490303797
 30
0.0
 11
0.8653151323017394
 21
0.712212169981775
 31
0.0
  0
LINE
  5
503
  8
COLOR_FEFEFEFF
 10
0.8539242361352553
 20
0.7028167148998694
 30
0.0
 11
0.8597326163099595
 21
0.7073500490303797
 31
0.0
  0
LINE
  5
504
  8
COLOR_FEFEFEFF
 10
0.8175178570681926
 20
0.6589089470239031
 30
0.0
 11
0.8380711199002352
 21
0.688791151233252
 31
0.0
  0
LINE
  5
505
  8
COLOR_FEFEFEFF
 10
0.8835458784037257
 20
0.658484288186562
 30
0.0
 11
0.8175178570681926
 21
0.6589089470239031
 31
0.0
  0
LINE
  5
506
  8
COLOR_FEFEFEFF
 10
0.8833720503568635
 20
0.6465002379440214
 30
0.0
 11
0.8835458784037259
 21
0.6584842881865618
 31
0.0
  0
LINE
  5
507
  8
COLOR_FEFEFEFF
 10
0.8815002059839688
 20
0.6287409135246139
 30
0.0
 11
0.8833720503568635
 21
0.6465002379440214
 31
0.0
  0
LINE
  5
508
  8
COLOR_FEFEFEFF
 10
0.8593598549120344
 20
0.5474240320378755
 30
0.0
 11
0.8815002059839688
 21
0.6287409135246139
 31
0.0
  0
LINE
  5
509
  8
COLOR_FEFEFEFF
 10
0.8494953729718351
 20
0.5062630141562026
 30
0.0
 11
0.8593598549120344
 21
0.5474240320378755
 31
0.0
  0
LINE
  5
50A
  8
COLOR_FEFEFEFF
 10
0.8474495733196676
 20
0.4882208100503414
 30
0.0
 11
0.8494953729718351
 21
0.5062630141562026
 31
0.0
  0
LINE
  5
50B
  8
COLOR_FEFEFEFF
 10
0.924120849497536
 20
0.4904614490983925
 30
0.0
 11
0.8474495733196676
 21
0.4882208100503414
 31
0.0
  0
LINE
  5
50C
  8
COLOR_FEFEFEFF
 10
0.9250625155930897
 20
0.4672641848014373
 30
0.0
 11
0.924120849497536
 21
0.4904614490983925
 31
0.0
  0
LINE
  5
50D
  8
COLOR_FEFEFEFF
 10
0.8194908802105082
 20
0.4677325700534776
 30
0.0
 11
0.9250625155930897
 21
0.4672641848014373
 31
0.0
  0
LINE
  5
50E
  8
COLOR_FEFEFEFF
 10
0.8632328785126837
 20
0.6337059767830217
 30
0.0
 11
0.8194908802105082
 21
0.4677325700534776
 31
0.0
  0
LINE
  5
50F
  8
COLOR_FEFEFEFF
 10
0.8024441237164817
 20
0.6348663575551079
 30
0.0
 11
0.8632328785126837
 21
0.6337059767830217
 31
0.0
  0
LINE
  5
510
  8
COLOR_FEFEFEFF
 10
0.7901008887896898
 20
0.6302662129206079
 30
0.0
 11
0.8024441237164817
 21
0.6348663575551079
 31
0.0
  0
LINE
  5
511
  8
COLOR_FEFEFEFF
 10
0.7877242428913025
 20
0.6288740389718831
 30
0.0
 11
0.7901008887896898
 21
0.6302662129206079
 31
0.0
  0
LINE
  5
512
  8
COLOR_FEFEFEFF
 10
0.7793586323366113
 20
0.6223749011109513
 30
0.0
 11
0.7877242428913025
 21
0.6288740389718831
 31
0.0
  0
LINE
  5
513
  8
COLOR_FEFEFEFF
 10
0.7744198047958748
 20
0.6166095249744412
 30
0.0
 11
0.7793586323366113
 21
0.6223749011109513
 31
0.0
  0
LINE
  5
514
  8
COLOR_FEFEFEFF
 10
0.7335850995067642
 20
0.5703755244114603
 30
0.0
 11
0.7744198047958748
 21
0.6166095249744412
 31
0.0
  0
LINE
  5
515
  8
COLOR_FEFEFEFF
 10
0.7677883228161368
 20
0.5548054239445891
 30
0.0
 11
0.7335850995067642
 21
0.5703755244114603
 31
0.0
  0
LINE
  5
516
  8
COLOR_FEFEFEFF
 10
0.7278799561038303
 20
0.4100081136083171
 30
0.0
 11
0.7677883228161368
 21
0.5548054239445891
 31
0.0
  0
LINE
  5
517
  8
COLOR_FEFEFEFF
 10
0.8101545211168713
 20
0.4104981260456939
 30
0.0
 11
0.7278799561038303
 21
0.4100081136083171
 31
0.0
  0
LINE
  5
518
  8
COLOR_FEFEFEFF
 10
0.8660459039170095
 20
0.4077280803378359
 30
0.0
 11
0.8101545211168713
 21
0.4104981260456939
 31
0.0
  0
LINE
  5
519
  8
COLOR_FEFEFEFF
 10
1.044099447883393
 20
0.4086544327504708
 30
0.0
 11
0.8660459039170095
 21
0.4077280803378359
 31
0.0
  0
LINE
  5
51A
  8
COLOR_FEFEFEFF
 10
1.081446777828611
 20
0.405054942092771
 30
0.0
 11
1.044099447883393
 21
0.4086544327504708
 31
0.0
  0
LINE
  5
51B
  8
COLOR_FEFEFEFF
 10
1.074259651894972
 20
0.424147972177803
 30
0.0
 11
1.081446777828611
 21
0.405054942092771
 31
0.0
  0
LINE
  5
51C
  8
COLOR_FEFEFEFF
 10
1.38958850785977
 20
0.4236574747523484
 30
0.0
 11
1.074259651894972
 21
0.424147972177803
 31
0.0
  0
LINE
  5
51D
  8
COLOR_FEFEFEFF
 10
1.442403991398943
 20
0.4288453717143893
 30
0.0
 11
1.38958850785977
 21
0.4236574747523484
 31
0.0
  0
LINE
  5
51E
  8
COLOR_FEFEFEFF
 10
1.452050238078495
 20
0.435589163602353
 30
0.0
 11
1.442403991398943
 21
0.4288453717143893
 31
0.0
  0
LINE
  5
51F
  8
COLOR_FEFEFEFF
 10
1.453812321700293
 20
0.437393874589204
 30
0.0
 11
1.452050238078495
 21
0.435589163602353
 31
0.0
  0
LINE
  5
520
  8
COLOR_FEFEFEFF
 10
1.577144735983856
 20
0.4395570981936139
 30
0.0
 11
1.453812321700293
 21
0.437393874589204
 31
0.0
  0
LINE
  5
521
  8
COLOR_FEFEFEFF
 10
1.556850265529867
 20
0.4194537784882011
 30
0.0
 11
1.577144735983856
 21
0.4395570981936139
 31
0.0
  0
LINE
  5
522
  8
COLOR_FEFEFEFF
 10
1.562261605348626
 20
0.3127705312162705
 30
0.0
 11
1.556850265529867
 21
0.4194537784882011
 31
0.0
  0
LINE
  5
523
  8
COLOR_FEFEFEFF
 10
1.633750432830425
 20
0.314623678538641
 30
0.0
 11
1.562261605348626
 21
0.3127705312162705
 31
0.0
  0
LINE
  5
524
  8
COLOR_FEFEFEFF
 10
1.634570986847477
 20
0.3088033112551641
 30
0.0
 11
1.633750432830425
 21
0.314623678538641
 31
0.0
  0
LINE
  5
525
  8
COLOR_FEFEFEFF
 10
1.634809535018294
 20
0.3035191780576181
 30
0.0
 11
1.634570986847477
 21
0.3088033112551641
 31
0.0
  0
LINE
  5
526
  8
COLOR_FEFEFEFF
 10
1.634496776295255
 20
0.298744289512477
 30
0.0
 11
1.634809535018294
 21
0.3035191780576181
 31
0.0
  0
LINE
  5
527
  8
COLOR_FEFEFEFF
 10
1.633663409630733
 20
0.2944516561862168
 30
0.0
 11
1.634496776295255
 21
0.298744289512477
 31
0.0
  0
LINE
  5
528
  8
COLOR_FEFEFEFF
 10
1.632340133977109
 20
0.2906142886453124
 30
0.0
 11
1.633663409630733
 21
0.2944516561862168
 31
0.0
  0
LINE
  5
529
  8
COLOR_FEFEFEFF
 10
1.630557648286755
 20
0.2872051974562394
 30
0.0
 11
1.632340133977109
 21
0.2906142886453124
 31
0.0
  0
LINE
  5
52A
  8
COLOR_FEFEFEFF
 10
1.628346651512049
 20
0.284197393185474
 30
0.0
 11
1.630557648286755
 21
0.2872051974562394
 31
0.0
  0
LINE
  5
52B
  8
COLOR_FEFEFEFF
 10
1.625737842605369
 20
0.2815638863994897
 30
0.0
 11
1.628346651512049
 21
0.284197393185474
 31
0.0
  0
LINE
  5
52C
  8
COLOR_FEFEFEFF
 10
1.622761920519089
 20
0.2792776876647633
 30
0.0
 11
1.625737842605369
 21
0.2815638863994897
 31
0.0
  0
LINE
  5
52D
  8
COLOR_FEFEFEFF
 10
1.619449584205586
 20
0.2773118075477702
 30
0.0
 11
1.622761920519089
 21
0.2792776876647633
 31
0.0
  0
LINE
  5
52E
  8
COLOR_FEFEFEFF
 10
1.615831532617237
 20
0.2756392566149854
 30
0.0
 11
1.619449584205586
 21
0.2773118075477702
 31
0.0
  0
LINE
  5
52F
  8
COLOR_FEFEFEFF
 10
1.611938464706419
 20
0.2742330454328842
 30
0.0
 11
1.615831532617237
 21
0.2756392566149854
 31
0.0
  0
LINE
  5
530
  8
COLOR_FEFEFEFF
 10
1.603450075726876
 20
0.2721116845866344
 30
0.0
 11
1.611938464706419
 21
0.2742330454328842
 31
0.0
  0
LINE
  5
531
  8
COLOR_FEFEFEFF
 10
1.589422343648446
 20
0.2702524556092719
 30
0.0
 11
1.603450075726876
 21
0.2721116845866344
 31
0.0
  0
LINE
  5
532
  8
COLOR_FEFEFEFF
 10
1.545750213426377
 20
0.2673976799314636
 30
0.0
 11
1.589422343648446
 21
0.2702524556092719
 31
0.0
  0
LINE
  5
533
  8
COLOR_FEFEFEFF
 10
1.537297503416522
 20
0.2659324948561509
 30
0.0
 11
1.545750213426377
 21
0.2673976799314636
 31
0.0
  0
LINE
  5
534
  8
COLOR_FEFEFEFF
 10
1.533426097737299
 20
0.2649246761064046
 30
0.0
 11
1.537297503416522
 21
0.2659324948561509
 31
0.0
  0
LINE
  5
535
  8
COLOR_FEFEFEFF
 10
1.168800314115248
 20
0.2251556345809639
 30
0.0
 11
1.533426097737299
 21
0.2649246761064046
 31
0.0
  0
LINE
  5
536
  8
COLOR_FEFEFEFF
 10
1.144443168986962
 20
0.2167318712729246
 30
0.0
 11
1.168800314115248
 21
0.2251556345809639
 31
0.0
  0
LINE
  5
537
  8
COLOR_FEFEFEFF
 10
1.123550764681303
 20
0.2192240099705024
 30
0.0
 11
1.144443168986962
 21
0.2167318712729246
 31
0.0
  0
LINE
  5
538
  8
COLOR_FEFEFEFF
 10
1.112059554270474
 20
0.2264934025826296
 30
0.0
 11
1.123550764681303
 21
0.2192240099705024
 31
0.0
  0
LINE
  5
539
  8
COLOR_FEFEFEFF
 10
0.9252662280209057
 20
0.2038723523354198
 30
0.0
 11
1.112059554270474
 21
0.22649340258263
 31
0.0
  0
LINE
  5
53A
  8
COLOR_FEFEFEFF
 10
0.8731231799095913
 20
0.2028535448381549
 30
0.0
 11
0.9252662280209057
 21
0.2038723523354198
 31
0.0
  0
LINE
  5
53B
  8
COLOR_FEFEFEFF
 10
0.8420239279854547
 20
0.2041743006550845
 30
0.0
 11
0.8731231799095913
 21
0.2028535448381549
 31
0.0
  0
LINE
  5
53C
  8
COLOR_FEFEFEFF
 10
0.811140764439429
 20
0.2072084978690126
 30
0.0
 11
0.8420239279854547
 21
0.2041743006550845
 31
0.0
  0
LINE
  5
53D
  8
COLOR_FEFEFEFF
 10
0.8740257318347775
 20
0.2332912110657828
 30
0.0
 11
0.811140764439429
 21
0.2072084978690126
 31
0.0
  0
LINE
  5
53E
  8
COLOR_FEFEFEFF
 10
0.864481562983005
 20
0.2363934428952273
 30
0.0
 11
0.8740257318347775
 21
0.2332912110657828
 31
0.0
  0
LINE
  5
53F
  8
COLOR_FEFEFEFF
 10
0.8548968238703581
 20
0.2384749887934843
 30
0.0
 11
0.864481562983005
 21
0.2363934428952273
 31
0.0
  0
LINE
  5
540
  8
COLOR_FEFEFEFF
 10
0.8404516013919926
 20
0.2399756498657492
 30
0.0
 11
0.8548968238703581
 21
0.2384749887934843
 31
0.0
  0
LINE
  5
541
  8
COLOR_FEFEFEFF
 10
0.7674085768178603
 20
0.2333128587761095
 30
0.0
 11
0.8404516013919926
 21
0.2399756498657492
 31
0.0
  0
LINE
  5
542
  8
COLOR_FEFEFEFF
 10
0.7380392576797481
 20
0.2324501936904778
 30
0.0
 11
0.7674085768178603
 21
0.2333128587761095
 31
0.0
  0
LINE
  5
543
  8
COLOR_FEFEFEFF
 10
0.7331475886032166
 20
0.2328350072695859
 30
0.0
 11
0.7380392576797481
 21
0.2324501936904778
 31
0.0
  0
LINE
  5
544
  8
COLOR_FEFEFEFF
 10
0.7545969990288182
 20
0.2158590079964803
 30
0.0
 11
0.7331475886032166
 21
0.2328350072695859
 31
0.0
  0
LINE
  5
545
  8
COLOR_FEFEFEFF
 10
0.788457045187878
 20
0.2201484703651714
 30
0.0
 11
0.7545969990288182
 21
0.2158590079964803
 31
0.0
  0
LINE
  5
546
  8
COLOR_FEFEFEFF
 10
0.8155516235826605
 20
0.1929104438786666
 30
0.0
 11
0.788457045187878
 21
0.2201484703651714
 31
0.0
  0
LINE
  5
547
  8
COLOR_FEFEFEFF
 10
0.4397531536316532
 20
0.1618192883149718
 30
0.0
 11
0.8155516235826608
 21
0.192910443878667
 31
0.0
  0
LINE
  5
548
  8
COLOR_FEFEFEFF
 10
0.425583461289858
 20
0.1976253626489832
 30
0.0
 11
0.4397531536316532
 21
0.1618192883149718
 31
0.0
  0
LINE
  5
549
  8
COLOR_FEFEFEFF
 10
0.4959492954003054
 20
0.2199165818673618
 30
0.0
 11
0.425583461289858
 21
0.1976253626489832
 31
0.0
  0
LINE
  5
54A
  8
COLOR_FEFEFEFF
 10
0.4851134378047799
 20
0.327088389705141
 30
0.0
 11
0.4959492954003054
 21
0.2199165818673618
 31
0.0
  0
LINE
  5
54B
  8
COLOR_FEFEFEFF
 10
0.4147939937288958
 20
0.3127231901928387
 30
0.0
 11
0.4851134378047799
 21
0.327088389705141
 31
0.0
  0
LINE
  5
54C
  8
COLOR_FEFEFEFF
 10
0.4100734626807479
 20
0.3521621226483659
 30
0.0
 11
0.4147939937288958
 21
0.3127231901928387
 31
0.0
  0
LINE
  5
54D
  8
COLOR_FEFEFEFF
 10
0.5767627884379886
 20
0.3922421851741703
 30
0.0
 11
0.410073462680748
 21
0.3521621226483662
 31
0.0
  0
LINE
  5
54E
  8
COLOR_FEFEFEFF
 10
0.6050823391210298
 20
0.3797567054431157
 30
0.0
 11
0.5767627884379886
 21
0.3922421851741703
 31
0.0
  0
LINE
  5
54F
  8
COLOR_FEFEFEFF
 10
0.6028485368968022
 20
0.3650888695091439
 30
0.0
 11
0.6050823391210298
 21
0.3797567054431157
 31
0.0
  0
LINE
  5
550
  8
COLOR_FEFEFEFF
 10
0.7271097988150398
 20
0.3788548651411288
 30
0.0
 11
0.6028485368968022
 21
0.3650888695091439
 31
0.0
  0
LINE
  5
551
  8
COLOR_FEFEFEFF
 10
0.7747386487017256
 20
0.3744615133774636
 30
0.0
 11
0.7271097988150398
 21
0.3788548651411288
 31
0.0
  0
LINE
  5
552
  8
COLOR_FEFEFEFF
 10
0.7709145079869425
 20
0.379281901024402
 30
0.0
 11
0.7747386487017256
 21
0.3744615133774636
 31
0.0
  0
LINE
  5
553
  8
COLOR_FEFEFEFF
 10
0.7666560278885671
 20
0.383108419128031
 30
0.0
 11
0.7709145079869425
 21
0.379281901024402
 31
0.0
  0
LINE
  5
554
  8
COLOR_FEFEFEFF
 10
0.7596057463544101
 20
0.3873026639442337
 30
0.0
 11
0.7666560278885671
 21
0.383108419128031
 31
0.0
  0
LINE
  5
555
  8
COLOR_FEFEFEFF
 10
0.7227303867034675
 20
0.3960473995161781
 30
0.0
 11
0.7596057463544101
 21
0.3873026639442337
 31
0.0
  0
LINE
  5
556
  8
COLOR_FEFEFEFF
 10
0.7131786166999916
 20
0.3998488868022715
 30
0.0
 11
0.7227303867034675
 21
0.3960473995161781
 31
0.0
  0
LINE
  5
557
  8
COLOR_FEFEFEFF
 10
0.7089137680128043
 20
0.4026935912331133
 30
0.0
 11
0.7131786166999916
 21
0.3998488868022715
 31
0.0
  0
LINE
  5
558
  8
COLOR_FEFEFEFF
 10
0.705082151128546
 20
0.4063614150033019
 30
0.0
 11
0.7089137680128043
 21
0.4026935912331133
 31
0.0
  0
LINE
  5
559
  8
COLOR_FEFEFEFF
 10
0.7323429468601321
 20
0.5071675034744687
 30
0.0
 11
0.705082151128546
 21
0.4063614150033019
 31
0.0
  0
LINE
  5
55A
  8
COLOR_FEFEFEFF
 10
0.7341018681703158
 20
0.5267980551762598
 30
0.0
 11
0.7323429468601321
 21
0.5071675034744687
 31
0.0
  0
LINE
  5
55B
  8
COLOR_FEFEFEFF
 10
0.7336237808937334
 20
0.5417166608852723
 30
0.0
 11
0.7341018681703158
 21
0.5267980551762598
 31
0.0
  0
LINE
  5
55C
  8
COLOR_FEFEFEFF
 10
0.7330635099614103
 20
0.5467325466728197
 30
0.0
 11
0.7336237808937334
 21
0.5417166608852723
 31
0.0
  0
LINE
  5
55D
  8
COLOR_FEFEFEFF
 10
0.716166791684857
 20
0.5521775416218101
 30
0.0
 11
0.7330635099614103
 21
0.5467325466728197
 31
0.0
  0
LINE
  5
55E
  8
COLOR_FEFEFEFF
 10
0.6739492061486551
 20
0.5134184506672982
 30
0.0
 11
0.716166791684857
 21
0.5521775416218101
 31
0.0
  0
LINE
  5
55F
  8
COLOR_FEFEFEFF
 10
0.6624451491280023
 20
0.5097877359657185
 30
0.0
 11
0.6739492061486551
 21
0.5134184506672982
 31
0.0
  0
LINE
  5
560
  8
COLOR_FEFEFEFF
 10
0.6556468380748466
 20
0.5087683424643268
 30
0.0
 11
0.6624451491280023
 21
0.5097877359657185
 31
0.0
  0
LINE
  5
561
  8
COLOR_FEFEFEFF
 10
0.6391242226162387
 20
0.5068443107641517
 30
0.0
 11
0.6556468380748466
 21
0.5087683424643268
 31
0.0
  0
LINE
  5
562
  8
COLOR_FEFEFEFF
 10
0.6382289938562156
 20
0.5514902296624223
 30
0.0
 11
0.6391242226162387
 21
0.5068443107641517
 31
0.0
  0
LINE
  5
563
  8
COLOR_FEFEFEFF
 10
0.6594731948415288
 20
0.5753632461117405
 30
0.0
 11
0.6382289938562156
 21
0.5514902296624223
 31
0.0
  0
LINE
  5
564
  8
COLOR_FEFEFEFF
 10
0.6544568231126704
 20
0.5869346317890061
 30
0.0
 11
0.6594731948415288
 21
0.5753632461117405
 31
0.0
  0
LINE
  5
565
  8
COLOR_FEFEFEFF
 10
0.6407816497432002
 20
0.607723482984723
 30
0.0
 11
0.6544568231126704
 21
0.5869346317890061
 31
0.0
  0
LINE
  5
566
  8
COLOR_FEFEFEFF
 10
0.5925536824282494
 20
0.6659304875997467
 30
0.0
 11
0.6407816497432002
 21
0.607723482984723
 31
0.0
  0
LINE
  5
567
  8
COLOR_FEFEFEFF
 10
0.5884840993647849
 20
0.6733209754153756
 30
0.0
 11
0.5925536824282494
 21
0.6659304875997467
 31
0.0
  0
LINE
  5
568
  8
COLOR_FEFEFEFF
 10
0.5828534259257475
 20
0.6859961535964962
 30
0.0
 11
0.5884840993647849
 21
0.6733209754153756
 31
0.0
  0
LINE
  5
569
  8
COLOR_FEFEFEFF
 10
0.577988460399451
 20
0.6988850157739592
 30
0.0
 11
0.5828534259257475
 21
0.6859961535964962
 31
0.0
  0
LINE
  5
56A
  8
COLOR_FEFEFEFF
 10
0.5738795343715025
 20
0.7119560400020749
 30
0.0
 11
0.577988460399451
 21
0.6988850157739592
 31
0.0
  0
LINE
  5
56B
  8
COLOR_FEFEFEFF
 10
0.5705169794275085
 20
0.7251777043351542
 30
0.0
 11
0.5738795343715025
 21
0.7119560400020749
 31
0.0
  0
LINE
  5
56C
  8
COLOR_FEFEFEFF
 10
0.5678911271530762
 20
0.7385184868275071
 30
0.0
 11
0.5705169794275085
 21
0.7251777043351542
 31
0.0
  0
LINE
  5
56D
  8
COLOR_FEFEFEFF
 10
0.5659923091338122
 20
0.7519468655334447
 30
0.0
 11
0.5678911271530762
 21
0.7385184868275071
 31
0.0
  0
LINE
  5
56E
  8
COLOR_FEFEFEFF
 10
0.5648108569553228
 20
0.7654313185072773
 30
0.0
 11
0.5659923091338122
 21
0.7519468655334447
 31
0.0
  0
LINE
  5
56F
  8
COLOR_FEFEFEFF
 10
0.5643371022032156
 20
0.7789403238033152
 30
0.0
 11
0.5648108569553228
 21
0.7654313185072773
 31
0.0
  0
LINE
  5
570
  8
COLOR_FEFEFEFF
 10
0.5645613764630971
 20
0.7924423594758692
 30
0.0
 11
0.5643371022032156
 21
0.7789403238033152
 31
0.0
  0
LINE
  5
571
  8
COLOR_FEFEFEFF
 10
0.5654740113205737
 20
0.80590590357925
 30
0.0
 11
0.5645613764630971
 21
0.7924423594758692
 31
0.0
  0
LINE
  5
572
  8
COLOR_FEFEFEFF
 10
0.5670653383612527
 20
0.8192994341677678
 30
0.0
 11
0.5654740113205737
 21
0.80590590357925
 31
0.0
  0
LINE
  5
573
  8
COLOR_FEFEFEFF
 10
0.569325689170741
 20
0.8325914292957333
 30
0.0
 11
0.5670653383612527
 21
0.8192994341677678
 31
0.0
  0
LINE
  5
574
  8
COLOR_FEFEFEFF
 10
0.5722453953346448
 20
0.8457503670174574
 30
0.0
 11
0.569325689170741
 21
0.8325914292957333
 31
0.0
  0
LINE
  5
575
  8
COLOR_FEFEFEFF
 10
0.5758147884385713
 20
0.8587447253872499
 30
0.0
 11
0.5722453953346448
 21
0.8457503670174574
 31
0.0
  0
LINE
  5
576
  8
COLOR_FEFEFEFF
 10
0.5800242000681272
 20
0.8715429824594219
 30
0.0
 11
0.5758147884385713
 21
0.8587447253872499
 31
0.0
  0
LINE
  5
577
  8
COLOR_FEFEFEFF
 10
0.5848639618089193
 20
0.8841136162882839
 30
0.0
 11
0.5800242000681272
 21
0.8715429824594219
 31
0.0
  0
LINE
  5
578
  8
COLOR_FEFEFEFF
 10
0.5903244052465544
 20
0.896425104928146
 30
0.0
 11
0.5848639618089193
 21
0.8841136162882839
 31
0.0
  0
LINE
  5
579
  8
COLOR_FEFEFEFF
 10
0.5963958619666393
 20
0.908445926433319
 30
0.0
 11
0.5903244052465544
 21
0.896425104928146
 31
0.0
  0
LINE
  5
57A
  8
COLOR_FEFEFEFF
 10
0.6030686635547808
 20
0.920144558858114
 30
0.0
 11
0.5963958619666393
 21
0.908445926433319
 31
0.0
  0
LINE
  5
57B
  8
COLOR_FEFEFEFF
 10
0.6103331415965857
 20
0.9314894802568404
 30
0.0
 11
0.6030686635547808
 21
0.920144558858114
 31
0.0
  0
LINE
  5
57C
  8
COLOR_FEFEFEFF
 10
0.6181796276776608
 20
0.9424491686838097
 30
0.0
 11
0.6103331415965857
 21
0.9314894802568404
 31
0.0
  0
LINE
  5
57D
  8
COLOR_FEFEFEFF
 10
0.6265984533836129
 20
0.9529921021933322
 30
0.0
 11
0.6181796276776608
 21
0.9424491686838097
 31
0.0
  0
LINE
  5
57E
  8
COLOR_FEFEFEFF
 10
0.6355799503000488
 20
0.9630867588397182
 30
0.0
 11
0.6265984533836129
 21
0.9529921021933322
 31
0.0
  0
LINE
  5
57F
  8
COLOR_FEFEFEFF
 10
0.6451144500125751
 20
0.9727016166772785
 30
0.0
 11
0.6355799503000488
 21
0.9630867588397182
 31
0.0
  0
LINE
  5
580
  8
COLOR_FEFEFEFF
 10
0.6551922841067986
 20
0.9818051537603236
 30
0.0
 11
0.6451144500125751
 21
0.9727016166772785
 31
0.0
  0
LINE
  5
581
  8
COLOR_FEFEFEFF
 10
0.6658037841683268
 20
0.9903658481431638
 30
0.0
 11
0.6551922841067986
 21
0.9818051537603236
 31
0.0
  0
LINE
  5
582
  8
COLOR_FEFEFEFF
 10
0.6769392817827654
 20
0.9983521778801098
 30
0.0
 11
0.6658037841683268
 21
0.9903658481431638
 31
0.0
  0
LINE
  5
583
  8
COLOR_FEFEFEFF
 10
0.6885891085357222
 20
1.005732621025472
 30
0.0
 11
0.6769392817827654
 21
0.9983521778801098
 31
0.0
  0
LINE
  5
584
  8
COLOR_FEFEFEFF
 10
0.7007435960128032
 20
1.012475655633562
 30
0.0
 11
0.6885891085357222
 21
1.005732621025472
 31
0.0
  0
LINE
  5
585
  8
COLOR_FEFEFEFF
 10
0.7005383356821927
 20
1.017043092254866
 30
0.0
 11
0.7007435960128032
 21
1.012475655633562
 31
0.0
  0
LINE
  5
586
  8
COLOR_FEFEFEFF
 10
0.6999731053689445
 20
1.021382514690093
 30
0.0
 11
0.7005383356821927
 21
1.017043092254866
 31
0.0
  0
LINE
  5
587
  8
COLOR_FEFEFEFF
 10
0.6990650341301
 20
1.025497759013926
 30
0.0
 11
0.6999731053689445
 21
1.021382514690093
 31
0.0
  0
LINE
  5
588
  8
COLOR_FEFEFEFF
 10
0.6978312510226984
 20
1.02939266130105
 30
0.0
 11
0.6990650341301
 21
1.025497759013926
 31
0.0
  0
LINE
  5
589
  8
COLOR_FEFEFEFF
 10
0.6962888851037811
 20
1.033071057626145
 30
0.0
 11
0.6978312510226984
 21
1.02939266130105
 31
0.0
  0
LINE
  5
58A
  8
COLOR_FEFEFEFF
 10
0.6944550654303877
 20
1.036536784063897
 30
0.0
 11
0.6962888851037811
 21
1.033071057626145
 31
0.0
  0
LINE
  5
58B
  8
COLOR_FEFEFEFF
 10
0.692346921059558
 20
1.039793676688989
 30
0.0
 11
0.6944550654303877
 21
1.036536784063897
 31
0.0
  0
LINE
  5
58C
  8
COLOR_FEFEFEFF
 10
0.6899815810483334
 20
1.042845571576104
 30
0.0
 11
0.692346921059558
 21
1.039793676688989
 31
0.0
  0
LINE
  5
58D
  8
COLOR_FEFEFEFF
 10
0.6845478303328583
 20
1.048349712435134
 30
0.0
 11
0.6899815810483334
 21
1.042845571576104
 31
0.0
  0
LINE
  5
58E
  8
COLOR_FEFEFEFF
 10
0.6782908457402844
 20
1.053079895238455
 30
0.0
 11
0.6845478303328583
 21
1.048349712435134
 31
0.0
  0
LINE
  5
58F
  8
COLOR_FEFEFEFF
 10
0.6713476597269333
 20
1.057066808583533
 30
0.0
 11
0.6782908457402844
 21
1.053079895238455
 31
0.0
  0
LINE
  5
590
  8
COLOR_FEFEFEFF
 10
0.6599460115411552
 20
1.061720679673902
 30
0.0
 11
0.6713476597269333
 21
1.057066808583533
 31
0.0
  0
LINE
  5
591
  8
COLOR_FEFEFEFF
 10
0.6436210785797384
 20
1.065610824933561
 30
0.0
 11
0.6599460115411552
 21
1.061720679673902
 31
0.0
  0
LINE
  5
592
  8
COLOR_FEFEFEFF
 10
0.622952131364553
 20
1.067098191489009
 30
0.0
 11
0.6436210785797384
 21
1.065610824933561
 31
0.0
  0
LINE
  5
593
  8
COLOR_FEFEFEFF
 10
0.6112328078995529
 20
1.066374574996874
 30
0.0
 11
0.622952131364553
 21
1.067098191489009
 31
0.0
  0
LINE
  5
594
  8
COLOR_FEFEFEFF
 10
0.6039359420305519
 20
1.065630423301428
 30
0.0
 11
0.6112328078995529
 21
1.066374574996874
 31
0.0
  0
LINE
  5
595
  8
COLOR_FEFEFEFF
 10
0.5967780414188169
 20
1.064544635137845
 30
0.0
 11
0.6039359420305519
 21
1.065630423301428
 31
0.0
  0
LINE
  5
596
  8
COLOR_FEFEFEFF
 10
0.5897524173744032
 20
1.063135096018442
 30
0.0
 11
0.5967780414188169
 21
1.064544635137845
 31
0.0
  0
LINE
  5
597
  8
COLOR_FEFEFEFF
 10
0.5828523812073657
 20
1.061419691455533
 30
0.0
 11
0.5897524173744032
 21
1.063135096018442
 31
0.0
  0
LINE
  5
598
  8
COLOR_FEFEFEFF
 10
0.5694023177456398
 20
1.057142828048461
 30
0.0
 11
0.5828523812073657
 21
1.061419691455533
 31
0.0
  0
LINE
  5
599
  8
COLOR_FEFEFEFF
 10
0.5563743415140788
 20
1.051857129015153
 30
0.0
 11
0.5694023177456398
 21
1.057142828048461
 31
0.0
  0
LINE
  5
59A
  8
COLOR_FEFEFEFF
 10
0.5375067386492607
 20
1.04235001013152
 30
0.0
 11
0.5563743415140788
 21
1.051857129015153
 31
0.0
  0
LINE
  5
59B
  8
COLOR_FEFEFEFF
 10
0.4551167514809421
 20
0.9864165204954176
 30
0.0
 11
0.5375067386492607
 21
1.04235001013152
 31
0.0
  0
LINE
  5
59C
  8
COLOR_FEFEFEFF
 10
0.4316031190896584
 20
0.9714434317663422
 30
0.0
 11
0.4551167514809421
 21
0.9864165204954176
 31
0.0
  0
LINE
  5
59D
  8
COLOR_FEFEFEFF
 10
0.459436318234218
 20
1.033238608649084
 30
0.0
 11
0.4316031190896584
 21
0.9714434317663422
 31
0.0
  0
LINE
  5
59E
  8
COLOR_FEFEFEFF
 10
0.4586817164476877
 20
1.037734853900262
 30
0.0
 11
0.459436318234218
 21
1.033238608649084
 31
0.0
  0
LINE
  5
59F
  8
COLOR_FEFEFEFF
 10
0.4583013068175085
 20
1.042056976765737
 30
0.0
 11
0.4586817164476877
 21
1.037734853900262
 31
0.0
  0
LINE
  5
5A0
  8
COLOR_FEFEFEFF
 10
0.4582773939470863
 20
1.046211786553815
 30
0.0
 11
0.4583013068175085
 21
1.042056976765737
 31
0.0
  0
LINE
  5
5A1
  8
COLOR_FEFEFEFF
 10
0.4585922824398256
 20
1.050206092572801
 30
0.0
 11
0.4582773939470863
 21
1.046211786553815
 31
0.0
  0
LINE
  5
5A2
  8
COLOR_FEFEFEFF
 10
0.4592282768991322
 20
1.054046704131002
 30
0.0
 11
0.4585922824398256
 21
1.050206092572801
 31
0.0
  0
LINE
  5
5A3
  8
COLOR_FEFEFEFF
 10
0.4601676819284108
 20
1.057740430536722
 30
0.0
 11
0.4592282768991322
 21
1.054046704131002
 31
0.0
  0
LINE
  5
5A4
  8
COLOR_FEFEFEFF
 10
0.4628859421105049
 20
1.064714465123947
 30
0.0
 11
0.4601676819284108
 21
1.057740430536722
 31
0.0
  0
LINE
  5
5A5
  8
COLOR_FEFEFEFF
 10
0.4666054998133494
 20
1.07118267080092
 30
0.0
 11
0.4628859421105049
 21
1.064714465123947
 31
0.0
  0
LINE
  5
5A6
  8
COLOR_FEFEFEFF
 10
0.4737525997786133
 20
1.080055713005009
 30
0.0
 11
0.4666054998133494
 21
1.07118267080092
 31
0.0
  0
LINE
  5
5A7
  8
COLOR_FEFEFEFF
 10
0.49526804009227
 20
1.09784287185763
 30
0.0
 11
0.4737525997786133
 21
1.080055713005009
 31
0.0
  0
LINE
  5
5A8
  8
COLOR_FEFEFEFF
 10
0.5248159027459777
 20
1.11781724488704
 30
0.0
 11
0.49526804009227
 21
1.09784287185763
 31
0.0
  0
LINE
  5
5A9
  8
COLOR_FEFEFEFF
 10
0.4973352365083368
 20
1.129809274176432
 30
0.0
 11
0.5248159027459777
 21
1.11781724488704
 31
0.0
  0
LINE
  5
5AA
  8
COLOR_FEFEFEFF
 10
0.4711186462326478
 20
1.125922062955529
 30
0.0
 11
0.4973352365083368
 21
1.129809274176432
 31
0.0
  0
LINE
  5
5AB
  8
COLOR_FEFEFEFF
 10
0.4792097988598881
 20
1.14207040770695
 30
0.0
 11
0.4711186462326478
 21
1.125922062955529
 31
0.0
  0
LINE
  5
5AC
  8
COLOR_FEFEFEFF
 10
0.5304292441920814
 20
1.186887276665451
 30
0.0
 11
0.4792097988598881
 21
1.14207040770695
 31
0.0
  0
LINE
  5
5AD
  8
COLOR_FEFEFEFF
 10
0.5756674740765472
 20
1.214019303843693
 30
0.0
 11
0.5304292441920814
 21
1.186887276665451
 31
0.0
  0
LINE
  5
5AE
  8
COLOR_FEFEFEFF
 10
0.5783644647455162
 20
1.21527057266936
 30
0.0
 11
0.5756674740765472
 21
1.214019303843693
 31
0.0
  0
LINE
  5
5AF
  8
COLOR_FEFEFEFF
 10
0.6808307600376711
 20
1.233256780440761
 30
0.0
 11
0.5783644647455162
 21
1.21527057266936
 31
0.0
  0
LINE
  5
5B0
  8
COLOR_FEFEFEFF
 10
0.5803754665522016
 20
1.256771917578479
 30
0.0
 11
0.6808307600376711
 21
1.233256780440761
 31
0.0
  0
LINE
  5
5B1
  8
COLOR_FEFEFEFF
 10
0.5769290325696176
 20
1.258162604923332
 30
0.0
 11
0.5803754665522016
 21
1.256771917578479
 31
0.0
  0
LINE
  5
5B2
  8
COLOR_FEFEFEFF
 10
0.5438664178761543
 20
1.254751271510425
 30
0.0
 11
0.5769290325696176
 21
1.258162604923332
 31
0.0
  0
LINE
  5
5B3
  8
COLOR_FEFEFEFF
 10
0.5516250279035625
 20
1.280325038119564
 30
0.0
 11
0.5438664178761543
 21
1.254751271510425
 31
0.0
  0
LINE
  5
5B4
  8
COLOR_FEFEFEFF
 10
0.0
 20
0.0
 30
0.0
 11
0.0
 21
1.458333333333333
 31
0.0
  0
LINE
  5
5B5
  8
COLOR_FEFEFEFF
 10
1.722222222222222
 20
0.0
 30
0.0
 11
0.0
 21
0.0
 31
0.0
  0
LINE
  5
5B6
  8
COLOR_FEFEFEFF
 10
1.722222222222222
 20
1.458333333333333
 30
0.0
 11
1.722222222222222
 21
0.0
 31
0.0
  0
LINE
  5
5B7
  8
COLOR_FEFEFEFF
 10
0.0
 20
1.458333333333333
 30
0.0
 11
1.722222222222222
 21
1.458333333333333
 31
0.0
  0
ENDSEC
  0
EOF
