  0
SECTION
  2
HEADER
  9
$ACADVER
  1
AC1015
  9
$ACADMAINTVER
 70
     6
  9
$DWGCODEPAGE
  3
ANSI_1252
  9
$INSBASE
 10
0.0
 20
0.0
 30
0.0
  9
$EXTMIN
 10
1.000000E+20
 20
1.000000E+20
 30
1.000000E+20
  9
$EXTMAX
 10
-1.000000E+20
 20
-1.000000E+20
 30
-1.000000E+20
  9
$LIMMIN
 10
0.0
 20
0.0
  9
$LIMMAX
 10
420.0
 20
297.0
  9
$ORTHOMODE
 70
     0
  9
$REGENMODE
 70
     1
  9
$FILLMODE
 70
     1
  9
$QTEXTMODE
 70
     0
  9
$MIRRTEXT
 70
     1
  9
$LTSCALE
 40
1.0
  9
$ATTMODE
 70
     1
  9
$TEXTSIZE
 40
2.5
  9
$TRACEWID
 40
1.0
  9
$TEXTSTYLE
  7
Standard
  9
$CLAYER
  8
0
  9
$CELTYPE
  6
ByLayer
  9
$CECOLOR
 62
   256
  9
$CELTSCALE
 40
1.0
  9
$DISPSILH
 70
     0
  9
$DIMSCALE
 40
1.0
  9
$DIMASZ
 40
2.5
  9
$DIMEXO
 40
0.625
  9
$DIMDLI
 40
3.75
  9
$DIMRND
 40
0.0
  9
$DIMDLE
 40
0.0
  9
$DIMEXE
 40
1.25
  9
$DIMTP
 40
0.0
  9
$DIMTM
 40
0.0
  9
$DIMTXT
 40
2.5
  9
$DIMCEN
 40
2.5
  9
$DIMTSZ
 40
0.0
  9
$DIMTOL
 70
     0
  9
$DIMLIM
 70
     0
  9
$DIMTIH
 70
     0
  9
$DIMTOH
 70
     0
  9
$DIMSE1
 70
     0
  9
$DIMSE2
 70
     0
  9
$DIMTAD
 70
     1
  9
$DIMZIN
 70
     8
  9
$DIMBLK
  1

  9
$DIMASO
 70
     1
  9
$DIMSHO
 70
     1
  9
$DIMPOST
  1

  9
$DIMAPOST
  1

  9
$DIMALT
 70
     0
  9
$DIMALTD
 70
     3
  9
$DIMALTF
 40
0.03937
  9
$DIMLFAC
 40
1.0
  9
$DIMTOFL
 70
     1
  9
$DIMTVP
 40
0.0
  9
$DIMTIX
 70
     0
  9
$DIMSOXD
 70
     0
  9
$DIMSAH
 70
     0
  9
$DIMBLK1
  1

  9
$DIMBLK2
  1

  9
$DIMSTYLE
  2
ISO-25
  9
$DIMCLRD
 70
     0
  9
$DIMCLRE
 70
     0
  9
$DIMCLRT
 70
     0
  9
$DIMTFAC
 40
1.0
  9
$DIMGAP
 40
0.625
  9
$DIMJUST
 70
     0
  9
$DIMSD1
 70
     0
  9
$DIMSD2
 70
     0
  9
$DIMTOLJ
 70
     0
  9
$DIMTZIN
 70
     8
  9
$DIMALTZ
 70
     0
  9
$DIMALTTZ
 70
     0
  9
$DIMUPT
 70
     0
  9
$DIMDEC
 70
     2
  9
$DIMTDEC
 70
     2
  9
$DIMALTU
 70
     2
  9
$DIMALTTD
 70
     3
  9
$DIMTXSTY
  7
Standard
  9
$DIMAUNIT
 70
     0
  9
$DIMADEC
 70
     0
  9
$DIMALTRND
 40
0.0
  9
$DIMAZIN
 70
     0
  9
$DIMDSEP
 70
    44
  9
$DIMATFIT
 70
     3
  9
$DIMFRAC
 70
     0
  9
$DIMLDRBLK
  1

  9
$DIMLUNIT
 70
     2
  9
$DIMLWD
 70
    -2
  9
$DIMLWE
 70
    -2
  9
$DIMTMOVE
 70
     0
  9
$LUNITS
 70
     2
  9
$LUPREC
 70
     4
  9
$SKETCHINC
 40
1.0
  9
$FILLETRAD
 40
10.0
  9
$AUNITS
 70
     0
  9
$AUPREC
 70
     0
  9
$MENU
  1
.
  9
$ELEVATION
 40
0.0
  9
$PELEVATION
 40
0.0
  9
$THICKNESS
 40
0.0
  9
$LIMCHECK
 70
     0
  9
$CHAMFERA
 40
10.0
  9
$CHAMFERB
 40
10.0
  9
$CHAMFERC
 40
20.0
  9
$CHAMFERD
 40
0.0
  9
$SKPOLY
 70
     0
  9
$TDCREATE
 40
2455117.614252268
  9
$TDUCREATE
 40
2455117.822585602
  9
$TDUPDATE
 40
2455117.61425228
  9
$TDUUPDATE
 40
2455117.822585614
  9
$TDINDWG
 40
0.0000000116
  9
$TDUSRTIMER
 40
0.0000000116
  9
$USRTIMER
 70
     1
  9
$ANGBASE
 50
0.0
  9
$ANGDIR
 70
     0
  9
$PDMODE
 70
     3
  9
$PDSIZE
 40
-0.7
  9
$PLINEWID
 40
0.0
  9
$SPLFRAME
 70
     0
  9
$SPLINETYPE
 70
     6
  9
$SPLINESEGS
 70
     8
  9
$HANDSEED
  5
10E
  9
$SURFTAB1
 70
     6
  9
$SURFTAB2
 70
     6
  9
$SURFTYPE
 70
     6
  9
$SURFU
 70
     6
  9
$SURFV
 70
     6
  9
$UCSBASE
  2

  9
$UCSNAME
  2

  9
$UCSORG
 10
0.0
 20
0.0
 30
0.0
  9
$UCSXDIR
 10
1.0
 20
0.0
 30
0.0
  9
$UCSYDIR
 10
0.0
 20
1.0
 30
0.0
  9
$UCSORTHOREF
  2

  9
$UCSORTHOVIEW
 70
     0
  9
$UCSORGTOP
 10
0.0
 20
0.0
 30
0.0
  9
$UCSORGBOTTOM
 10
0.0
 20
0.0
 30
0.0
  9
$UCSORGLEFT
 10
0.0
 20
0.0
 30
0.0
  9
$UCSORGRIGHT
 10
0.0
 20
0.0
 30
0.0
  9
$UCSORGFRONT
 10
0.0
 20
0.0
 30
0.0
  9
$UCSORGBACK
 10
0.0
 20
0.0
 30
0.0
  9
$PUCSBASE
  2

  9
$PUCSNAME
  2

  9
$PUCSORG
 10
0.0
 20
0.0
 30
0.0
  9
$PUCSXDIR
 10
1.0
 20
0.0
 30
0.0
  9
$PUCSYDIR
 10
0.0
 20
1.0
 30
0.0
  9
$PUCSORTHOREF
  2

  9
$PUCSORTHOVIEW
 70
     0
  9
$PUCSORGTOP
 10
0.0
 20
0.0
 30
0.0
  9
$PUCSORGBOTTOM
 10
0.0
 20
0.0
 30
0.0
  9
$PUCSORGLEFT
 10
0.0
 20
0.0
 30
0.0
  9
$PUCSORGRIGHT
 10
0.0
 20
0.0
 30
0.0
  9
$PUCSORGFRONT
 10
0.0
 20
0.0
 30
0.0
  9
$PUCSORGBACK
 10
0.0
 20
0.0
 30
0.0
  9
$USERI1
 70
     0
  9
$USERI2
 70
     0
  9
$USERI3
 70
     0
  9
$USERI4
 70
     0
  9
$USERI5
 70
     0
  9
$USERR1
 40
0.0
  9
$USERR2
 40
0.0
  9
$USERR3
 40
0.0
  9
$USERR4
 40
0.0
  9
$USERR5
 40
0.0
  9
$WORLDVIEW
 70
     1
  9
$SHADEDGE
 70
     3
  9
$SHADEDIF
 70
    70
  9
$TILEMODE
 70
     1
  9
$MAXACTVP
 70
    64
  9
$PINSBASE
 10
0.0
 20
0.0
 30
0.0
  9
$PLIMCHECK
 70
     0
  9
$PEXTMIN
 10
1.000000E+20
 20
1.000000E+20
 30
1.000000E+20
  9
$PEXTMAX
 10
-1.000000E+20
 20
-1.000000E+20
 30
-1.000000E+20
  9
$PLIMMIN
 10
0.0
 20
0.0
  9
$PLIMMAX
 10
420.0
 20
297.0
  9
$UNITMODE
 70
     0
  9
$VISRETAIN
 70
     1
  9
$PLINEGEN
 70
     0
  9
$PSLTSCALE
 70
     1
  9
$TREEDEPTH
 70
  3020
  9
$CMLSTYLE
  2
Standard
  9
$CMLJUST
 70
     1
  9
$CMLSCALE
 40
1.0
  9
$PROXYGRAPHICS
 70
     1
  9
$MEASUREMENT
 70
     1
  9
$CELWEIGHT
370
    -1
  9
$ENDCAPS
280
     0
  9
$JOINSTYLE
280
     0
  9
$LWDISPLAY
290
     0
  9
$INSUNITS
 70
     4
  9
$HYPERLINKBASE
  1

  9
$STYLESHEET
  1

  9
$XEDIT
290
     1
  9
$CEPSNTYPE
380
     0
  9
$PSTYLEMODE
290
     1
  9
$FINGERPRINTGUID
  2
{FAEB1C30-E019-11D5-929B-00C0DF256EC4}
  9
$VERSIONGUID
  2
{FAEB1C32-E019-11D5-929B-00C0DF256EC4}
  9
$EXTNAMES
290
     1
  9
$PSVPSCALE
 40
0.0
  9
$OLESTARTUP
290
     0
  0
ENDSEC
  0
SECTION
  2
CLASSES
  0
CLASS
  1
ACDBDICTIONARYWDFLT
  2
AcDbDictionaryWithDefault
  3
ObjectDBX Classes
 90
        0
280
     0
281
     0
  0
CLASS
  1
ACDBPLACEHOLDER
  2
AcDbPlaceHolder
  3
ObjectDBX Classes
 90
        0
280
     0
281
     0
  0
CLASS
  1
LAYOUT
  2
AcDbLayout
  3
ObjectDBX Classes
 90
        0
280
     0
281
     0
  0
ENDSEC
  0
SECTION
  2
TABLES
  0
TABLE
  2
VPORT
  5
8
330
0
100
AcDbSymbolTable
 70
     2
  0
VPORT
  5
29
330
8
100
AcDbSymbolTableRecord
100
AcDbViewportTableRecord
  2
*Active
 70
     0
 10
0.0
 20
0.0
 11
1.0
 21
1.0
 12
50.0
 22
50.0
 13
0.0
 23
0.0
 14
10.0
 24
10.0
 15
10.0
 25
10.0
 16
0.0
 26
0.0
 36
1.0
 17
0.0
 27
0.0
 37
0.0
 40
103.921569
 41
1.0
 42
50.0
 43
0.0
 44
0.0
 50
0.0
 51
0.0
 71
     0
 72
   100
 73
     1
 74
     3
 75
     0
 76
     0
 77
     0
 78
     0
281
     0
 65
     1
110
0.0
120
0.0
130
0.0
111
1.0
121
0.0
131
0.0
112
0.0
122
1.0
132
0.0
 79
     0
146
0.0
  0
ENDTAB
  0
TABLE
  2
LTYPE
  5
5
330
0
100
AcDbSymbolTable
 70
     1
  0
LTYPE
  5
14
330
5
100
AcDbSymbolTableRecord
100
AcDbLinetypeTableRecord
  2
ByBlock
 70
     0
  3

 72
    65
 73
     0
 40
0.0
  0
LTYPE
  5
15
330
5
100
AcDbSymbolTableRecord
100
AcDbLinetypeTableRecord
  2
ByLayer
 70
     0
  3

 72
    65
 73
     0
 40
0.0
  0
LTYPE
  5
16
330
5
100
AcDbSymbolTableRecord
100
AcDbLinetypeTableRecord
  2
Continuous
 70
     0
  3

 72
    65
 73
     0
 40
0.0
  0
ENDTAB
  0
TABLE
  2
LAYER
  5
2
330
0
100
AcDbSymbolTable
 70
     1
  0
LAYER
  5
10
330
2
100
AcDbSymbolTableRecord
100
AcDbLayerTableRecord
  2
0
 70
     0
 62
     7
  6
Continuous
370
    -3
390
F
  0
ENDTAB
  0
TABLE
  2
STYLE
  5
3
330
0
100
AcDbSymbolTable
 70
     1
  0
STYLE
  5
11
330
3
100
AcDbSymbolTableRecord
100
AcDbTextStyleTableRecord
  2
Standard
 70
     0
 40
1.0
 41
1.0
 50
0.0
 71
     0
 42
2.5
  3
RomanS
  4

  0
ENDTAB
  0
TABLE
  2
VIEW
  5
6
330
0
100
AcDbSymbolTable
 70
     0
  0
ENDTAB
  0
TABLE
  2
UCS
  5
7
330
0
100
AcDbSymbolTable
 70
     0
  0
ENDTAB
  0
TABLE
  2
APPID
  5
9
330
0
100
AcDbSymbolTable
 70
     1
  0
APPID
  5
12
330
9
100
AcDbSymbolTableRecord
100
AcDbRegAppTableRecord
  2
ACAD
 70
     0
  0
ENDTAB
  0
TABLE
  2
DIMSTYLE
  5
A
330
0
100
AcDbSymbolTable
 70
     1
100
AcDbDimStyleTable
  0
DIMSTYLE
105
27
330
A
100
AcDbSymbolTableRecord
100
AcDbDimStyleTableRecord
  2
ISO-25
 70
     0
 41
2.5
 42
0.625
 44
1.25
 73
     0
 74
     0
 77
     1
 78
     8
 79
     2
140
2.5
141
2.5
146
0.0
147
0.625
271
     2
272
     0
273
     0
274
     0
278
    44
283
     0
289
     0
340
11
  0
ENDTAB
  0
TABLE
  2
BLOCK_RECORD
  5
1
330
0
100
AcDbSymbolTable
 70
     1
  0
BLOCK_RECORD
  5
1F
330
1
100
AcDbSymbolTableRecord
100
AcDbBlockTableRecord
  2
*Model_Space
340
22
  0
BLOCK_RECORD
  5
1B
330
1
100
AcDbSymbolTableRecord
100
AcDbBlockTableRecord
  2
*Paper_Space
340
1E
  0
BLOCK_RECORD
  5
23
330
1
100
AcDbSymbolTableRecord
100
AcDbBlockTableRecord
  2
*Paper_Space0
340
26
  0
ENDTAB
  0
ENDSEC
  0
SECTION
  2
BLOCKS
  0
BLOCK
  5
20
330
1F
100
AcDbEntity
  8
0
100
AcDbBlockBegin
  2
*Model_Space
 70
     0
 71
     0
 10
0.0
 20
0.0
 30
0.0
  3
*Model_Space
  1

  0
ENDBLK
  5
21
330
1F
100
AcDbEntity
  8
0
100
AcDbBlockEnd
  0
BLOCK
  5
1C
330
1B
100
AcDbEntity
 67
     1
  8
0
100
AcDbBlockBegin
  2
*Paper_Space
 70
     0
 71
     0
 10
0.0
 20
0.0
 30
0.0
  3
*Paper_Space
  1

  0
ENDBLK
  5
1D
330
1B
100
AcDbEntity
 67
     1
  8
0
100
AcDbBlockEnd
  0
BLOCK
  5
24
330
23
100
AcDbEntity
  8
0
100
AcDbBlockBegin
  2
*Paper_Space0
 70
     0
 71
     0
 10
0.0
 20
0.0
 30
0.0
  3
*Paper_Space0
  1

  0
ENDBLK
  5
25
330
23
100
AcDbEntity
  8
0
100
AcDbBlockEnd
  0
ENDSEC
  0
SECTION
  2
ENTITIES
  0
LWPOLYLINE
  5
2A
330
1F
100
AcDbEntity
  8
0
100
AcDbPolyline
 90
        5
 70
   128
 43
0.0
 10
6.22695
 20
5.254581
 42
0.414214
 10
6.10195
 20
5.129581
 42
0.414214
 10
6.22695
 20
5.004581
 42
0.414214
 10
6.35195
 20
5.129581
 42
0.414214
 10
6.22695
 20
5.254581
  0
LWPOLYLINE
  5
2B
330
1F
100
AcDbEntity
  8
0
100
AcDbPolyline
 90
        5
 70
   128
 43
0.0
 10
0.5
 20
0.5
 10
6.5
 20
0.5
 10
6.5
 20
6.5
 10
0.5
 20
6.5
 10
0.5
 20
0.5
  0
LWPOLYLINE
  5
2C
330
1F
100
AcDbEntity
  8
0
100
AcDbPolyline
 90
        5
 70
   128
 43
0.0
 10
5.785256
 20
5.057653
 42
0.414214
 10
5.660256
 20
4.932653
 42
0.414214
 10
5.785256
 20
4.807653
 42
0.414214
 10
5.910256
 20
4.932653
 42
0.414214
 10
5.785256
 20
5.057653
  0
LWPOLYLINE
  5
2D
330
1F
100
AcDbEntity
  8
0
100
AcDbPolyline
 90
        5
 70
   128
 43
0.0
 10
5.86216
 20
5.138604
 42
0.414214
 10
5.73716
 20
5.013604
 42
0.414214
 10
5.86216
 20
4.888604
 42
0.414214
 10
5.98716
 20
5.013604
 42
0.414214
 10
5.86216
 20
5.138604
  0
LWPOLYLINE
  5
2E
330
1F
100
AcDbEntity
  8
0
100
AcDbPolyline
 90
        5
 70
   128
 43
0.0
 10
5.966047
 20
5.230349
 42
0.414214
 10
5.841047
 20
5.105349
 42
0.414214
 10
5.966047
 20
4.980349
 42
0.414214
 10
6.091047
 20
5.105349
 42
0.414214
 10
5.966047
 20
5.230349
  0
LWPOLYLINE
  5
2F
330
1F
100
AcDbEntity
  8
0
100
AcDbPolyline
 90
        5
 70
   128
 43
0.0
 10
6.087474
 20
5.246539
 42
0.414214
 10
5.962474
 20
5.121539
 42
0.414214
 10
6.087474
 20
4.996539
 42
0.414214
 10
6.212474
 20
5.121539
 42
0.414214
 10
6.087474
 20
5.246539
  0
LWPOLYLINE
  5
30
330
1F
100
AcDbEntity
  8
0
100
AcDbPolyline
 90
        5
 70
   128
 43
0.0
 10
5.718607
 20
4.578692
 42
0.414214
 10
5.593607
 20
4.453692
 42
0.414214
 10
5.718607
 20
4.328692
 42
0.414214
 10
5.843607
 20
4.453692
 42
0.414214
 10
5.718607
 20
4.578692
  0
LWPOLYLINE
  5
31
330
1F
100
AcDbEntity
  8
0
100
AcDbPolyline
 90
        5
 70
   128
 43
0.0
 10
5.699718
 20
4.712261
 42
0.414214
 10
5.574718
 20
4.587261
 42
0.414214
 10
5.699718
 20
4.462261
 42
0.414214
 10
5.824718
 20
4.587261
 42
0.414214
 10
5.699718
 20
4.712261
  0
LWPOLYLINE
  5
32
330
1F
100
AcDbEntity
  8
0
100
AcDbPolyline
 90
        5
 70
   128
 43
0.0
 10
5.687575
 20
4.829641
 42
0.414214
 10
5.562575
 20
4.704641
 42
0.414214
 10
5.687575
 20
4.579641
 42
0.414214
 10
5.812575
 20
4.704641
 42
0.414214
 10
5.687575
 20
4.829641
  0
LWPOLYLINE
  5
33
330
1F
100
AcDbEntity
  8
0
100
AcDbPolyline
 90
        5
 70
   128
 43
0.0
 10
5.694321
 20
4.96321
 42
0.414214
 10
5.569321
 20
4.83821
 42
0.414214
 10
5.694321
 20
4.71321
 42
0.414214
 10
5.819321
 20
4.83821
 42
0.414214
 10
5.694321
 20
4.96321
  0
LWPOLYLINE
  5
34
330
1F
100
AcDbEntity
  8
0
100
AcDbPolyline
 90
        5
 70
   128
 43
0.0
 10
5.852176
 20
3.837719
 42
0.414214
 10
5.727176
 20
3.712719
 42
0.414214
 10
5.852176
 20
3.587719
 42
0.414214
 10
5.977176
 20
3.712719
 42
0.414214
 10
5.852176
 20
3.837719
  0
LWPOLYLINE
  5
35
330
1F
100
AcDbEntity
  8
0
100
AcDbPolyline
 90
        5
 70
   128
 43
0.0
 10
5.838684
 20
3.963193
 42
0.414214
 10
5.713684
 20
3.838193
 42
0.414214
 10
5.838684
 20
3.713193
 42
0.414214
 10
5.963684
 20
3.838193
 42
0.414214
 10
5.838684
 20
3.963193
  0
LWPOLYLINE
  5
36
330
1F
100
AcDbEntity
  8
0
100
AcDbPolyline
 90
        5
 70
   128
 43
0.0
 10
5.817097
 20
4.088668
 42
0.414214
 10
5.692097
 20
3.963668
 42
0.414214
 10
5.817097
 20
3.838668
 42
0.414214
 10
5.942097
 20
3.963668
 42
0.414214
 10
5.817097
 20
4.088668
  0
LWPOLYLINE
  5
37
330
1F
100
AcDbEntity
  8
0
100
AcDbPolyline
 90
        5
 70
   128
 43
0.0
 10
5.79551
 20
4.21684
 42
0.414214
 10
5.67051
 20
4.09184
 42
0.414214
 10
5.79551
 20
3.96684
 42
0.414214
 10
5.92051
 20
4.09184
 42
0.414214
 10
5.79551
 20
4.21684
  0
LWPOLYLINE
  5
38
330
1F
100
AcDbEntity
  8
0
100
AcDbPolyline
 90
        5
 70
   128
 43
0.0
 10
5.767177
 20
4.335569
 42
0.414214
 10
5.642177
 20
4.210569
 42
0.414214
 10
5.767177
 20
4.085569
 42
0.414214
 10
5.892177
 20
4.210569
 42
0.414214
 10
5.767177
 20
4.335569
  0
LWPOLYLINE
  5
39
330
1F
100
AcDbEntity
  8
0
100
AcDbPolyline
 90
        5
 70
   128
 43
0.0
 10
5.787415
 20
3.216959
 42
0.414214
 10
5.662415
 20
3.091959
 42
0.414214
 10
5.787415
 20
2.966959
 42
0.414214
 10
5.912415
 20
3.091959
 42
0.414214
 10
5.787415
 20
3.216959
  0
LWPOLYLINE
  5
3A
330
1F
100
AcDbEntity
  8
0
100
AcDbPolyline
 90
        5
 70
   128
 43
0.0
 10
5.823843
 20
3.334338
 42
0.414214
 10
5.698843
 20
3.209338
 42
0.414214
 10
5.823843
 20
3.084338
 42
0.414214
 10
5.948843
 20
3.209338
 42
0.414214
 10
5.823843
 20
3.334338
  0
LWPOLYLINE
  5
3B
330
1F
100
AcDbEntity
  8
0
100
AcDbPolyline
 90
        5
 70
   128
 43
0.0
 10
5.848129
 20
3.459812
 42
0.414214
 10
5.723129
 20
3.334812
 42
0.414214
 10
5.848129
 20
3.209812
 42
0.414214
 10
5.973129
 20
3.334812
 42
0.414214
 10
5.848129
 20
3.459812
  0
LWPOLYLINE
  5
3C
330
1F
100
AcDbEntity
  8
0
100
AcDbPolyline
 90
        5
 70
   128
 43
0.0
 10
5.860271
 20
3.583937
 42
0.414214
 10
5.735271
 20
3.458937
 42
0.414214
 10
5.860271
 20
3.333937
 42
0.414214
 10
5.985271
 20
3.458937
 42
0.414214
 10
5.860271
 20
3.583937
  0
LWPOLYLINE
  5
3D
330
1F
100
AcDbEntity
  8
0
100
AcDbPolyline
 90
        5
 70
   128
 43
0.0
 10
5.858922
 20
3.71211
 42
0.414214
 10
5.733922
 20
3.58711
 42
0.414214
 10
5.858922
 20
3.46211
 42
0.414214
 10
5.983922
 20
3.58711
 42
0.414214
 10
5.858922
 20
3.71211
  0
LWPOLYLINE
  5
3E
330
1F
100
AcDbEntity
  8
0
100
AcDbPolyline
 90
        5
 70
   128
 43
0.0
 10
5.501995
 20
2.656642
 42
0.414214
 10
5.376995
 20
2.531642
 42
0.414214
 10
5.501995
 20
2.406642
 42
0.414214
 10
5.626995
 20
2.531642
 42
0.414214
 10
5.501995
 20
2.656642
  0
LWPOLYLINE
  5
3F
330
1F
100
AcDbEntity
  8
0
100
AcDbPolyline
 90
        5
 70
   128
 43
0.0
 10
5.578898
 20
2.764576
 42
0.414214
 10
5.453898
 20
2.639576
 42
0.414214
 10
5.578898
 20
2.514576
 42
0.414214
 10
5.703898
 20
2.639576
 42
0.414214
 10
5.578898
 20
2.764576
  0
LWPOLYLINE
  5
40
330
1F
100
AcDbEntity
  8
0
100
AcDbPolyline
 90
        5
 70
   128
 43
0.0
 10
5.639612
 20
2.868464
 42
0.414214
 10
5.514612
 20
2.743464
 42
0.414214
 10
5.639612
 20
2.618464
 42
0.414214
 10
5.764612
 20
2.743464
 42
0.414214
 10
5.639612
 20
2.868464
  0
LWPOLYLINE
  5
41
330
1F
100
AcDbEntity
  8
0
100
AcDbPolyline
 90
        5
 70
   128
 43
0.0
 10
5.698976
 20
2.981795
 42
0.414214
 10
5.573976
 20
2.856795
 42
0.414214
 10
5.698976
 20
2.731795
 42
0.414214
 10
5.823976
 20
2.856795
 42
0.414214
 10
5.698976
 20
2.981795
  0
LWPOLYLINE
  5
42
330
1F
100
AcDbEntity
  8
0
100
AcDbPolyline
 90
        5
 70
   128
 43
0.0
 10
5.747547
 20
3.095127
 42
0.414214
 10
5.622547
 20
2.970127
 42
0.414214
 10
5.747547
 20
2.845127
 42
0.414214
 10
5.872547
 20
2.970127
 42
0.414214
 10
5.747547
 20
3.095127
  0
LWPOLYLINE
  5
43
330
1F
100
AcDbEntity
  8
0
100
AcDbPolyline
 90
        5
 70
   128
 43
0.0
 10
5.067551
 20
2.189964
 42
0.414214
 10
4.942551
 20
2.064964
 42
0.414214
 10
5.067551
 20
1.939964
 42
0.414214
 10
5.192551
 20
2.064964
 42
0.414214
 10
5.067551
 20
2.189964
  0
LWPOLYLINE
  5
44
330
1F
100
AcDbEntity
  8
0
100
AcDbPolyline
 90
        5
 70
   128
 43
0.0
 10
5.168959
 20
2.279005
 42
0.414214
 10
5.043959
 20
2.154005
 42
0.414214
 10
5.168959
 20
2.029005
 42
0.414214
 10
5.293959
 20
2.154005
 42
0.414214
 10
5.168959
 20
2.279005
  0
LWPOLYLINE
  5
45
330
1F
100
AcDbEntity
  8
0
100
AcDbPolyline
 90
        5
 70
   128
 43
0.0
 10
5.258
 20
2.372994
 42
0.414214
 10
5.133
 20
2.247994
 42
0.414214
 10
5.258
 20
2.122994
 42
0.414214
 10
5.383
 20
2.247994
 42
0.414214
 10
5.258
 20
2.372994
  0
LWPOLYLINE
  5
46
330
1F
100
AcDbEntity
  8
0
100
AcDbPolyline
 90
        5
 70
   128
 43
0.0
 10
5.347042
 20
2.457088
 42
0.414214
 10
5.222042
 20
2.332088
 42
0.414214
 10
5.347042
 20
2.207088
 42
0.414214
 10
5.472042
 20
2.332088
 42
0.414214
 10
5.347042
 20
2.457088
  0
LWPOLYLINE
  5
47
330
1F
100
AcDbEntity
  8
0
100
AcDbPolyline
 90
        5
 70
   128
 43
0.0
 10
5.42619
 20
2.565917
 42
0.414214
 10
5.30119
 20
2.440917
 42
0.414214
 10
5.42619
 20
2.315917
 42
0.414214
 10
5.55119
 20
2.440917
 42
0.414214
 10
5.42619
 20
2.565917
  0
LWPOLYLINE
  5
48
330
1F
100
AcDbEntity
  8
0
100
AcDbPolyline
 90
        5
 70
   128
 43
0.0
 10
5.027977
 20
1.688364
 42
0.414214
 10
4.902977
 20
1.563364
 42
0.414214
 10
5.027977
 20
1.438364
 42
0.414214
 10
5.152977
 20
1.563364
 42
0.414214
 10
5.027977
 20
1.688364
  0
LWPOLYLINE
  5
49
330
1F
100
AcDbEntity
  8
0
100
AcDbPolyline
 90
        5
 70
   128
 43
0.0
 10
4.966142
 20
1.804612
 42
0.414214
 10
4.841142
 20
1.679612
 42
0.414214
 10
4.966142
 20
1.554612
 42
0.414214
 10
5.091142
 20
1.679612
 42
0.414214
 10
4.966142
 20
1.804612
  0
LWPOLYLINE
  5
4A
330
1F
100
AcDbEntity
  8
0
100
AcDbPolyline
 90
        5
 70
   128
 43
0.0
 10
4.916675
 20
1.913441
 42
0.414214
 10
4.791675
 20
1.788441
 42
0.414214
 10
4.916675
 20
1.663441
 42
0.414214
 10
5.041675
 20
1.788441
 42
0.414214
 10
4.916675
 20
1.913441
  0
LWPOLYLINE
  5
4B
330
1F
100
AcDbEntity
  8
0
100
AcDbPolyline
 90
        5
 70
   128
 43
0.0
 10
4.874627
 20
2.034636
 42
0.414214
 10
4.749627
 20
1.909636
 42
0.414214
 10
4.874627
 20
1.784636
 42
0.414214
 10
4.999627
 20
1.909636
 42
0.414214
 10
4.874627
 20
2.034636
  0
LWPOLYLINE
  5
4C
330
1F
100
AcDbEntity
  8
0
100
AcDbPolyline
 90
        5
 70
   128
 43
0.0
 10
4.978509
 20
2.116257
 42
0.414214
 10
4.853509
 20
1.991257
 42
0.414214
 10
4.978509
 20
1.866257
 42
0.414214
 10
5.103509
 20
1.991257
 42
0.414214
 10
4.978509
 20
2.116257
  0
LWPOLYLINE
  5
4D
330
1F
100
AcDbEntity
  8
0
100
AcDbPolyline
 90
        5
 70
   128
 43
0.0
 10
5.262947
 20
1.129876
 42
0.414214
 10
5.137947
 20
1.004876
 42
0.414214
 10
5.262947
 20
0.879876
 42
0.414214
 10
5.387947
 20
1.004876
 42
0.414214
 10
5.262947
 20
1.129876
  0
LWPOLYLINE
  5
4E
330
1F
100
AcDbEntity
  8
0
100
AcDbPolyline
 90
        5
 70
   128
 43
0.0
 10
5.183799
 20
1.231284
 42
0.414214
 10
5.058799
 20
1.106284
 42
0.414214
 10
5.183799
 20
0.981284
 42
0.414214
 10
5.308799
 20
1.106284
 42
0.414214
 10
5.183799
 20
1.231284
  0
LWPOLYLINE
  5
4F
330
1F
100
AcDbEntity
  8
0
100
AcDbPolyline
 90
        5
 70
   128
 43
0.0
 10
5.114545
 20
1.330219
 42
0.414214
 10
4.989545
 20
1.205219
 42
0.414214
 10
5.114545
 20
1.080219
 42
0.414214
 10
5.239545
 20
1.205219
 42
0.414214
 10
5.114545
 20
1.330219
  0
LWPOLYLINE
  5
50
330
1F
100
AcDbEntity
  8
0
100
AcDbPolyline
 90
        5
 70
   128
 43
0.0
 10
5.065077
 20
1.446468
 42
0.414214
 10
4.940077
 20
1.321468
 42
0.414214
 10
5.065077
 20
1.196468
 42
0.414214
 10
5.190077
 20
1.321468
 42
0.414214
 10
5.065077
 20
1.446468
  0
LWPOLYLINE
  5
51
330
1F
100
AcDbEntity
  8
0
100
AcDbPolyline
 90
        5
 70
   128
 43
0.0
 10
5.089811
 20
1.59487
 42
0.414214
 10
4.964811
 20
1.46987
 42
0.414214
 10
5.089811
 20
1.34487
 42
0.414214
 10
5.214811
 20
1.46987
 42
0.414214
 10
5.089811
 20
1.59487
  0
LWPOLYLINE
  5
52
330
1F
100
AcDbEntity
  8
0
100
AcDbPolyline
 90
        5
 70
   128
 43
0.0
 10
5.393294
 20
1.157083
 42
0.414214
 10
5.268294
 20
1.032083
 42
0.414214
 10
5.393294
 20
0.907083
 42
0.414214
 10
5.518294
 20
1.032083
 42
0.414214
 10
5.393294
 20
1.157083
  0
LWPOLYLINE
  5
53
330
1F
100
AcDbEntity
  8
0
100
AcDbPolyline
 90
        5
 70
   128
 43
0.0
 10
5.666354
 20
0.836534
 42
0.414214
 10
5.541354
 20
0.711534
 42
0.414214
 10
5.666354
 20
0.586534
 42
0.414214
 10
5.791354
 20
0.711534
 42
0.414214
 10
5.666354
 20
0.836534
  0
LWPOLYLINE
  5
54
330
1F
100
AcDbEntity
  8
0
100
AcDbPolyline
 90
        5
 70
   128
 43
0.0
 10
5.557526
 20
0.909745
 42
0.414214
 10
5.432526
 20
0.784745
 42
0.414214
 10
5.557526
 20
0.659745
 42
0.414214
 10
5.682526
 20
0.784745
 42
0.414214
 10
5.557526
 20
0.909745
  0
LWPOLYLINE
  5
55
330
1F
100
AcDbEntity
  8
0
100
AcDbPolyline
 90
        5
 70
   128
 43
0.0
 10
5.462548
 20
0.977021
 42
0.414214
 10
5.337548
 20
0.852021
 42
0.414214
 10
5.462548
 20
0.727021
 42
0.414214
 10
5.587548
 20
0.852021
 42
0.414214
 10
5.462548
 20
0.977021
  0
LWPOLYLINE
  5
56
330
1F
100
AcDbEntity
  8
0
100
AcDbPolyline
 90
        5
 70
   128
 43
0.0
 10
5.365592
 20
1.064084
 42
0.414214
 10
5.240592
 20
0.939084
 42
0.414214
 10
5.365592
 20
0.814084
 42
0.414214
 10
5.490592
 20
0.939084
 42
0.414214
 10
5.365592
 20
1.064084
  0
LWPOLYLINE
  5
57
330
1F
100
AcDbEntity
  8
0
100
AcDbPolyline
 90
        5
 70
   128
 43
0.0
 10
5.775183
 20
1.123445
 42
0.414214
 10
5.650183
 20
0.998445
 42
0.414214
 10
5.775183
 20
0.873445
 42
0.414214
 10
5.900183
 20
0.998445
 42
0.414214
 10
5.775183
 20
1.123445
  0
LWPOLYLINE
  5
58
330
1F
100
AcDbEntity
  8
0
100
AcDbPolyline
 90
        5
 70
   128
 43
0.0
 10
5.644589
 20
1.143232
 42
0.414214
 10
5.519589
 20
1.018232
 42
0.414214
 10
5.644589
 20
0.893232
 42
0.414214
 10
5.769589
 20
1.018232
 42
0.414214
 10
5.644589
 20
1.143232
  0
LWPOLYLINE
  5
59
330
1F
100
AcDbEntity
  8
0
100
AcDbPolyline
 90
        5
 70
   128
 43
0.0
 10
5.517952
 20
1.149168
 42
0.414214
 10
5.392952
 20
1.024168
 42
0.414214
 10
5.517952
 20
0.899168
 42
0.414214
 10
5.642952
 20
1.024168
 42
0.414214
 10
5.517952
 20
1.149168
  0
LWPOLYLINE
  5
5A
330
1F
100
AcDbEntity
  8
0
100
AcDbPolyline
 90
        5
 70
   128
 43
0.0
 10
5.231041
 20
0.862257
 42
0.414214
 10
5.106041
 20
0.737257
 42
0.414214
 10
5.231041
 20
0.612257
 42
0.414214
 10
5.356041
 20
0.737257
 42
0.414214
 10
5.231041
 20
0.862257
  0
LWPOLYLINE
  5
5B
330
1F
100
AcDbEntity
  8
0
100
AcDbPolyline
 90
        5
 70
   128
 43
0.0
 10
5.234998
 20
0.990872
 42
0.414214
 10
5.109998
 20
0.865872
 42
0.414214
 10
5.234998
 20
0.740872
 42
0.414214
 10
5.359998
 20
0.865872
 42
0.414214
 10
5.234998
 20
0.990872
  0
LWPOLYLINE
  5
5C
330
1F
100
AcDbEntity
  8
0
100
AcDbPolyline
 90
        5
 70
   128
 43
0.0
 10
4.807599
 20
1.159062
 42
0.414214
 10
4.682599
 20
1.034062
 42
0.414214
 10
4.807599
 20
0.909062
 42
0.414214
 10
4.932599
 20
1.034062
 42
0.414214
 10
4.807599
 20
1.159062
  0
LWPOLYLINE
  5
5D
330
1F
100
AcDbEntity
  8
0
100
AcDbPolyline
 90
        5
 70
   128
 43
0.0
 10
4.930278
 20
1.164998
 42
0.414214
 10
4.805278
 20
1.039998
 42
0.414214
 10
4.930278
 20
0.914998
 42
0.414214
 10
5.055278
 20
1.039998
 42
0.414214
 10
4.930278
 20
1.164998
  0
LWPOLYLINE
  5
5E
330
1F
100
AcDbEntity
  8
0
100
AcDbPolyline
 90
        5
 70
   128
 43
0.0
 10
5.060873
 20
1.178849
 42
0.414214
 10
4.935873
 20
1.053849
 42
0.414214
 10
5.060873
 20
0.928849
 42
0.414214
 10
5.185873
 20
1.053849
 42
0.414214
 10
5.060873
 20
1.178849
  0
LWPOLYLINE
  5
5F
330
1F
100
AcDbEntity
  8
0
100
AcDbPolyline
 90
        5
 70
   128
 43
0.0
 10
4.626815
 20
1.914651
 42
0.414214
 10
4.501815
 20
1.789651
 42
0.414214
 10
4.626815
 20
1.664651
 42
0.414214
 10
4.751815
 20
1.789651
 42
0.414214
 10
4.626815
 20
1.914651
  0
LWPOLYLINE
  5
60
330
1F
100
AcDbEntity
  8
0
100
AcDbPolyline
 90
        5
 70
   128
 43
0.0
 10
4.723059
 20
1.812075
 42
0.414214
 10
4.598059
 20
1.687075
 42
0.414214
 10
4.723059
 20
1.562075
 42
0.414214
 10
4.848059
 20
1.687075
 42
0.414214
 10
4.723059
 20
1.812075
  0
LWPOLYLINE
  5
61
330
1F
100
AcDbEntity
  8
0
100
AcDbPolyline
 90
        5
 70
   128
 43
0.0
 10
4.786377
 20
1.699368
 42
0.414214
 10
4.661377
 20
1.574368
 42
0.414214
 10
4.786377
 20
1.449368
 42
0.414214
 10
4.911377
 20
1.574368
 42
0.414214
 10
4.786377
 20
1.699368
  0
LWPOLYLINE
  5
62
330
1F
100
AcDbEntity
  8
0
100
AcDbPolyline
 90
        5
 70
   128
 43
0.0
 10
4.853495
 20
1.592993
 42
0.414214
 10
4.728495
 20
1.467993
 42
0.414214
 10
4.853495
 20
1.342993
 42
0.414214
 10
4.978495
 20
1.467993
 42
0.414214
 10
4.853495
 20
1.592993
  0
LWPOLYLINE
  5
63
330
1F
100
AcDbEntity
  8
0
100
AcDbPolyline
 90
        5
 70
   128
 43
0.0
 10
4.929477
 20
1.496749
 42
0.414214
 10
4.804477
 20
1.371749
 42
0.414214
 10
4.929477
 20
1.246749
 42
0.414214
 10
5.054477
 20
1.371749
 42
0.414214
 10
4.929477
 20
1.496749
  0
LWPOLYLINE
  5
64
330
1F
100
AcDbEntity
  8
0
100
AcDbPolyline
 90
        5
 70
   128
 43
0.0
 10
3.980527
 20
1.807736
 42
0.414214
 10
3.855527
 20
1.682736
 42
0.414214
 10
3.980527
 20
1.557736
 42
0.414214
 10
4.105527
 20
1.682736
 42
0.414214
 10
3.980527
 20
1.807736
  0
LWPOLYLINE
  5
65
330
1F
100
AcDbEntity
  8
0
100
AcDbPolyline
 90
        5
 70
   128
 43
0.0
 10
4.107164
 20
1.824199
 42
0.414214
 10
3.982164
 20
1.699199
 42
0.414214
 10
4.107164
 20
1.574199
 42
0.414214
 10
4.232164
 20
1.699199
 42
0.414214
 10
4.107164
 20
1.824199
  0
LWPOLYLINE
  5
66
330
1F
100
AcDbEntity
  8
0
100
AcDbPolyline
 90
        5
 70
   128
 43
0.0
 10
4.243932
 20
1.839396
 42
0.414214
 10
4.118932
 20
1.714396
 42
0.414214
 10
4.243932
 20
1.589396
 42
0.414214
 10
4.368932
 20
1.714396
 42
0.414214
 10
4.243932
 20
1.839396
  0
LWPOLYLINE
  5
67
330
1F
100
AcDbEntity
  8
0
100
AcDbPolyline
 90
        5
 70
   128
 43
0.0
 10
4.371835
 20
1.863457
 42
0.414214
 10
4.246835
 20
1.738457
 42
0.414214
 10
4.371835
 20
1.613457
 42
0.414214
 10
4.496835
 20
1.738457
 42
0.414214
 10
4.371835
 20
1.863457
  0
LWPOLYLINE
  5
68
330
1F
100
AcDbEntity
  8
0
100
AcDbPolyline
 90
        5
 70
   128
 43
0.0
 10
4.497205
 20
1.895116
 42
0.414214
 10
4.372205
 20
1.770116
 42
0.414214
 10
4.497205
 20
1.645116
 42
0.414214
 10
4.622205
 20
1.770116
 42
0.414214
 10
4.497205
 20
1.895116
  0
LWPOLYLINE
  5
69
330
1F
100
AcDbEntity
  8
0
100
AcDbPolyline
 90
        5
 70
   128
 43
0.0
 10
3.788103
 20
1.38477
 42
0.414214
 10
3.663103
 20
1.25977
 42
0.414214
 10
3.788103
 20
1.13477
 42
0.414214
 10
3.913103
 20
1.25977
 42
0.414214
 10
3.788103
 20
1.38477
  0
LWPOLYLINE
  5
6A
330
1F
100
AcDbEntity
  8
0
100
AcDbPolyline
 90
        5
 70
   128
 43
0.0
 10
3.728583
 20
1.500009
 42
0.414214
 10
3.603583
 20
1.375009
 42
0.414214
 10
3.728583
 20
1.250009
 42
0.414214
 10
3.853583
 20
1.375009
 42
0.414214
 10
3.728583
 20
1.500009
  0
LWPOLYLINE
  5
6B
330
1F
100
AcDbEntity
  8
0
100
AcDbPolyline
 90
        5
 70
   128
 43
0.0
 10
3.689326
 20
1.615249
 42
0.414214
 10
3.564326
 20
1.490249
 42
0.414214
 10
3.689326
 20
1.365249
 42
0.414214
 10
3.814326
 20
1.490249
 42
0.414214
 10
3.689326
 20
1.615249
  0
LWPOLYLINE
  5
6C
330
1F
100
AcDbEntity
  8
0
100
AcDbPolyline
 90
        5
 70
   128
 43
0.0
 10
3.722252
 20
1.754549
 42
0.414214
 10
3.597252
 20
1.629549
 42
0.414214
 10
3.722252
 20
1.504549
 42
0.414214
 10
3.847252
 20
1.629549
 42
0.414214
 10
3.722252
 20
1.754549
  0
LWPOLYLINE
  5
6D
330
1F
100
AcDbEntity
  8
0
100
AcDbPolyline
 90
        5
 70
   128
 43
0.0
 10
3.848888
 20
1.796339
 42
0.414214
 10
3.723888
 20
1.671339
 42
0.414214
 10
3.848888
 20
1.546339
 42
0.414214
 10
3.973888
 20
1.671339
 42
0.414214
 10
3.848888
 20
1.796339
  0
LWPOLYLINE
  5
6E
330
1F
100
AcDbEntity
  8
0
100
AcDbPolyline
 90
        5
 70
   128
 43
0.0
 10
4.215516
 20
1.17524
 42
0.414214
 10
4.090516
 20
1.05024
 42
0.414214
 10
4.215516
 20
0.92524
 42
0.414214
 10
4.340516
 20
1.05024
 42
0.414214
 10
4.215516
 20
1.17524
  0
LWPOLYLINE
  5
6F
330
1F
100
AcDbEntity
  8
0
100
AcDbPolyline
 90
        5
 70
   128
 43
0.0
 10
4.085713
 20
1.17524
 42
0.414214
 10
3.960713
 20
1.05024
 42
0.414214
 10
4.085713
 20
0.92524
 42
0.414214
 10
4.210713
 20
1.05024
 42
0.414214
 10
4.085713
 20
1.17524
  0
LWPOLYLINE
  5
70
330
1F
100
AcDbEntity
  8
0
100
AcDbPolyline
 90
        5
 70
   128
 43
0.0
 10
3.955911
 20
1.184738
 42
0.414214
 10
3.830911
 20
1.059738
 42
0.414214
 10
3.955911
 20
0.934738
 42
0.414214
 10
4.080911
 20
1.059738
 42
0.414214
 10
3.955911
 20
1.184738
  0
LWPOLYLINE
  5
71
330
1F
100
AcDbEntity
  8
0
100
AcDbPolyline
 90
        5
 70
   128
 43
0.0
 10
3.81661
 20
1.156245
 42
0.414214
 10
3.69161
 20
1.031245
 42
0.414214
 10
3.81661
 20
0.906245
 42
0.414214
 10
3.94161
 20
1.031245
 42
0.414214
 10
3.81661
 20
1.156245
  0
LWPOLYLINE
  5
72
330
1F
100
AcDbEntity
  8
0
100
AcDbPolyline
 90
        5
 70
   128
 43
0.0
 10
3.765956
 20
1.273384
 42
0.414214
 10
3.640956
 20
1.148384
 42
0.414214
 10
3.765956
 20
1.023384
 42
0.414214
 10
3.890956
 20
1.148384
 42
0.414214
 10
3.765956
 20
1.273384
  0
LWPOLYLINE
  5
73
330
1F
100
AcDbEntity
  8
0
100
AcDbPolyline
 90
        5
 70
   128
 43
0.0
 10
4.357982
 20
0.845985
 42
0.414214
 10
4.232982
 20
0.720985
 42
0.414214
 10
4.357982
 20
0.595985
 42
0.414214
 10
4.482982
 20
0.720985
 42
0.414214
 10
4.357982
 20
0.845985
  0
LWPOLYLINE
  5
74
330
1F
100
AcDbEntity
  8
0
100
AcDbPolyline
 90
        5
 70
   128
 43
0.0
 10
4.259839
 20
0.902971
 42
0.414214
 10
4.134839
 20
0.777971
 42
0.414214
 10
4.259839
 20
0.652971
 42
0.414214
 10
4.384839
 20
0.777971
 42
0.414214
 10
4.259839
 20
0.902971
  0
LWPOLYLINE
  5
75
330
1F
100
AcDbEntity
  8
0
100
AcDbPolyline
 90
        5
 70
   128
 43
0.0
 10
4.144283
 20
0.961541
 42
0.414214
 10
4.019283
 20
0.836541
 42
0.414214
 10
4.144283
 20
0.711541
 42
0.414214
 10
4.269283
 20
0.836541
 42
0.414214
 10
4.144283
 20
0.961541
  0
LWPOLYLINE
  5
76
330
1F
100
AcDbEntity
  8
0
100
AcDbPolyline
 90
        5
 70
   128
 43
0.0
 10
4.03031
 20
1.026442
 42
0.414214
 10
3.90531
 20
0.901442
 42
0.414214
 10
4.03031
 20
0.776442
 42
0.414214
 10
4.15531
 20
0.901442
 42
0.414214
 10
4.03031
 20
1.026442
  0
LWPOLYLINE
  5
77
330
1F
100
AcDbEntity
  8
0
100
AcDbPolyline
 90
        5
 70
   128
 43
0.0
 10
3.919503
 20
1.081845
 42
0.414214
 10
3.794503
 20
0.956845
 42
0.414214
 10
3.919503
 20
0.831845
 42
0.414214
 10
4.044503
 20
0.956845
 42
0.414214
 10
3.919503
 20
1.081845
  0
LWPOLYLINE
  5
78
330
1F
100
AcDbEntity
  8
0
100
AcDbPolyline
 90
        5
 70
   128
 43
0.0
 10
3.794449
 20
0.97737
 42
0.414214
 10
3.669449
 20
0.85237
 42
0.414214
 10
3.794449
 20
0.72737
 42
0.414214
 10
3.919449
 20
0.85237
 42
0.414214
 10
3.794449
 20
0.97737
  0
LWPOLYLINE
  5
79
330
1F
100
AcDbEntity
  8
0
100
AcDbPolyline
 90
        5
 70
   128
 43
0.0
 10
3.517431
 20
1.145164
 42
0.414214
 10
3.392431
 20
1.020164
 42
0.414214
 10
3.517431
 20
0.895164
 42
0.414214
 10
3.642431
 20
1.020164
 42
0.414214
 10
3.517431
 20
1.145164
  0
LWPOLYLINE
  5
7A
330
1F
100
AcDbEntity
  8
0
100
AcDbPolyline
 90
        5
 70
   128
 43
0.0
 10
3.667812
 20
1.135666
 42
0.414214
 10
3.542812
 20
1.010666
 42
0.414214
 10
3.667812
 20
0.885666
 42
0.414214
 10
3.792812
 20
1.010666
 42
0.414214
 10
3.667812
 20
1.135666
  0
LWPOLYLINE
  5
7B
330
1F
100
AcDbEntity
  8
0
100
AcDbPolyline
 90
        5
 70
   128
 43
0.0
 10
3.841938
 20
0.706684
 42
0.414214
 10
3.716938
 20
0.581684
 42
0.414214
 10
3.841938
 20
0.456684
 42
0.414214
 10
3.966938
 20
0.581684
 42
0.414214
 10
3.841938
 20
0.706684
  0
LWPOLYLINE
  5
7C
330
1F
100
AcDbEntity
  8
0
100
AcDbPolyline
 90
        5
 70
   128
 43
0.0
 10
3.807113
 20
0.842819
 42
0.414214
 10
3.682113
 20
0.717819
 42
0.414214
 10
3.807113
 20
0.592819
 42
0.414214
 10
3.932113
 20
0.717819
 42
0.414214
 10
3.807113
 20
0.842819
  0
LWPOLYLINE
  5
7D
330
1F
100
AcDbEntity
  8
0
100
AcDbPolyline
 90
        5
 70
   128
 43
0.0
 10
3.423418
 20
1.646507
 42
0.414214
 10
3.298418
 20
1.521507
 42
0.414214
 10
3.423418
 20
1.396507
 42
0.414214
 10
3.548418
 20
1.521507
 42
0.414214
 10
3.423418
 20
1.646507
  0
LWPOLYLINE
  5
7E
330
1F
100
AcDbEntity
  8
0
100
AcDbPolyline
 90
        5
 70
   128
 43
0.0
 10
3.504149
 20
1.550896
 42
0.414214
 10
3.379149
 20
1.425896
 42
0.414214
 10
3.504149
 20
1.300896
 42
0.414214
 10
3.629149
 20
1.425896
 42
0.414214
 10
3.504149
 20
1.550896
  0
LWPOLYLINE
  5
7F
330
1F
100
AcDbEntity
  8
0
100
AcDbPolyline
 90
        5
 70
   128
 43
0.0
 10
3.586463
 20
1.444838
 42
0.414214
 10
3.461463
 20
1.319838
 42
0.414214
 10
3.586463
 20
1.194838
 42
0.414214
 10
3.711463
 20
1.319838
 42
0.414214
 10
3.586463
 20
1.444838
  0
LWPOLYLINE
  5
80
330
1F
100
AcDbEntity
  8
0
100
AcDbPolyline
 90
        5
 70
   128
 43
0.0
 10
2.940615
 20
2.078655
 42
0.414214
 10
2.815615
 20
1.953655
 42
0.414214
 10
2.940615
 20
1.828655
 42
0.414214
 10
3.065615
 20
1.953655
 42
0.414214
 10
2.940615
 20
2.078655
  0
LWPOLYLINE
  5
81
330
1F
100
AcDbEntity
  8
0
100
AcDbPolyline
 90
        5
 70
   128
 43
0.0
 10
3.029261
 20
1.952018
 42
0.414214
 10
2.904261
 20
1.827018
 42
0.414214
 10
3.029261
 20
1.702018
 42
0.414214
 10
3.154261
 20
1.827018
 42
0.414214
 10
3.029261
 20
1.952018
  0
LWPOLYLINE
  5
82
330
1F
100
AcDbEntity
  8
0
100
AcDbPolyline
 90
        5
 70
   128
 43
0.0
 10
3.151149
 20
1.914027
 42
0.414214
 10
3.026149
 20
1.789027
 42
0.414214
 10
3.151149
 20
1.664027
 42
0.414214
 10
3.276149
 20
1.789027
 42
0.414214
 10
3.151149
 20
1.914027
  0
LWPOLYLINE
  5
83
330
1F
100
AcDbEntity
  8
0
100
AcDbPolyline
 90
        5
 70
   128
 43
0.0
 10
3.260373
 20
1.849126
 42
0.414214
 10
3.135373
 20
1.724126
 42
0.414214
 10
3.260373
 20
1.599126
 42
0.414214
 10
3.385373
 20
1.724126
 42
0.414214
 10
3.260373
 20
1.849126
  0
LWPOLYLINE
  5
84
330
1F
100
AcDbEntity
  8
0
100
AcDbPolyline
 90
        5
 70
   128
 43
0.0
 10
3.341104
 20
1.749399
 42
0.414214
 10
3.216104
 20
1.624399
 42
0.414214
 10
3.341104
 20
1.499399
 42
0.414214
 10
3.466104
 20
1.624399
 42
0.414214
 10
3.341104
 20
1.749399
  0
LWPOLYLINE
  5
85
330
1F
100
AcDbEntity
  8
0
100
AcDbPolyline
 90
        5
 70
   128
 43
0.0
 10
2.500632
 20
2.153054
 42
0.414214
 10
2.375632
 20
2.028054
 42
0.414214
 10
2.500632
 20
1.903054
 42
0.414214
 10
2.625632
 20
2.028054
 42
0.414214
 10
2.500632
 20
2.153054
  0
LWPOLYLINE
  5
86
330
1F
100
AcDbEntity
  8
0
100
AcDbPolyline
 90
        5
 70
   128
 43
0.0
 10
2.443645
 20
2.029583
 42
0.414214
 10
2.318645
 20
1.904583
 42
0.414214
 10
2.443645
 20
1.779583
 42
0.414214
 10
2.568645
 20
1.904583
 42
0.414214
 10
2.443645
 20
2.029583
  0
LWPOLYLINE
  5
87
330
1F
100
AcDbEntity
  8
0
100
AcDbPolyline
 90
        5
 70
   128
 43
0.0
 10
2.557618
 20
2.004256
 42
0.414214
 10
2.432618
 20
1.879256
 42
0.414214
 10
2.557618
 20
1.754256
 42
0.414214
 10
2.682618
 20
1.879256
 42
0.414214
 10
2.557618
 20
2.004256
  0
LWPOLYLINE
  5
88
330
1F
100
AcDbEntity
  8
0
100
AcDbPolyline
 90
        5
 70
   128
 43
0.0
 10
2.690587
 20
2.013753
 42
0.414214
 10
2.565587
 20
1.888753
 42
0.414214
 10
2.690587
 20
1.763753
 42
0.414214
 10
2.815587
 20
1.888753
 42
0.414214
 10
2.690587
 20
2.013753
  0
LWPOLYLINE
  5
89
330
1F
100
AcDbEntity
  8
0
100
AcDbPolyline
 90
        5
 70
   128
 43
0.0
 10
2.812475
 20
2.059659
 42
0.414214
 10
2.687475
 20
1.934659
 42
0.414214
 10
2.812475
 20
1.809659
 42
0.414214
 10
2.937475
 20
1.934659
 42
0.414214
 10
2.812475
 20
2.059659
  0
LWPOLYLINE
  5
8A
330
1F
100
AcDbEntity
  8
0
100
AcDbPolyline
 90
        5
 70
   128
 43
0.0
 10
2.091437
 20
2.437512
 42
0.414214
 10
1.966437
 20
2.312512
 42
0.414214
 10
2.091437
 20
2.187512
 42
0.414214
 10
2.216437
 20
2.312512
 42
0.414214
 10
2.091437
 20
2.437512
  0
LWPOLYLINE
  5
8B
330
1F
100
AcDbEntity
  8
0
100
AcDbPolyline
 90
        5
 70
   128
 43
0.0
 10
2.218074
 20
2.418516
 42
0.414214
 10
2.093074
 20
2.293516
 42
0.414214
 10
2.218074
 20
2.168516
 42
0.414214
 10
2.343074
 20
2.293516
 42
0.414214
 10
2.218074
 20
2.418516
  0
LWPOLYLINE
  5
8C
330
1F
100
AcDbEntity
  8
0
100
AcDbPolyline
 90
        5
 70
   128
 43
0.0
 10
2.34471
 20
2.402687
 42
0.414214
 10
2.21971
 20
2.277687
 42
0.414214
 10
2.34471
 20
2.152687
 42
0.414214
 10
2.46971
 20
2.277687
 42
0.414214
 10
2.34471
 20
2.402687
  0
LWPOLYLINE
  5
8D
330
1F
100
AcDbEntity
  8
0
100
AcDbPolyline
 90
        5
 70
   128
 43
0.0
 10
2.476096
 20
2.377359
 42
0.414214
 10
2.351096
 20
2.252359
 42
0.414214
 10
2.476096
 20
2.127359
 42
0.414214
 10
2.601096
 20
2.252359
 42
0.414214
 10
2.476096
 20
2.377359
  0
LWPOLYLINE
  5
8E
330
1F
100
AcDbEntity
  8
0
100
AcDbPolyline
 90
        5
 70
   128
 43
0.0
 10
2.553661
 20
2.271301
 42
0.414214
 10
2.428661
 20
2.146301
 42
0.414214
 10
2.553661
 20
2.021301
 42
0.414214
 10
2.678661
 20
2.146301
 42
0.414214
 10
2.553661
 20
2.271301
  0
LWPOLYLINE
  5
8F
330
1F
100
AcDbEntity
  8
0
100
AcDbPolyline
 90
        5
 70
   128
 43
0.0
 10
1.436092
 20
2.554651
 42
0.414214
 10
1.311092
 20
2.429651
 42
0.414214
 10
1.436092
 20
2.304651
 42
0.414214
 10
1.561092
 20
2.429651
 42
0.414214
 10
1.436092
 20
2.554651
  0
LWPOLYLINE
  5
90
330
1F
100
AcDbEntity
  8
0
100
AcDbPolyline
 90
        5
 70
   128
 43
0.0
 10
1.56906
 20
2.535655
 42
0.414214
 10
1.44406
 20
2.410655
 42
0.414214
 10
1.56906
 20
2.285655
 42
0.414214
 10
1.69406
 20
2.410655
 42
0.414214
 10
1.56906
 20
2.535655
  0
LWPOLYLINE
  5
91
330
1F
100
AcDbEntity
  8
0
100
AcDbPolyline
 90
        5
 70
   128
 43
0.0
 10
1.703612
 20
2.511911
 42
0.414214
 10
1.578612
 20
2.386911
 42
0.414214
 10
1.703612
 20
2.261911
 42
0.414214
 10
1.828612
 20
2.386911
 42
0.414214
 10
1.703612
 20
2.511911
  0
LWPOLYLINE
  5
92
330
1F
100
AcDbEntity
  8
0
100
AcDbPolyline
 90
        5
 70
   128
 43
0.0
 10
1.833414
 20
2.485
 42
0.414214
 10
1.708414
 20
2.36
 42
0.414214
 10
1.833414
 20
2.235
 42
0.414214
 10
1.958414
 20
2.36
 42
0.414214
 10
1.833414
 20
2.485
  0
LWPOLYLINE
  5
93
330
1F
100
AcDbEntity
  8
0
100
AcDbPolyline
 90
        5
 70
   128
 43
0.0
 10
1.960051
 20
2.459673
 42
0.414214
 10
1.835051
 20
2.334673
 42
0.414214
 10
1.960051
 20
2.209673
 42
0.414214
 10
2.085051
 20
2.334673
 42
0.414214
 10
1.960051
 20
2.459673
  0
LWPOLYLINE
  5
94
330
1F
100
AcDbEntity
  8
0
100
AcDbPolyline
 90
        5
 70
   128
 43
0.0
 10
0.794914
 20
2.649312
 42
0.414214
 10
0.669914
 20
2.524312
 42
0.414214
 10
0.794914
 20
2.399312
 42
0.414214
 10
0.919914
 20
2.524312
 42
0.414214
 10
0.794914
 20
2.649312
  0
LWPOLYLINE
  5
95
330
1F
100
AcDbEntity
  8
0
100
AcDbPolyline
 90
        5
 70
   128
 43
0.0
 10
0.916802
 20
2.598657
 42
0.414214
 10
0.791802
 20
2.473657
 42
0.414214
 10
0.916802
 20
2.348657
 42
0.414214
 10
1.041802
 20
2.473657
 42
0.414214
 10
0.916802
 20
2.598657
  0
LWPOLYLINE
  5
96
330
1F
100
AcDbEntity
  8
0
100
AcDbPolyline
 90
        5
 70
   128
 43
0.0
 10
1.04977
 20
2.579661
 42
0.414214
 10
0.92477
 20
2.454661
 42
0.414214
 10
1.04977
 20
2.329661
 42
0.414214
 10
1.17477
 20
2.454661
 42
0.414214
 10
1.04977
 20
2.579661
  0
LWPOLYLINE
  5
97
330
1F
100
AcDbEntity
  8
0
100
AcDbPolyline
 90
        5
 70
   128
 43
0.0
 10
1.171658
 20
2.570164
 42
0.414214
 10
1.046658
 20
2.445164
 42
0.414214
 10
1.171658
 20
2.320164
 42
0.414214
 10
1.296658
 20
2.445164
 42
0.414214
 10
1.171658
 20
2.570164
  0
LWPOLYLINE
  5
98
330
1F
100
AcDbEntity
  8
0
100
AcDbPolyline
 90
        5
 70
   128
 43
0.0
 10
1.304627
 20
2.566998
 42
0.414214
 10
1.179627
 20
2.441998
 42
0.414214
 10
1.304627
 20
2.316998
 42
0.414214
 10
1.429627
 20
2.441998
 42
0.414214
 10
1.304627
 20
2.566998
  0
LWPOLYLINE
  5
99
330
1F
100
AcDbEntity
  8
0
100
AcDbPolyline
 90
        5
 70
   128
 43
0.0
 10
0.73951
 20
2.772782
 42
0.414214
 10
0.61451
 20
2.647782
 42
0.414214
 10
0.73951
 20
2.522782
 42
0.414214
 10
0.86451
 20
2.647782
 42
0.414214
 10
0.73951
 20
2.772782
  0
LWPOLYLINE
  5
9A
330
1F
100
AcDbEntity
  8
0
100
AcDbPolyline
 90
        5
 70
   128
 43
0.0
 10
0.682524
 20
2.889921
 42
0.414214
 10
0.557524
 20
2.764921
 42
0.414214
 10
0.682524
 20
2.639921
 42
0.414214
 10
0.807524
 20
2.764921
 42
0.414214
 10
0.682524
 20
2.889921
  0
LWPOLYLINE
  5
9B
330
1F
100
AcDbEntity
  8
0
100
AcDbPolyline
 90
        5
 70
   128
 43
0.0
 10
0.655693
 20
3.512816
 42
0.414214
 10
0.530693
 20
3.387816
 42
0.414214
 10
0.655693
 20
3.262816
 42
0.414214
 10
0.780693
 20
3.387816
 42
0.414214
 10
0.655693
 20
3.512816
  0
LWPOLYLINE
  5
9C
330
1F
100
AcDbEntity
  8
0
100
AcDbPolyline
 90
        5
 70
   128
 43
0.0
 10
0.619285
 20
3.389345
 42
0.414214
 10
0.494285
 20
3.264345
 42
0.414214
 10
0.619285
 20
3.139345
 42
0.414214
 10
0.744285
 20
3.264345
 42
0.414214
 10
0.619285
 20
3.389345
  0
LWPOLYLINE
  5
9D
330
1F
100
AcDbEntity
  8
0
100
AcDbPolyline
 90
        5
 70
   128
 43
0.0
 10
0.608204
 20
3.267457
 42
0.414214
 10
0.483204
 20
3.142457
 42
0.414214
 10
0.608204
 20
3.017457
 42
0.414214
 10
0.733204
 20
3.142457
 42
0.414214
 10
0.608204
 20
3.267457
  0
LWPOLYLINE
  5
9E
330
1F
100
AcDbEntity
  8
0
100
AcDbPolyline
 90
        5
 70
   128
 43
0.0
 10
0.624033
 20
3.143986
 42
0.414214
 10
0.499033
 20
3.018986
 42
0.414214
 10
0.624033
 20
2.893986
 42
0.414214
 10
0.749033
 20
3.018986
 42
0.414214
 10
0.624033
 20
3.143986
  0
LWPOLYLINE
  5
9F
330
1F
100
AcDbEntity
  8
0
100
AcDbPolyline
 90
        5
 70
   128
 43
0.0
 10
0.644612
 20
3.018933
 42
0.414214
 10
0.519612
 20
2.893933
 42
0.414214
 10
0.644612
 20
2.768933
 42
0.414214
 10
0.769612
 20
2.893933
 42
0.414214
 10
0.644612
 20
3.018933
  0
LWPOLYLINE
  5
A0
330
1F
100
AcDbEntity
  8
0
100
AcDbPolyline
 90
        5
 70
   128
 43
0.0
 10
0.946957
 20
4.075716
 42
0.414214
 10
0.821957
 20
3.950716
 42
0.414214
 10
0.946957
 20
3.825716
 42
0.414214
 10
1.071957
 20
3.950716
 42
0.414214
 10
0.946957
 20
4.075716
  0
LWPOLYLINE
  5
A1
330
1F
100
AcDbEntity
  8
0
100
AcDbPolyline
 90
        5
 70
   128
 43
0.0
 10
0.872558
 20
3.971241
 42
0.414214
 10
0.747558
 20
3.846241
 42
0.414214
 10
0.872558
 20
3.721241
 42
0.414214
 10
0.997558
 20
3.846241
 42
0.414214
 10
0.872558
 20
3.971241
  0
LWPOLYLINE
  5
A2
330
1F
100
AcDbEntity
  8
0
100
AcDbPolyline
 90
        5
 70
   128
 43
0.0
 10
0.806074
 20
3.865183
 42
0.414214
 10
0.681074
 20
3.740183
 42
0.414214
 10
0.806074
 20
3.615183
 42
0.414214
 10
0.931074
 20
3.740183
 42
0.414214
 10
0.806074
 20
3.865183
  0
LWPOLYLINE
  5
A3
330
1F
100
AcDbEntity
  8
0
100
AcDbPolyline
 90
        5
 70
   128
 43
0.0
 10
0.741172
 20
3.755959
 42
0.414214
 10
0.616172
 20
3.630959
 42
0.414214
 10
0.741172
 20
3.505959
 42
0.414214
 10
0.866172
 20
3.630959
 42
0.414214
 10
0.741172
 20
3.755959
  0
LWPOLYLINE
  5
A4
330
1F
100
AcDbEntity
  8
0
100
AcDbPolyline
 90
        5
 70
   128
 43
0.0
 10
0.709513
 20
3.632488
 42
0.414214
 10
0.584513
 20
3.507488
 42
0.414214
 10
0.709513
 20
3.382488
 42
0.414214
 10
0.834513
 20
3.507488
 42
0.414214
 10
0.709513
 20
3.632488
  0
LWPOLYLINE
  5
A5
330
1F
100
AcDbEntity
  8
0
100
AcDbPolyline
 90
        5
 70
   128
 43
0.0
 10
1.376335
 20
4.530659
 42
0.414214
 10
1.251335
 20
4.405659
 42
0.414214
 10
1.376335
 20
4.280659
 42
0.414214
 10
1.501335
 20
4.405659
 42
0.414214
 10
1.376335
 20
4.530659
  0
LWPOLYLINE
  5
A6
330
1F
100
AcDbEntity
  8
0
100
AcDbPolyline
 90
        5
 70
   128
 43
0.0
 10
1.267111
 20
4.470506
 42
0.414214
 10
1.142111
 20
4.345506
 42
0.414214
 10
1.267111
 20
4.220506
 42
0.414214
 10
1.392111
 20
4.345506
 42
0.414214
 10
1.267111
 20
4.470506
  0
LWPOLYLINE
  5
A7
330
1F
100
AcDbEntity
  8
0
100
AcDbPolyline
 90
        5
 70
   128
 43
0.0
 10
1.180048
 20
4.375529
 42
0.414214
 10
1.055048
 20
4.250529
 42
0.414214
 10
1.180048
 20
4.125529
 42
0.414214
 10
1.305048
 20
4.250529
 42
0.414214
 10
1.180048
 20
4.375529
  0
LWPOLYLINE
  5
A8
330
1F
100
AcDbEntity
  8
0
100
AcDbPolyline
 90
        5
 70
   128
 43
0.0
 10
1.113564
 20
4.272637
 42
0.414214
 10
0.988564
 20
4.147637
 42
0.414214
 10
1.113564
 20
4.022637
 42
0.414214
 10
1.238564
 20
4.147637
 42
0.414214
 10
1.113564
 20
4.272637
  0
LWPOLYLINE
  5
A9
330
1F
100
AcDbEntity
  8
0
100
AcDbPolyline
 90
        5
 70
   128
 43
0.0
 10
1.018586
 20
4.177659
 42
0.414214
 10
0.893586
 20
4.052659
 42
0.414214
 10
1.018586
 20
3.927659
 42
0.414214
 10
1.143586
 20
4.052659
 42
0.414214
 10
1.018586
 20
4.177659
  0
LWPOLYLINE
  5
AA
330
1F
100
AcDbEntity
  8
0
100
AcDbPolyline
 90
        5
 70
   128
 43
0.0
 10
1.989257
 20
4.68104
 42
0.414214
 10
1.864257
 20
4.55604
 42
0.414214
 10
1.989257
 20
4.43104
 42
0.414214
 10
2.114257
 20
4.55604
 42
0.414214
 10
1.989257
 20
4.68104
  0
LWPOLYLINE
  5
AB
330
1F
100
AcDbEntity
  8
0
100
AcDbPolyline
 90
        5
 70
   128
 43
0.0
 10
1.856288
 20
4.693704
 42
0.414214
 10
1.731288
 20
4.568704
 42
0.414214
 10
1.856288
 20
4.443704
 42
0.414214
 10
1.981288
 20
4.568704
 42
0.414214
 10
1.856288
 20
4.693704
  0
LWPOLYLINE
  5
AC
330
1F
100
AcDbEntity
  8
0
100
AcDbPolyline
 90
        5
 70
   128
 43
0.0
 10
1.732817
 20
4.684206
 42
0.414214
 10
1.607817
 20
4.559206
 42
0.414214
 10
1.732817
 20
4.434206
 42
0.414214
 10
1.857817
 20
4.559206
 42
0.414214
 10
1.732817
 20
4.684206
  0
LWPOLYLINE
  5
AD
330
1F
100
AcDbEntity
  8
0
100
AcDbPolyline
 90
        5
 70
   128
 43
0.0
 10
1.606181
 20
4.652547
 42
0.414214
 10
1.481181
 20
4.527547
 42
0.414214
 10
1.606181
 20
4.402547
 42
0.414214
 10
1.731181
 20
4.527547
 42
0.414214
 10
1.606181
 20
4.652547
  0
LWPOLYLINE
  5
AE
330
1F
100
AcDbEntity
  8
0
100
AcDbPolyline
 90
        5
 70
   128
 43
0.0
 10
1.490625
 20
4.600309
 42
0.414214
 10
1.365625
 20
4.475309
 42
0.414214
 10
1.490625
 20
4.350309
 42
0.414214
 10
1.615625
 20
4.475309
 42
0.414214
 10
1.490625
 20
4.600309
  0
LWPOLYLINE
  5
AF
330
1F
100
AcDbEntity
  8
0
100
AcDbPolyline
 90
        5
 70
   128
 43
0.0
 10
2.613734
 20
4.521161
 42
0.414214
 10
2.488734
 20
4.396161
 42
0.414214
 10
2.613734
 20
4.271161
 42
0.414214
 10
2.738734
 20
4.396161
 42
0.414214
 10
2.613734
 20
4.521161
  0
LWPOLYLINE
  5
B0
330
1F
100
AcDbEntity
  8
0
100
AcDbPolyline
 90
        5
 70
   128
 43
0.0
 10
2.487097
 20
4.546489
 42
0.414214
 10
2.362097
 20
4.421489
 42
0.414214
 10
2.487097
 20
4.296489
 42
0.414214
 10
2.612097
 20
4.421489
 42
0.414214
 10
2.487097
 20
4.546489
  0
LWPOLYLINE
  5
B1
330
1F
100
AcDbEntity
  8
0
100
AcDbPolyline
 90
        5
 70
   128
 43
0.0
 10
2.363627
 20
4.589228
 42
0.414214
 10
2.238627
 20
4.464228
 42
0.414214
 10
2.363627
 20
4.339228
 42
0.414214
 10
2.488627
 20
4.464228
 42
0.414214
 10
2.363627
 20
4.589228
  0
LWPOLYLINE
  5
B2
330
1F
100
AcDbEntity
  8
0
100
AcDbPolyline
 90
        5
 70
   128
 43
0.0
 10
2.241739
 20
4.630385
 42
0.414214
 10
2.116739
 20
4.505385
 42
0.414214
 10
2.241739
 20
4.380385
 42
0.414214
 10
2.366739
 20
4.505385
 42
0.414214
 10
2.241739
 20
4.630385
  0
LWPOLYLINE
  5
B3
330
1F
100
AcDbEntity
  8
0
100
AcDbPolyline
 90
        5
 70
   128
 43
0.0
 10
2.113519
 20
4.65413
 42
0.414214
 10
1.988519
 20
4.52913
 42
0.414214
 10
2.113519
 20
4.40413
 42
0.414214
 10
2.238519
 20
4.52913
 42
0.414214
 10
2.113519
 20
4.65413
  0
LWPOLYLINE
  5
B4
330
1F
100
AcDbEntity
  8
0
100
AcDbPolyline
 90
        5
 70
   128
 43
0.0
 10
3.188349
 20
4.248892
 42
0.414214
 10
3.063349
 20
4.123892
 42
0.414214
 10
3.188349
 20
3.998892
 42
0.414214
 10
3.313349
 20
4.123892
 42
0.414214
 10
3.188349
 20
4.248892
  0
LWPOLYLINE
  5
B5
330
1F
100
AcDbEntity
  8
0
100
AcDbPolyline
 90
        5
 70
   128
 43
0.0
 10
3.090205
 20
4.332789
 42
0.414214
 10
2.965205
 20
4.207789
 42
0.414214
 10
3.090205
 20
4.082789
 42
0.414214
 10
3.215205
 20
4.207789
 42
0.414214
 10
3.090205
 20
4.332789
  0
LWPOLYLINE
  5
B6
330
1F
100
AcDbEntity
  8
0
100
AcDbPolyline
 90
        5
 70
   128
 43
0.0
 10
2.976303
 20
4.386886
 42
0.414214
 10
2.851303
 20
4.261886
 42
0.414214
 10
2.976303
 20
4.136886
 42
0.414214
 10
3.101303
 20
4.261886
 42
0.414214
 10
2.976303
 20
4.386886
  0
LWPOLYLINE
  5
B7
330
1F
100
AcDbEntity
  8
0
100
AcDbPolyline
 90
        5
 70
   128
 43
0.0
 10
2.871957
 20
4.437127
 42
0.414214
 10
2.746957
 20
4.312127
 42
0.414214
 10
2.871957
 20
4.187127
 42
0.414214
 10
2.996957
 20
4.312127
 42
0.414214
 10
2.871957
 20
4.437127
  0
LWPOLYLINE
  5
B8
330
1F
100
AcDbEntity
  8
0
100
AcDbPolyline
 90
        5
 70
   128
 43
0.0
 10
2.749869
 20
4.476838
 42
0.414214
 10
2.624869
 20
4.351838
 42
0.414214
 10
2.749869
 20
4.226838
 42
0.414214
 10
2.874869
 20
4.351838
 42
0.414214
 10
2.749869
 20
4.476838
  0
LWPOLYLINE
  5
B9
330
1F
100
AcDbEntity
  8
0
100
AcDbPolyline
 90
        5
 70
   128
 43
0.0
 10
3.554329
 20
4.008441
 42
0.414214
 10
3.429329
 20
3.883441
 42
0.414214
 10
3.554329
 20
3.758441
 42
0.414214
 10
3.679329
 20
3.883441
 42
0.414214
 10
3.554329
 20
4.008441
  0
LWPOLYLINE
  5
BA
330
1F
100
AcDbEntity
  8
0
100
AcDbPolyline
 90
        5
 70
   128
 43
0.0
 10
3.453019
 20
3.916629
 42
0.414214
 10
3.328019
 20
3.791629
 42
0.414214
 10
3.453019
 20
3.666629
 42
0.414214
 10
3.578019
 20
3.791629
 42
0.414214
 10
3.453019
 20
3.916629
  0
LWPOLYLINE
  5
BB
330
1F
100
AcDbEntity
  8
0
100
AcDbPolyline
 90
        5
 70
   128
 43
0.0
 10
3.332714
 20
3.875472
 42
0.414214
 10
3.207714
 20
3.750472
 42
0.414214
 10
3.332714
 20
3.625472
 42
0.414214
 10
3.457714
 20
3.750472
 42
0.414214
 10
3.332714
 20
3.875472
  0
LWPOLYLINE
  5
BC
330
1F
100
AcDbEntity
  8
0
100
AcDbPolyline
 90
        5
 70
   128
 43
0.0
 10
3.297889
 20
4.000526
 42
0.414214
 10
3.172889
 20
3.875526
 42
0.414214
 10
3.297889
 20
3.750526
 42
0.414214
 10
3.422889
 20
3.875526
 42
0.414214
 10
3.297889
 20
4.000526
  0
LWPOLYLINE
  5
BD
330
1F
100
AcDbEntity
  8
0
100
AcDbPolyline
 90
        5
 70
   128
 43
0.0
 10
3.251983
 20
4.130328
 42
0.414214
 10
3.126983
 20
4.005328
 42
0.414214
 10
3.251983
 20
3.880328
 42
0.414214
 10
3.376983
 20
4.005328
 42
0.414214
 10
3.251983
 20
4.130328
  0
LWPOLYLINE
  5
BE
330
1F
100
AcDbEntity
  8
0
100
AcDbPolyline
 90
        5
 70
   128
 43
0.0
 10
4.064675
 20
4.397215
 42
0.414214
 10
3.939675
 20
4.272215
 42
0.414214
 10
4.064675
 20
4.147215
 42
0.414214
 10
4.189675
 20
4.272215
 42
0.414214
 10
4.064675
 20
4.397215
  0
LWPOLYLINE
  5
BF
330
1F
100
AcDbEntity
  8
0
100
AcDbPolyline
 90
        5
 70
   128
 43
0.0
 10
3.966531
 20
4.314902
 42
0.414214
 10
3.841531
 20
4.189902
 42
0.414214
 10
3.966531
 20
4.064902
 42
0.414214
 10
4.091531
 20
4.189902
 42
0.414214
 10
3.966531
 20
4.314902
  0
LWPOLYLINE
  5
C0
330
1F
100
AcDbEntity
  8
0
100
AcDbPolyline
 90
        5
 70
   128
 43
0.0
 10
3.863639
 20
4.243668
 42
0.414214
 10
3.738639
 20
4.118668
 42
0.414214
 10
3.863639
 20
3.993668
 42
0.414214
 10
3.988639
 20
4.118668
 42
0.414214
 10
3.863639
 20
4.243668
  0
LWPOLYLINE
  5
C1
330
1F
100
AcDbEntity
  8
0
100
AcDbPolyline
 90
        5
 70
   128
 43
0.0
 10
3.76233
 20
4.169269
 42
0.414214
 10
3.63733
 20
4.044269
 42
0.414214
 10
3.76233
 20
3.919269
 42
0.414214
 10
3.88733
 20
4.044269
 42
0.414214
 10
3.76233
 20
4.169269
  0
LWPOLYLINE
  5
C2
330
1F
100
AcDbEntity
  8
0
100
AcDbPolyline
 90
        5
 70
   128
 43
0.0
 10
3.66102
 20
4.085372
 42
0.414214
 10
3.53602
 20
3.960372
 42
0.414214
 10
3.66102
 20
3.835372
 42
0.414214
 10
3.78602
 20
3.960372
 42
0.414214
 10
3.66102
 20
4.085372
  0
LWPOLYLINE
  5
C3
330
1F
100
AcDbEntity
  8
0
100
AcDbPolyline
 90
        5
 70
   128
 43
0.0
 10
4.625201
 20
4.715549
 42
0.414214
 10
4.500201
 20
4.590549
 42
0.414214
 10
4.625201
 20
4.465549
 42
0.414214
 10
4.750201
 20
4.590549
 42
0.414214
 10
4.625201
 20
4.715549
  0
LWPOLYLINE
  5
C4
330
1F
100
AcDbEntity
  8
0
100
AcDbPolyline
 90
        5
 70
   128
 43
0.0
 10
4.525474
 20
4.639567
 42
0.414214
 10
4.400474
 20
4.514567
 42
0.414214
 10
4.525474
 20
4.389567
 42
0.414214
 10
4.650474
 20
4.514567
 42
0.414214
 10
4.525474
 20
4.639567
  0
LWPOLYLINE
  5
C5
330
1F
100
AcDbEntity
  8
0
100
AcDbPolyline
 90
        5
 70
   128
 43
0.0
 10
4.406752
 20
4.58258
 42
0.414214
 10
4.281752
 20
4.45758
 42
0.414214
 10
4.406752
 20
4.33258
 42
0.414214
 10
4.531752
 20
4.45758
 42
0.414214
 10
4.406752
 20
4.58258
  0
LWPOLYLINE
  5
C6
330
1F
100
AcDbEntity
  8
0
100
AcDbPolyline
 90
        5
 70
   128
 43
0.0
 10
4.289613
 20
4.528759
 42
0.414214
 10
4.164613
 20
4.403759
 42
0.414214
 10
4.289613
 20
4.278759
 42
0.414214
 10
4.414613
 20
4.403759
 42
0.414214
 10
4.289613
 20
4.528759
  0
LWPOLYLINE
  5
C7
330
1F
100
AcDbEntity
  8
0
100
AcDbPolyline
 90
        5
 70
   128
 43
0.0
 10
4.177223
 20
4.462275
 42
0.414214
 10
4.052223
 20
4.337275
 42
0.414214
 10
4.177223
 20
4.212275
 42
0.414214
 10
4.302223
 20
4.337275
 42
0.414214
 10
4.177223
 20
4.462275
  0
LWPOLYLINE
  5
C8
330
1F
100
AcDbEntity
  8
0
100
AcDbPolyline
 90
        5
 70
   128
 43
0.0
 10
4.888605
 20
5.289846
 42
0.414214
 10
4.763605
 20
5.164846
 42
0.414214
 10
4.888605
 20
5.039846
 42
0.414214
 10
5.013605
 20
5.164846
 42
0.414214
 10
4.888605
 20
5.289846
  0
LWPOLYLINE
  5
C9
330
1F
100
AcDbEntity
  8
0
100
AcDbPolyline
 90
        5
 70
   128
 43
0.0
 10
4.833202
 20
5.175873
 42
0.414214
 10
4.708202
 20
5.050873
 42
0.414214
 10
4.833202
 20
4.925873
 42
0.414214
 10
4.958202
 20
5.050873
 42
0.414214
 10
4.833202
 20
5.175873
  0
LWPOLYLINE
  5
CA
330
1F
100
AcDbEntity
  8
0
100
AcDbPolyline
 90
        5
 70
   128
 43
0.0
 10
4.793628
 20
5.052402
 42
0.414214
 10
4.668628
 20
4.927402
 42
0.414214
 10
4.793628
 20
4.802402
 42
0.414214
 10
4.918628
 20
4.927402
 42
0.414214
 10
4.793628
 20
5.052402
  0
LWPOLYLINE
  5
CB
330
1F
100
AcDbEntity
  8
0
100
AcDbPolyline
 90
        5
 70
   128
 43
0.0
 10
4.755637
 20
4.936846
 42
0.414214
 10
4.630637
 20
4.811846
 42
0.414214
 10
4.755637
 20
4.686846
 42
0.414214
 10
4.880637
 20
4.811846
 42
0.414214
 10
4.755637
 20
4.936846
  0
LWPOLYLINE
  5
CC
330
1F
100
AcDbEntity
  8
0
100
AcDbPolyline
 90
        5
 70
   128
 43
0.0
 10
4.706565
 20
4.814958
 42
0.414214
 10
4.581565
 20
4.689958
 42
0.414214
 10
4.706565
 20
4.564958
 42
0.414214
 10
4.831565
 20
4.689958
 42
0.414214
 10
4.706565
 20
4.814958
  0
LWPOLYLINE
  5
CD
330
1F
100
AcDbEntity
  8
0
100
AcDbPolyline
 90
        5
 70
   128
 43
0.0
 10
4.956198
 20
5.392739
 42
0.414214
 10
4.831198
 20
5.267739
 42
0.414214
 10
4.956198
 20
5.142739
 42
0.414214
 10
5.081198
 20
5.267739
 42
0.414214
 10
4.956198
 20
5.392739
  0
LWPOLYLINE
  5
CE
330
1F
100
AcDbEntity
  8
0
100
AcDbPolyline
 90
        5
 70
   128
 43
0.0
 10
5.029014
 20
5.495631
 42
0.414214
 10
4.904014
 20
5.370631
 42
0.414214
 10
5.029014
 20
5.245631
 42
0.414214
 10
5.154014
 20
5.370631
 42
0.414214
 10
5.029014
 20
5.495631
  0
LWPOLYLINE
  5
CF
330
1F
100
AcDbEntity
  8
0
100
AcDbPolyline
 90
        5
 70
   128
 43
0.0
 10
5.376236
 20
5.853063
 42
0.414214
 10
5.251236
 20
5.728063
 42
0.414214
 10
5.376236
 20
5.603063
 42
0.414214
 10
5.501236
 20
5.728063
 42
0.414214
 10
5.376236
 20
5.853063
  0
LWPOLYLINE
  5
D0
330
1F
100
AcDbEntity
  8
0
100
AcDbPolyline
 90
        5
 70
   128
 43
0.0
 10
5.312997
 20
5.751279
 42
0.414214
 10
5.187997
 20
5.626279
 42
0.414214
 10
5.312997
 20
5.501279
 42
0.414214
 10
5.437997
 20
5.626279
 42
0.414214
 10
5.312997
 20
5.751279
  0
LWPOLYLINE
  5
D1
330
1F
100
AcDbEntity
  8
0
100
AcDbPolyline
 90
        5
 70
   128
 43
0.0
 10
5.208521
 20
5.678463
 42
0.414214
 10
5.083521
 20
5.553463
 42
0.414214
 10
5.208521
 20
5.428463
 42
0.414214
 10
5.333521
 20
5.553463
 42
0.414214
 10
5.208521
 20
5.678463
  0
LWPOLYLINE
  5
D2
330
1F
100
AcDbEntity
  8
0
100
AcDbPolyline
 90
        5
 70
   128
 43
0.0
 10
5.123041
 20
5.583485
 42
0.414214
 10
4.998041
 20
5.458485
 42
0.414214
 10
5.123041
 20
5.333485
 42
0.414214
 10
5.248041
 20
5.458485
 42
0.414214
 10
5.123041
 20
5.583485
  0
LWPOLYLINE
  5
D3
330
1F
100
AcDbEntity
  8
0
100
AcDbPolyline
 90
        5
 70
   128
 43
0.0
 10
5.458666
 20
6.22524
 42
0.414214
 10
5.333666
 20
6.10024
 42
0.414214
 10
5.458666
 20
5.97524
 42
0.414214
 10
5.583666
 20
6.10024
 42
0.414214
 10
5.458666
 20
6.22524
  0
LWPOLYLINE
  5
D4
330
1F
100
AcDbEntity
  8
0
100
AcDbPolyline
 90
        5
 70
   128
 43
0.0
 10
5.556809
 20
6.152424
 42
0.414214
 10
5.431809
 20
6.027424
 42
0.414214
 10
5.556809
 20
5.902424
 42
0.414214
 10
5.681809
 20
6.027424
 42
0.414214
 10
5.556809
 20
6.152424
  0
LWPOLYLINE
  5
D5
330
1F
100
AcDbEntity
  8
0
100
AcDbPolyline
 90
        5
 70
   128
 43
0.0
 10
5.57094
 20
6.024023
 42
0.414214
 10
5.44594
 20
5.899023
 42
0.414214
 10
5.57094
 20
5.774023
 42
0.414214
 10
5.69594
 20
5.899023
 42
0.414214
 10
5.57094
 20
6.024023
  0
LWPOLYLINE
  5
D6
330
1F
100
AcDbEntity
  8
0
100
AcDbPolyline
 90
        5
 70
   128
 43
0.0
 10
5.488626
 20
5.933794
 42
0.414214
 10
5.363626
 20
5.808794
 42
0.414214
 10
5.488626
 20
5.683794
 42
0.414214
 10
5.613626
 20
5.808794
 42
0.414214
 10
5.488626
 20
5.933794
  0
LWPOLYLINE
  5
D7
330
1F
100
AcDbEntity
  8
0
100
AcDbPolyline
 90
        5
 70
   128
 43
0.0
 10
5.351024
 20
5.94664
 42
0.414214
 10
5.226024
 20
5.82164
 42
0.414214
 10
5.351024
 20
5.69664
 42
0.414214
 10
5.476024
 20
5.82164
 42
0.414214
 10
5.351024
 20
5.94664
  0
LWPOLYLINE
  5
D8
330
1F
100
AcDbEntity
  8
0
100
AcDbPolyline
 90
        5
 70
   128
 43
0.0
 10
5.874984
 20
5.608203
 42
0.414214
 10
5.749984
 20
5.483203
 42
0.414214
 10
5.874984
 20
5.358203
 42
0.414214
 10
5.999984
 20
5.483203
 42
0.414214
 10
5.874984
 20
5.608203
  0
LWPOLYLINE
  5
D9
330
1F
100
AcDbEntity
  8
0
100
AcDbPolyline
 90
        5
 70
   128
 43
0.0
 10
5.827495
 20
5.726608
 42
0.414214
 10
5.702495
 20
5.601608
 42
0.414214
 10
5.827495
 20
5.476608
 42
0.414214
 10
5.952495
 20
5.601608
 42
0.414214
 10
5.827495
 20
5.726608
  0
LWPOLYLINE
  5
DA
330
1F
100
AcDbEntity
  8
0
100
AcDbPolyline
 90
        5
 70
   128
 43
0.0
 10
5.794253
 20
5.843747
 42
0.414214
 10
5.669253
 20
5.718747
 42
0.414214
 10
5.794253
 20
5.593747
 42
0.414214
 10
5.919253
 20
5.718747
 42
0.414214
 10
5.794253
 20
5.843747
  0
LWPOLYLINE
  5
DB
330
1F
100
AcDbEntity
  8
0
100
AcDbPolyline
 90
        5
 70
   128
 43
0.0
 10
5.735684
 20
5.960886
 42
0.414214
 10
5.610684
 20
5.835886
 42
0.414214
 10
5.735684
 20
5.710886
 42
0.414214
 10
5.860684
 20
5.835886
 42
0.414214
 10
5.735684
 20
5.960886
  0
LWPOLYLINE
  5
DC
330
1F
100
AcDbEntity
  8
0
100
AcDbPolyline
 90
        5
 70
   128
 43
0.0
 10
5.639123
 20
6.049532
 42
0.414214
 10
5.514123
 20
5.924532
 42
0.414214
 10
5.639123
 20
5.799532
 42
0.414214
 10
5.764123
 20
5.924532
 42
0.414214
 10
5.639123
 20
6.049532
  0
LWPOLYLINE
  5
DD
330
1F
100
AcDbEntity
  8
0
100
AcDbPolyline
 90
        5
 70
   128
 43
0.0
 10
6.165299
 20
5.361261
 42
0.414214
 10
6.040299
 20
5.236261
 42
0.414214
 10
6.165299
 20
5.111261
 42
0.414214
 10
6.290299
 20
5.236261
 42
0.414214
 10
6.165299
 20
5.361261
  0
LWPOLYLINE
  5
DE
330
1F
100
AcDbEntity
  8
0
100
AcDbPolyline
 90
        5
 70
   128
 43
0.0
 10
6.07507
 20
5.446741
 42
0.414214
 10
5.95007
 20
5.321741
 42
0.414214
 10
6.07507
 20
5.196741
 42
0.414214
 10
6.20007
 20
5.321741
 42
0.414214
 10
6.07507
 20
5.446741
  0
LWPOLYLINE
  5
DF
330
1F
100
AcDbEntity
  8
0
100
AcDbPolyline
 90
        5
 70
   128
 43
0.0
 10
5.972178
 20
5.524306
 42
0.414214
 10
5.847178
 20
5.399306
 42
0.414214
 10
5.972178
 20
5.274306
 42
0.414214
 10
6.097178
 20
5.399306
 42
0.414214
 10
5.972178
 20
5.524306
  0
LWPOLYLINE
  5
E0
330
1F
100
AcDbEntity
  8
0
100
AcDbPolyline
 90
        5
 70
   128
 43
0.0
 10
5.647206
 20
4.527272
 42
0.414214
 10
5.522206
 20
4.402272
 42
0.414214
 10
5.647206
 20
4.277272
 42
0.414214
 10
5.772206
 20
4.402272
 42
0.414214
 10
5.647206
 20
4.527272
  0
LWPOLYLINE
  5
E1
330
1F
100
AcDbEntity
  8
0
100
AcDbPolyline
 90
        5
 70
   128
 43
0.0
 10
5.178959
 20
4.977321
 42
0.414214
 10
5.053959
 20
4.852321
 42
0.414214
 10
5.178959
 20
4.727321
 42
0.414214
 10
5.303959
 20
4.852321
 42
0.414214
 10
5.178959
 20
4.977321
  0
LWPOLYLINE
  5
E2
330
1F
100
AcDbEntity
  8
0
100
AcDbPolyline
 90
        5
 70
   128
 43
0.0
 10
5.292735
 20
4.898173
 42
0.414214
 10
5.167735
 20
4.773173
 42
0.414214
 10
5.292735
 20
4.648173
 42
0.414214
 10
5.417735
 20
4.773173
 42
0.414214
 10
5.292735
 20
4.898173
  0
LWPOLYLINE
  5
E3
330
1F
100
AcDbEntity
  8
0
100
AcDbPolyline
 90
        5
 70
   128
 43
0.0
 10
5.381776
 20
4.833865
 42
0.414214
 10
5.256776
 20
4.708865
 42
0.414214
 10
5.381776
 20
4.583865
 42
0.414214
 10
5.506776
 20
4.708865
 42
0.414214
 10
5.381776
 20
4.833865
  0
LWPOLYLINE
  5
E4
330
1F
100
AcDbEntity
  8
0
100
AcDbPolyline
 90
        5
 70
   128
 43
0.0
 10
5.512865
 20
4.791818
 42
0.414214
 10
5.387865
 20
4.666818
 42
0.414214
 10
5.512865
 20
4.541818
 42
0.414214
 10
5.637865
 20
4.666818
 42
0.414214
 10
5.512865
 20
4.791818
  0
LWPOLYLINE
  5
E5
330
1F
100
AcDbEntity
  8
0
100
AcDbPolyline
 90
        5
 70
   128
 43
0.0
 10
5.263054
 20
4.715143
 42
0.414214
 10
5.138054
 20
4.590143
 42
0.414214
 10
5.263054
 20
4.465143
 42
0.414214
 10
5.388054
 20
4.590143
 42
0.414214
 10
5.263054
 20
4.715143
  0
LWPOLYLINE
  5
E6
330
1F
100
AcDbEntity
  8
0
100
AcDbPolyline
 90
        5
 70
   128
 43
0.0
 10
5.396616
 20
4.658256
 42
0.414214
 10
5.271616
 20
4.533256
 42
0.414214
 10
5.396616
 20
4.408256
 42
0.414214
 10
5.521616
 20
4.533256
 42
0.414214
 10
5.396616
 20
4.658256
  0
LWPOLYLINE
  5
E7
330
1F
100
AcDbEntity
  8
0
100
AcDbPolyline
 90
        5
 70
   128
 43
0.0
 10
5.535125
 20
4.626102
 42
0.414214
 10
5.410125
 20
4.501102
 42
0.414214
 10
5.535125
 20
4.376102
 42
0.414214
 10
5.660125
 20
4.501102
 42
0.414214
 10
5.535125
 20
4.626102
  0
LWPOLYLINE
  5
E8
330
1F
100
AcDbEntity
  8
0
100
AcDbPolyline
 90
        5
 70
   128
 43
0.0
 10
4.983563
 20
5.120777
 42
0.414214
 10
4.858563
 20
4.995777
 42
0.414214
 10
4.983563
 20
4.870777
 42
0.414214
 10
5.108563
 20
4.995777
 42
0.414214
 10
4.983563
 20
5.120777
  0
LWPOLYLINE
  5
E9
330
1F
100
AcDbEntity
  8
0
100
AcDbPolyline
 90
        5
 70
   128
 43
0.0
 10
5.089918
 20
5.041629
 42
0.414214
 10
4.964918
 20
4.916629
 42
0.414214
 10
5.089918
 20
4.791629
 42
0.414214
 10
5.214918
 20
4.916629
 42
0.414214
 10
5.089918
 20
5.041629
  0
LWPOLYLINE
  5
EA
330
1F
100
AcDbEntity
  8
0
100
AcDbPolyline
 90
        5
 70
   128
 43
0.0
 10
4.934095
 20
4.8957
 42
0.414214
 10
4.809095
 20
4.7707
 42
0.414214
 10
4.934095
 20
4.6457
 42
0.414214
 10
5.059095
 20
4.7707
 42
0.414214
 10
4.934095
 20
4.8957
  0
LWPOLYLINE
  5
EB
330
1F
100
AcDbEntity
  8
0
100
AcDbPolyline
 90
        5
 70
   128
 43
0.0
 10
5.042924
 20
4.828919
 42
0.414214
 10
4.917924
 20
4.703919
 42
0.414214
 10
5.042924
 20
4.578919
 42
0.414214
 10
5.167924
 20
4.703919
 42
0.414214
 10
5.042924
 20
4.828919
  0
LWPOLYLINE
  5
EC
330
1F
100
AcDbEntity
  8
0
100
AcDbPolyline
 90
        5
 70
   128
 43
0.0
 10
5.151752
 20
4.776978
 42
0.414214
 10
5.026752
 20
4.651978
 42
0.414214
 10
5.151752
 20
4.526978
 42
0.414214
 10
5.276752
 20
4.651978
 42
0.414214
 10
5.151752
 20
4.776978
  0
LWPOLYLINE
  5
ED
330
1F
100
AcDbEntity
  8
0
100
AcDbPolyline
 90
        5
 70
   128
 43
0.0
 10
1.041881
 20
3.229
 42
0.414214
 10
0.916881
 20
3.104
 42
0.414214
 10
1.041881
 20
2.979
 42
0.414214
 10
1.166881
 20
3.104
 42
0.414214
 10
1.041881
 20
3.229
  0
LWPOLYLINE
  5
EE
330
1F
100
AcDbEntity
  8
0
100
AcDbPolyline
 90
        5
 70
   128
 43
0.0
 10
1.043859
 20
3.114236
 42
0.414214
 10
0.918859
 20
2.989236
 42
0.414214
 10
1.043859
 20
2.864236
 42
0.414214
 10
1.168859
 20
2.989236
 42
0.414214
 10
1.043859
 20
3.114236
  0
LWPOLYLINE
  5
EF
330
1F
100
AcDbEntity
  8
0
100
AcDbPolyline
 90
        5
 70
   128
 43
0.0
 10
1.061668
 20
2.977705
 42
0.414214
 10
0.936668
 20
2.852705
 42
0.414214
 10
1.061668
 20
2.727705
 42
0.414214
 10
1.186668
 20
2.852705
 42
0.414214
 10
1.061668
 20
2.977705
  0
LWPOLYLINE
  5
F0
330
1F
100
AcDbEntity
  8
0
100
AcDbPolyline
 90
        5
 70
   128
 43
0.0
 10
1.081455
 20
2.868877
 42
0.414214
 10
0.956455
 20
2.743877
 42
0.414214
 10
1.081455
 20
2.618877
 42
0.414214
 10
1.206455
 20
2.743877
 42
0.414214
 10
1.081455
 20
2.868877
  0
LWPOLYLINE
  5
F1
330
1F
100
AcDbEntity
  8
0
100
AcDbPolyline
 90
        5
 70
   128
 43
0.0
 10
1.111127
 20
2.739106
 42
0.414214
 10
0.986127
 20
2.614106
 42
0.414214
 10
1.111127
 20
2.489106
 42
0.414214
 10
1.236127
 20
2.614106
 42
0.414214
 10
1.111127
 20
2.739106
  0
LWPOLYLINE
  5
F2
330
1F
100
AcDbEntity
  8
0
100
AcDbPolyline
 90
        5
 70
   128
 43
0.0
 10
1.227878
 20
3.833691
 42
0.414214
 10
1.102878
 20
3.708691
 42
0.414214
 10
1.227878
 20
3.583691
 42
0.414214
 10
1.352878
 20
3.708691
 42
0.414214
 10
1.227878
 20
3.833691
  0
LWPOLYLINE
  5
F3
330
1F
100
AcDbEntity
  8
0
100
AcDbPolyline
 90
        5
 70
   128
 43
0.0
 10
1.16456
 20
3.716947
 42
0.414214
 10
1.03956
 20
3.591947
 42
0.414214
 10
1.16456
 20
3.466947
 42
0.414214
 10
1.28956
 20
3.591947
 42
0.414214
 10
1.16456
 20
3.716947
  0
LWPOLYLINE
  5
F4
330
1F
100
AcDbEntity
  8
0
100
AcDbPolyline
 90
        5
 70
   128
 43
0.0
 10
1.11905
 20
3.60614
 42
0.414214
 10
0.99405
 20
3.48114
 42
0.414214
 10
1.11905
 20
3.35614
 42
0.414214
 10
1.24405
 20
3.48114
 42
0.414214
 10
1.11905
 20
3.60614
  0
LWPOLYLINE
  5
F5
330
1F
100
AcDbEntity
  8
0
100
AcDbPolyline
 90
        5
 70
   128
 43
0.0
 10
1.083433
 20
3.475546
 42
0.414214
 10
0.958433
 20
3.350546
 42
0.414214
 10
1.083433
 20
3.225546
 42
0.414214
 10
1.208433
 20
3.350546
 42
0.414214
 10
1.083433
 20
3.475546
  0
LWPOLYLINE
  5
F6
330
1F
100
AcDbEntity
  8
0
100
AcDbPolyline
 90
        5
 70
   128
 43
0.0
 10
1.067604
 20
3.360781
 42
0.414214
 10
0.942604
 20
3.235781
 42
0.414214
 10
1.067604
 20
3.110781
 42
0.414214
 10
1.192604
 20
3.235781
 42
0.414214
 10
1.067604
 20
3.360781
  0
LWPOLYLINE
  5
F7
330
1F
100
AcDbEntity
  8
0
100
AcDbPolyline
 90
        5
 70
   128
 43
0.0
 10
1.66339
 20
4.267619
 42
0.414214
 10
1.53839
 20
4.142619
 42
0.414214
 10
1.66339
 20
4.017619
 42
0.414214
 10
1.78839
 20
4.142619
 42
0.414214
 10
1.66339
 20
4.267619
  0
LWPOLYLINE
  5
F8
330
1F
100
AcDbEntity
  8
0
100
AcDbPolyline
 90
        5
 70
   128
 43
0.0
 10
1.564455
 20
4.212216
 42
0.414214
 10
1.439455
 20
4.087216
 42
0.414214
 10
1.564455
 20
3.962216
 42
0.414214
 10
1.689455
 20
4.087216
 42
0.414214
 10
1.564455
 20
4.212216
  0
LWPOLYLINE
  5
F9
330
1F
100
AcDbEntity
  8
0
100
AcDbPolyline
 90
        5
 70
   128
 43
0.0
 10
1.463541
 20
4.117238
 42
0.414214
 10
1.338541
 20
3.992238
 42
0.414214
 10
1.463541
 20
3.867238
 42
0.414214
 10
1.588541
 20
3.992238
 42
0.414214
 10
1.463541
 20
4.117238
  0
LWPOLYLINE
  5
FA
330
1F
100
AcDbEntity
  8
0
100
AcDbPolyline
 90
        5
 70
   128
 43
0.0
 10
1.40418
 20
4.018303
 42
0.414214
 10
1.27918
 20
3.893303
 42
0.414214
 10
1.40418
 20
3.768303
 42
0.414214
 10
1.52918
 20
3.893303
 42
0.414214
 10
1.40418
 20
4.018303
  0
LWPOLYLINE
  5
FB
330
1F
100
AcDbEntity
  8
0
100
AcDbPolyline
 90
        5
 70
   128
 43
0.0
 10
1.307224
 20
3.921347
 42
0.414214
 10
1.182224
 20
3.796347
 42
0.414214
 10
1.307224
 20
3.671347
 42
0.414214
 10
1.432224
 20
3.796347
 42
0.414214
 10
1.307224
 20
3.921347
  0
LWPOLYLINE
  5
FC
330
1F
100
AcDbEntity
  8
0
100
AcDbPolyline
 90
        5
 70
   128
 43
0.0
 10
2.863168
 20
4.027478
 42
0.414214
 10
2.738168
 20
3.902478
 42
0.414214
 10
2.863168
 20
3.777478
 42
0.414214
 10
2.988168
 20
3.902478
 42
0.414214
 10
2.863168
 20
4.027478
  0
LWPOLYLINE
  5
FD
330
1F
100
AcDbEntity
  8
0
100
AcDbPolyline
 90
        5
 70
   128
 43
0.0
 10
2.164022
 20
4.304699
 42
0.414214
 10
2.039022
 20
4.179699
 42
0.414214
 10
2.164022
 20
4.054699
 42
0.414214
 10
2.289022
 20
4.179699
 42
0.414214
 10
2.164022
 20
4.304699
  0
LWPOLYLINE
  5
FE
330
1F
100
AcDbEntity
  8
0
100
AcDbPolyline
 90
        5
 70
   128
 43
0.0
 10
2.055193
 20
4.324486
 42
0.414214
 10
1.930193
 20
4.199486
 42
0.414214
 10
2.055193
 20
4.074486
 42
0.414214
 10
2.180193
 20
4.199486
 42
0.414214
 10
2.055193
 20
4.324486
  0
LWPOLYLINE
  5
FF
330
1F
100
AcDbEntity
  8
0
100
AcDbPolyline
 90
        5
 70
   128
 43
0.0
 10
1.921631
 20
4.317066
 42
0.414214
 10
1.796631
 20
4.192066
 42
0.414214
 10
1.921631
 20
4.067066
 42
0.414214
 10
2.046631
 20
4.192066
 42
0.414214
 10
1.921631
 20
4.317066
  0
LWPOLYLINE
  5
100
330
1F
100
AcDbEntity
  8
0
100
AcDbPolyline
 90
        5
 70
   128
 43
0.0
 10
1.805382
 20
4.304699
 42
0.414214
 10
1.680382
 20
4.179699
 42
0.414214
 10
1.805382
 20
4.054699
 42
0.414214
 10
1.930382
 20
4.179699
 42
0.414214
 10
1.805382
 20
4.304699
  0
LWPOLYLINE
  5
101
330
1F
100
AcDbEntity
  8
0
100
AcDbPolyline
 90
        5
 70
   128
 43
0.0
 10
2.775789
 20
4.098395
 42
0.414214
 10
2.650789
 20
3.973395
 42
0.414214
 10
2.775789
 20
3.848395
 42
0.414214
 10
2.900789
 20
3.973395
 42
0.414214
 10
2.775789
 20
4.098395
  0
LWPOLYLINE
  5
102
330
1F
100
AcDbEntity
  8
0
100
AcDbPolyline
 90
        5
 70
   128
 43
0.0
 10
2.646683
 20
4.160573
 42
0.414214
 10
2.521683
 20
4.035573
 42
0.414214
 10
2.646683
 20
3.910573
 42
0.414214
 10
2.771683
 20
4.035573
 42
0.414214
 10
2.646683
 20
4.160573
  0
LWPOLYLINE
  5
103
330
1F
100
AcDbEntity
  8
0
100
AcDbPolyline
 90
        5
 70
   128
 43
0.0
 10
2.544208
 20
4.194407
 42
0.414214
 10
2.419208
 20
4.069407
 42
0.414214
 10
2.544208
 20
3.944407
 42
0.414214
 10
2.669208
 20
4.069407
 42
0.414214
 10
2.544208
 20
4.194407
  0
LWPOLYLINE
  5
104
330
1F
100
AcDbEntity
  8
0
100
AcDbPolyline
 90
        5
 70
   128
 43
0.0
 10
2.409656
 20
4.23596
 42
0.414214
 10
2.284656
 20
4.11096
 42
0.414214
 10
2.409656
 20
3.98596
 42
0.414214
 10
2.534656
 20
4.11096
 42
0.414214
 10
2.409656
 20
4.23596
  0
LWPOLYLINE
  5
105
330
1F
100
AcDbEntity
  8
0
100
AcDbPolyline
 90
        5
 70
   128
 43
0.0
 10
3.219547
 20
3.854707
 42
0.414214
 10
3.094547
 20
3.729707
 42
0.414214
 10
3.219547
 20
3.604707
 42
0.414214
 10
3.344547
 20
3.729707
 42
0.414214
 10
3.219547
 20
3.854707
  0
LWPOLYLINE
  5
106
330
1F
100
AcDbEntity
  8
0
100
AcDbPolyline
 90
        5
 70
   128
 43
0.0
 10
3.084995
 20
3.91209
 42
0.414214
 10
2.959995
 20
3.78709
 42
0.414214
 10
3.084995
 20
3.66209
 42
0.414214
 10
3.209995
 20
3.78709
 42
0.414214
 10
3.084995
 20
3.91209
  0
LWPOLYLINE
  5
107
330
1F
100
AcDbEntity
  8
0
100
AcDbPolyline
 90
        5
 70
   128
 43
0.0
 10
2.976167
 20
3.969472
 42
0.414214
 10
2.851167
 20
3.844472
 42
0.414214
 10
2.976167
 20
3.719472
 42
0.414214
 10
3.101167
 20
3.844472
 42
0.414214
 10
2.976167
 20
3.969472
  0
LWPOLYLINE
  5
108
330
1F
100
AcDbEntity
  8
0
100
AcDbPolyline
 90
        5
 70
   128
 43
0.0
 10
2.304164
 20
4.27068
 42
0.414214
 10
2.179164
 20
4.14568
 42
0.414214
 10
2.304164
 20
4.02068
 42
0.414214
 10
2.429164
 20
4.14568
 42
0.414214
 10
2.304164
 20
4.27068
  0
LWPOLYLINE
  5
109
330
1F
100
AcDbEntity
  8
0
100
AcDbPolyline
 90
        5
 70
   128
 43
0.0
 10
5.742892
 20
4.462662
 42
0.414214
 10
5.617892
 20
4.337662
 42
0.414214
 10
5.742892
 20
4.212662
 42
0.414214
 10
5.867892
 20
4.337662
 42
0.414214
 10
5.742892
 20
4.462662
  0
LWPOLYLINE
  5
10A
330
1F
100
AcDbEntity
  8
0
100
AcDbPolyline
 90
        5
 70
   128
 43
0.0
 10
5.605568
 20
5.520853
 42
0.414214
 10
5.480568
 20
5.395853
 42
0.414214
 10
5.605568
 20
5.270853
 42
0.414214
 10
5.730568
 20
5.395853
 42
0.414214
 10
5.605568
 20
5.520853
  0
LWPOLYLINE
  5
10B
330
1F
100
AcDbEntity
  8
0
100
AcDbPolyline
 90
        5
 70
   128
 43
0.0
 10
4.754511
 20
1.967198
 42
0.414214
 10
4.629511
 20
1.842198
 42
0.414214
 10
4.754511
 20
1.717198
 42
0.414214
 10
4.879511
 20
1.842198
 42
0.414214
 10
4.754511
 20
1.967198
  0
LWPOLYLINE
  5
10C
330
1F
100
AcDbEntity
  8
0
100
AcDbPolyline
 90
        5
 70
   128
 43
0.0
 10
3.469903
 20
1.763145
 42
0.414214
 10
3.344903
 20
1.638145
 42
0.414214
 10
3.469903
 20
1.513145
 42
0.414214
 10
3.594903
 20
1.638145
 42
0.414214
 10
3.469903
 20
1.763145
  0
LWPOLYLINE
  5
10D
330
1F
100
AcDbEntity
  8
0
100
AcDbPolyline
 90
        5
 70
   128
 43
0.0
 10
3.605938
 20
1.760053
 42
0.414214
 10
3.480938
 20
1.635053
 42
0.414214
 10
3.605938
 20
1.510053
 42
0.414214
 10
3.730938
 20
1.635053
 42
0.414214
 10
3.605938
 20
1.760053
  0
ENDSEC
  0
SECTION
  2
OBJECTS
  0
DICTIONARY
  5
C
330
0
100
AcDbDictionary
281
     1
  3
ACAD_GROUP
350
D
  3
ACAD_LAYOUT
350
1A
  3
ACAD_MLINESTYLE
350
17
  3
ACAD_PLOTSETTINGS
350
19
  3
ACAD_PLOTSTYLENAME
350
E
  0
DICTIONARY
  5
D
102
{ACAD_REACTORS
330
C
102
}
330
C
100
AcDbDictionary
281
     1
  0
DICTIONARY
  5
1A
102
{ACAD_REACTORS
330
C
102
}
330
C
100
AcDbDictionary
281
     1
  3
Layout1
350
1E
  3
Layout2
350
26
  3
Model
350
22
  0
DICTIONARY
  5
17
102
{ACAD_REACTORS
330
C
102
}
330
C
100
AcDbDictionary
281
     1
  3
Standard
350
18
  0
DICTIONARY
  5
19
102
{ACAD_REACTORS
330
C
102
}
330
C
100
AcDbDictionary
281
     1
  0
ACDBDICTIONARYWDFLT
  5
E
102
{ACAD_REACTORS
330
C
102
}
330
C
100
AcDbDictionary
281
     1
  3
Normal
350
F
100
AcDbDictionaryWithDefault
340
F
  0
LAYOUT
  5
1E
102
{ACAD_REACTORS
330
1A
102
}
330
1A
100
AcDbPlotSettings
  1

  2

  4

  6

 40
0.0
 41
0.0
 42
0.0
 43
0.0
 44
0.0
 45
0.0
 46
0.0
 47
0.0
 48
0.0
 49
0.0
140
0.0
141
0.0
142
1.0
143
1.0
 70
   688
 72
     0
 73
     0
 74
     5
  7

 75
    16
147
1.0
148
0.0
149
0.0
100
AcDbLayout
  1
Layout1
 70
     1
 71
     1
 10
0.0
 20
0.0
 11
420.0
 21
297.0
 12
0.0
 22
0.0
 32
0.0
 14
1.000000E+20
 24
1.000000E+20
 34
1.000000E+20
 15
-1.000000E+20
 25
-1.000000E+20
 35
-1.000000E+20
146
0.0
 13
0.0
 23
0.0
 33
0.0
 16
1.0
 26
0.0
 36
0.0
 17
0.0
 27
1.0
 37
0.0
 76
     0
330
1B
  0
LAYOUT
  5
26
102
{ACAD_REACTORS
330
1A
102
}
330
1A
100
AcDbPlotSettings
  1

  2

  4

  6

 40
0.0
 41
0.0
 42
0.0
 43
0.0
 44
0.0
 45
0.0
 46
0.0
 47
0.0
 48
0.0
 49
0.0
140
0.0
141
0.0
142
1.0
143
1.0
 70
   688
 72
     0
 73
     0
 74
     5
  7

 75
    16
147
1.0
148
0.0
149
0.0
100
AcDbLayout
  1
Layout2
 70
     1
 71
     2
 10
0.0
 20
0.0
 11
0.0
 21
0.0
 12
0.0
 22
0.0
 32
0.0
 14
0.0
 24
0.0
 34
0.0
 15
0.0
 25
0.0
 35
0.0
146
0.0
 13
0.0
 23
0.0
 33
0.0
 16
1.0
 26
0.0
 36
0.0
 17
0.0
 27
1.0
 37
0.0
 76
     0
330
23
  0
LAYOUT
  5
22
102
{ACAD_REACTORS
330
1A
102
}
330
1A
100
AcDbPlotSettings
  1

  2

  4

  6

 40
0.0
 41
0.0
 42
0.0
 43
0.0
 44
0.0
 45
0.0
 46
0.0
 47
0.0
 48
0.0
 49
0.0
140
0.0
141
0.0
142
1.0
143
1.0
 70
  1712
 72
     0
 73
     0
 74
     0
  7

 75
     0
147
1.0
148
0.0
149
0.0
100
AcDbLayout
  1
Model
 70
     1
 71
     0
 10
0.0
 20
0.0
 11
0.0
 21
0.0
 12
0.0
 22
0.0
 32
0.0
 14
0.0
 24
0.0
 34
0.0
 15
0.0
 25
0.0
 35
0.0
146
0.0
 13
0.0
 23
0.0
 33
0.0
 16
1.0
 26
0.0
 36
0.0
 17
0.0
 27
1.0
 37
0.0
 76
     0
330
1F
  0
MLINESTYLE
  5
18
102
{ACAD_REACTORS
330
17
102
}
330
17
100
AcDbMlineStyle
  2
Standard
 70
     0
  3

 62
   256
 51
90.0
 52
90.0
 71
     2
 49
1.0
 62
   256
  6
BYLAYER
 49
-1.0
 62
   256
  6
BYLAYER
  0
ACDBPLACEHOLDER
  5
F
102
{ACAD_REACTORS
330
E
102
}
330
E
  0
ENDSEC
  0
EOF
