999
"DXF R12 Output" (www.mydxf.blogspot.com)
 0 
SECTION
 2 
HEADER
 9 
$ACADVER
 1 
AC1009
 9 
$EXTMIN
 10 
 0 
 20 
 0 
 9 
$EXTMAX
 10 
 8.5 
 20 
 11 
 0 
ENDSEC
 0 
SECTION
 2 
ENTITIES
0
LINE
8
Layer 1
10
208.016238
20
58.587603
11
208.600746
21
58.745015
0
LINE
8
Layer 1
10
208.600746
20
58.745015
11
208.619206
21
59.452880
0
LINE
8
Layer 1
10
208.619206
20
59.452880
11
208.494940
21
60.299546
0
LINE
8
Layer 1
10
208.494940
20
60.299546
11
205.042937
21
60.299546
0
LINE
8
Layer 1
10
205.042937
20
60.299546
11
202.073099
21
60.392079
0
LINE
8
Layer 1
10
202.073099
20
60.392079
11
201.457397
21
60.562396
0
LINE
8
Layer 1
10
201.457397
20
60.562396
11
201.080116
21
60.863991
0
LINE
8
Layer 1
10
201.080116
20
60.863991
11
200.425670
21
61.288213
0
LINE
8
Layer 1
10
200.425670
20
61.288213
11
199.480322
21
61.428435
0
LINE
8
Layer 1
10
199.480322
20
61.428435
11
198.557534
21
61.524422
0
LINE
8
Layer 1
10
198.557534
20
61.524422
11
197.868117
21
61.755198
0
LINE
8
Layer 1
10
197.868117
20
61.755198
11
197.342669
21
61.928236
0
LINE
8
Layer 1
10
197.342669
20
61.928236
11
196.813613
21
61.850961
0
LINE
8
Layer 1
10
196.813613
20
61.850961
11
195.469176
21
61.562849
0
LINE
8
Layer 1
10
195.469176
20
61.562849
11
194.886598
21
61.590900
0
LINE
8
Layer 1
10
194.886598
20
61.590900
11
194.568707
21
61.743500
0
LINE
8
Layer 1
10
194.568707
20
61.743500
11
193.898825
21
61.992880
0
LINE
8
Layer 1
10
193.898825
20
61.992880
11
193.477110
21
61.789501
0
LINE
8
Layer 1
10
193.477110
20
61.789501
11
193.258804
21
61.146213
0
LINE
8
Layer 1
10
193.258804
20
61.146213
11
193.288963
21
60.424764
0
LINE
8
Layer 1
10
193.288963
20
60.424764
11
194.002883
21
60.257761
0
LINE
8
Layer 1
10
194.002883
20
60.257761
11
195.560655
21
60.150807
0
LINE
8
Layer 1
10
195.560655
20
60.150807
11
196.021652
21
59.946769
0
LINE
8
Layer 1
10
196.021652
20
59.946769
11
196.877164
21
59.735102
0
LINE
8
Layer 1
10
196.877164
20
59.735102
11
197.381715
21
59.652199
0
LINE
8
Layer 1
10
197.381715
20
59.652199
11
197.693449
21
59.452880
0
LINE
8
Layer 1
10
197.693449
20
59.452880
11
198.002420
21
59.253560
0
LINE
8
Layer 1
10
198.002420
20
59.253560
11
198.500328
21
59.170657
0
LINE
8
Layer 1
10
198.500328
20
59.170657
11
199.400894
21
58.904601
0
LINE
8
Layer 1
10
199.400894
20
58.904601
11
200.050444
21
58.664530
0
LINE
8
Layer 1
10
200.050444
20
58.664530
11
201.549334
21
58.537323
0
LINE
8
Layer 1
10
201.549334
20
58.537323
11
208.016238
21
58.587603
0
LINE
8
Layer 1
10
208.016238
20
58.587603
11
208.016238
21
58.587603
0
LINE
8
Layer 1
10
157.960528
20
71.198763
11
157.793019
21
71.481530
0
LINE
8
Layer 1
10
157.793019
20
71.481530
11
157.766450
21
71.818668
0
LINE
8
Layer 1
10
157.766450
20
71.818668
11
158.049988
21
72.530973
0
LINE
8
Layer 1
10
158.049988
20
72.530973
11
158.638861
21
73.085503
0
LINE
8
Layer 1
10
158.638861
20
73.085503
11
159.360785
21
73.232086
0
LINE
8
Layer 1
10
159.360785
20
73.232086
11
159.761083
21
72.936025
0
LINE
8
Layer 1
10
159.761083
20
72.936025
11
159.875672
21
72.149013
0
LINE
8
Layer 1
10
159.875672
20
72.149013
11
159.737656
21
71.310071
0
LINE
8
Layer 1
10
159.737656
20
71.310071
11
159.479427
21
71.154974
0
LINE
8
Layer 1
10
159.479427
20
71.154974
11
159.018862
21
71.081172
0
LINE
8
Layer 1
10
159.018862
20
71.081172
11
157.960528
21
71.198763
0
LINE
8
Layer 1
10
157.960528
20
71.198763
11
157.960528
21
71.198763
0
LINE
8
Layer 1
10
144.886717
20
70.297909
11
144.781979
21
71.262084
0
LINE
8
Layer 1
10
144.781979
20
71.262084
11
145.163610
21
71.900258
0
LINE
8
Layer 1
10
145.163610
20
71.900258
11
145.835111
21
72.062996
0
LINE
8
Layer 1
10
145.835111
20
72.062996
11
146.218157
21
71.919376
0
LINE
8
Layer 1
10
146.218157
20
71.919376
11
146.599983
21
71.600859
0
LINE
8
Layer 1
10
146.599983
20
71.600859
11
146.979524
21
71.025705
0
LINE
8
Layer 1
10
146.979524
20
71.025705
11
146.611216
21
70.459546
0
LINE
8
Layer 1
10
146.611216
20
70.459546
11
146.122254
21
70.075517
0
LINE
8
Layer 1
10
146.122254
20
70.075517
11
145.609521
21
69.914726
0
LINE
8
Layer 1
10
145.609521
20
69.914726
11
145.166507
21
69.985936
0
LINE
8
Layer 1
10
145.166507
20
69.985936
11
144.886705
21
70.297909
0
LINE
8
Layer 1
10
144.886705
20
70.297909
11
144.886717
21
70.297909
0
LINE
8
Layer 1
10
149.194969
20
66.460102
11
148.865096
21
66.950308
0
LINE
8
Layer 1
10
148.865096
20
66.950308
11
148.727894
21
67.404138
0
LINE
8
Layer 1
10
148.727894
20
67.404138
11
148.892884
21
67.884036
0
LINE
8
Layer 1
10
148.892884
20
67.884036
11
149.301348
21
68.333930
0
LINE
8
Layer 1
10
149.301348
20
68.333930
11
149.823531
21
68.647389
0
LINE
8
Layer 1
10
149.823531
20
68.647389
11
150.329674
21
68.717981
0
LINE
8
Layer 1
10
150.329674
20
68.717981
11
150.749145
21
68.409978
0
LINE
8
Layer 1
10
150.749145
20
68.409978
11
150.935627
21
67.811031
0
LINE
8
Layer 1
10
150.935627
20
67.811031
11
150.871651
21
67.106934
0
LINE
8
Layer 1
10
150.871651
20
67.106934
11
150.539752
21
66.483478
0
LINE
8
Layer 1
10
150.539752
20
66.483478
11
150.156879
21
66.106785
0
LINE
8
Layer 1
10
150.156879
20
66.106785
11
149.860335
21
65.978285
0
LINE
8
Layer 1
10
149.860335
20
65.978285
11
149.567303
21
66.096540
0
LINE
8
Layer 1
10
149.567303
20
66.096540
11
149.194969
21
66.460110
0
LINE
8
Layer 1
10
149.194969
20
66.460110
11
149.194969
21
66.460102
0
LINE
8
Layer 1
10
153.359660
20
61.814891
11
153.291687
21
62.889576
0
LINE
8
Layer 1
10
153.291687
20
62.889576
11
153.382346
21
63.234585
0
LINE
8
Layer 1
10
153.382346
20
63.234585
11
153.585919
21
63.432968
0
LINE
8
Layer 1
10
153.585919
20
63.432968
11
154.654560
21
63.545102
0
LINE
8
Layer 1
10
154.654560
20
63.545102
11
155.385944
21
63.528934
0
LINE
8
Layer 1
10
155.385944
20
63.528934
11
155.763291
21
63.419672
0
LINE
8
Layer 1
10
155.763291
20
63.419672
11
155.903772
21
63.126181
0
LINE
8
Layer 1
10
155.903772
20
63.126181
11
155.924560
21
62.557324
0
LINE
8
Layer 1
10
155.924560
20
62.557324
11
155.901140
21
61.996007
0
LINE
8
Layer 1
10
155.901140
20
61.996007
11
155.761938
21
61.691425
0
LINE
8
Layer 1
10
155.761938
20
61.691425
11
155.403541
21
61.551122
0
LINE
8
Layer 1
10
155.403541
20
61.551122
11
154.722534
21
61.482639
0
LINE
8
Layer 1
10
154.722534
20
61.482639
11
153.760987
21
61.512615
0
LINE
8
Layer 1
10
153.760987
20
61.512615
11
153.359660
21
61.814891
0
LINE
8
Layer 1
10
153.359660
20
61.814891
11
153.359660
21
61.814891
0
LINE
8
Layer 1
10
143.210449
20
53.840154
11
144.778507
21
53.942945
0
LINE
8
Layer 1
10
144.778507
20
53.942945
11
146.327830
21
53.846036
0
LINE
8
Layer 1
10
146.327830
20
53.846036
11
147.840270
21
53.991259
0
LINE
8
Layer 1
10
147.840270
20
53.991259
11
148.576988
21
54.292741
0
LINE
8
Layer 1
10
148.576988
20
54.292741
11
149.297678
21
54.820442
0
LINE
8
Layer 1
10
149.297678
20
54.820442
11
152.669466
21
55.703833
0
LINE
8
Layer 1
10
152.669466
20
55.703833
11
156.108375
21
56.280852
0
LINE
8
Layer 1
10
156.108375
20
56.280852
11
160.875213
21
56.348134
0
LINE
8
Layer 1
10
160.875213
20
56.348134
11
163.250069
21
56.216385
0
LINE
8
Layer 1
10
163.250069
20
56.216385
11
165.600634
21
55.877288
0
LINE
8
Layer 1
10
165.600634
20
55.877288
11
170.772510
21
55.740152
0
LINE
8
Layer 1
10
170.772510
20
55.740152
11
173.356825
21
55.801786
0
LINE
8
Layer 1
10
173.356825
20
55.801786
11
175.920662
21
56.052751
0
LINE
8
Layer 1
10
175.920662
20
56.052751
11
177.565190
21
56.501032
0
LINE
8
Layer 1
10
177.565190
20
56.501032
11
179.170291
21
57.111877
0
LINE
8
Layer 1
10
179.170291
20
57.111877
11
182.315581
21
58.433564
0
LINE
8
Layer 1
10
182.315581
20
58.433564
11
183.035384
21
58.456288
0
LINE
8
Layer 1
10
183.035384
20
58.456288
11
183.629462
21
58.661298
0
LINE
8
Layer 1
10
183.629462
20
58.661298
11
184.602142
21
59.406037
0
LINE
8
Layer 1
10
184.602142
20
59.406037
11
185.557015
21
60.243515
0
LINE
8
Layer 1
10
185.557015
20
60.243515
11
186.128836
21
60.564448
0
LINE
8
Layer 1
10
186.128836
20
60.564448
11
186.817477
21
60.749465
0
LINE
8
Layer 1
10
186.817477
20
60.749465
11
189.394730
21
62.950170
0
LINE
8
Layer 1
10
189.394730
20
62.950170
11
190.437939
21
64.229348
0
LINE
8
Layer 1
10
190.437939
20
64.229348
11
191.090728
21
65.772561
0
LINE
8
Layer 1
10
191.090728
20
65.772561
11
191.111916
21
66.794828
0
LINE
8
Layer 1
10
191.111916
20
66.794828
11
190.913517
21
67.745495
0
LINE
8
Layer 1
10
190.913517
20
67.745495
11
190.538725
21
68.635005
0
LINE
8
Layer 1
10
190.538725
20
68.635005
11
190.030736
21
69.473804
0
LINE
8
Layer 1
10
190.030736
20
69.473804
11
188.787945
21
71.041050
0
LINE
8
Layer 1
10
188.787945
20
71.041050
11
187.530703
21
72.530792
0
LINE
8
Layer 1
10
187.530703
20
72.530792
11
184.912525
21
74.253821
0
LINE
8
Layer 1
10
184.912525
20
74.253821
11
183.659690
21
75.169610
0
LINE
8
Layer 1
10
183.659690
20
75.169610
11
182.535342
21
76.213547
0
LINE
8
Layer 1
10
182.535342
20
76.213547
11
181.142061
21
77.221875
0
LINE
8
Layer 1
10
181.142061
20
77.221875
11
179.839472
21
78.367255
0
LINE
8
Layer 1
10
179.839472
20
78.367255
11
178.524777
21
79.517845
0
LINE
8
Layer 1
10
178.524777
20
79.517845
11
177.095181
21
80.541800
0
LINE
8
Layer 1
10
177.095181
20
80.541800
11
175.353080
21
81.136638
0
LINE
8
Layer 1
10
175.353080
20
81.136638
11
173.559202
21
81.572566
0
LINE
8
Layer 1
10
173.559202
20
81.572566
11
171.720516
21
81.809603
0
LINE
8
Layer 1
10
171.720516
20
81.809603
11
169.843992
21
81.807767
0
LINE
8
Layer 1
10
169.843992
20
81.807767
11
167.887623
21
81.684999
0
LINE
8
Layer 1
10
167.887623
20
81.684999
11
165.953501
21
81.400990
0
LINE
8
Layer 1
10
165.953501
20
81.400990
11
164.014164
21
81.168509
0
LINE
8
Layer 1
10
164.014164
20
81.168509
11
162.042150
21
81.200326
0
LINE
8
Layer 1
10
162.042150
20
81.200326
11
158.303782
21
81.253652
0
LINE
8
Layer 1
10
158.303782
20
81.253652
11
156.468247
21
81.492065
0
LINE
8
Layer 1
10
156.468247
20
81.492065
11
154.719037
21
82.122713
0
LINE
8
Layer 1
10
154.719037
20
82.122713
11
152.821623
21
82.427168
0
LINE
8
Layer 1
10
152.821623
20
82.427168
11
150.946410
21
82.564110
0
LINE
8
Layer 1
10
150.946410
20
82.564110
11
147.182338
21
82.511945
0
LINE
8
Layer 1
10
147.182338
20
82.511945
11
145.519902
21
82.562424
0
LINE
8
Layer 1
10
145.519902
20
82.562424
11
143.818046
21
82.315294
0
LINE
8
Layer 1
10
143.818046
20
82.315294
11
142.126012
21
81.858685
0
LINE
8
Layer 1
10
142.126012
20
81.858685
11
140.493042
21
81.280728
0
LINE
8
Layer 1
10
140.493042
20
81.280728
11
137.386019
21
80.707485
0
LINE
8
Layer 1
10
137.386019
20
80.707485
11
135.938798
21
80.172336
0
LINE
8
Layer 1
10
135.938798
20
80.172336
11
135.321485
21
79.737986
0
LINE
8
Layer 1
10
135.321485
20
79.737986
11
134.805409
21
79.152586
0
LINE
8
Layer 1
10
134.805409
20
79.152586
11
133.318655
21
78.261450
0
LINE
8
Layer 1
10
133.318655
20
78.261450
11
132.097262
21
77.133963
0
LINE
8
Layer 1
10
132.097262
20
77.133963
11
129.870976
21
74.596902
0
LINE
8
Layer 1
10
129.870976
20
74.596902
11
129.021330
21
73.146387
0
LINE
8
Layer 1
10
129.021330
20
73.146387
11
128.325699
21
71.642828
0
LINE
8
Layer 1
10
128.325699
20
71.642828
11
127.298075
21
68.511251
0
LINE
8
Layer 1
10
127.298075
20
68.511251
11
127.278335
21
66.781932
0
LINE
8
Layer 1
10
127.278335
20
66.781932
11
127.376779
21
65.035810
0
LINE
8
Layer 1
10
127.376779
20
65.035810
11
127.768116
21
63.376884
0
LINE
8
Layer 1
10
127.768116
20
63.376884
11
128.128217
21
62.612618
0
LINE
8
Layer 1
10
128.128217
20
62.612618
11
128.627056
21
61.909150
0
LINE
8
Layer 1
10
128.627056
20
61.909150
11
129.554354
21
60.310253
0
LINE
8
Layer 1
10
129.554354
20
60.310253
11
130.696085
21
58.905791
0
LINE
8
Layer 1
10
130.696085
20
58.905791
11
132.032055
21
57.675007
0
LINE
8
Layer 1
10
132.032055
20
57.675007
11
133.542072
21
56.597144
0
LINE
8
Layer 1
10
133.542072
20
56.597144
11
136.971139
21
55.396208
0
LINE
8
Layer 1
10
136.971139
20
55.396208
11
140.290685
21
53.967372
0
LINE
8
Layer 1
10
140.290685
20
53.967372
11
141.764519
21
53.439525
0
LINE
8
Layer 1
10
141.764519
20
53.439525
11
142.515519
21
53.452952
0
LINE
8
Layer 1
10
142.515519
20
53.452952
11
143.210449
21
53.840154
0
LINE
8
Layer 1
10
143.210449
20
53.840154
11
143.210449
21
53.840154
0
LINE
8
Layer 1
10
96.375669
20
52.115102
11
98.241150
21
52.682172
0
LINE
8
Layer 1
10
98.241150
20
52.682172
11
100.162233
21
53.079848
0
LINE
8
Layer 1
10
100.162233
20
53.079848
11
101.126035
21
53.959763
0
LINE
8
Layer 1
10
101.126035
20
53.959763
11
102.194241
21
54.718336
0
LINE
8
Layer 1
10
102.194241
20
54.718336
11
103.351652
21
55.329746
0
LINE
8
Layer 1
10
103.351652
20
55.329746
11
104.583072
21
55.768172
0
LINE
8
Layer 1
10
104.583072
20
55.768172
11
104.954563
21
55.959262
0
LINE
8
Layer 1
10
104.954563
20
55.959262
11
105.214547
21
56.269731
0
LINE
8
Layer 1
10
105.214547
20
56.269731
11
105.535600
21
57.120380
0
LINE
8
Layer 1
10
105.535600
20
57.120380
11
105.817433
21
58.063269
0
LINE
8
Layer 1
10
105.817433
20
58.063269
11
106.331250
21
58.841544
0
LINE
8
Layer 1
10
106.331250
20
58.841544
11
106.841259
21
59.674579
0
LINE
8
Layer 1
10
106.841259
20
59.674579
11
107.524479
21
60.334727
0
LINE
8
Layer 1
10
107.524479
20
60.334727
11
108.244763
21
60.944624
0
LINE
8
Layer 1
10
108.244763
20
60.944624
11
108.865964
21
61.626905
0
LINE
8
Layer 1
10
108.865964
20
61.626905
11
109.424076
21
62.224044
0
LINE
8
Layer 1
10
109.424076
20
62.224044
11
110.102501
21
62.684851
0
LINE
8
Layer 1
10
110.102501
20
62.684851
11
111.474194
21
63.605740
0
LINE
8
Layer 1
10
111.474194
20
63.605740
11
113.170799
21
64.317638
0
LINE
8
Layer 1
10
113.170799
20
64.317638
11
114.926262
21
64.809342
0
LINE
8
Layer 1
10
114.926262
20
64.809342
11
115.965986
21
64.901675
0
LINE
8
Layer 1
10
115.965986
20
64.901675
11
116.936093
21
65.260945
0
LINE
8
Layer 1
10
116.936093
20
65.260945
11
117.895906
21
65.663280
0
LINE
8
Layer 1
10
117.895906
20
65.663280
11
118.904746
21
65.884809
0
LINE
8
Layer 1
10
118.904746
20
65.884809
11
121.548628
21
65.880619
0
LINE
8
Layer 1
10
121.548628
20
65.880619
11
122.869724
21
65.867971
0
LINE
8
Layer 1
10
122.869724
20
65.867971
11
124.183594
21
65.981806
0
LINE
8
Layer 1
10
124.183594
20
65.981806
11
124.337206
21
66.160332
0
LINE
8
Layer 1
10
124.337206
20
66.160332
11
124.351774
21
66.373965
0
LINE
8
Layer 1
10
124.351774
20
66.373965
11
124.168882
21
66.873248
0
LINE
8
Layer 1
10
124.168882
20
66.873248
11
124.045128
21
67.413041
0
LINE
8
Layer 1
10
124.045128
20
67.413041
11
124.133618
21
67.677313
0
LINE
8
Layer 1
10
124.133618
20
67.677313
11
124.390720
21
67.926732
0
LINE
8
Layer 1
10
124.390720
20
67.926732
11
124.234990
21
68.932171
0
LINE
8
Layer 1
10
124.234990
20
68.932171
11
123.867198
21
69.659579
0
LINE
8
Layer 1
10
123.867198
20
69.659579
11
122.107560
21
68.897526
0
LINE
8
Layer 1
10
122.107560
20
68.897526
11
120.275934
21
68.360186
0
LINE
8
Layer 1
10
120.275934
20
68.360186
11
118.294265
21
68.008045
0
LINE
8
Layer 1
10
118.294265
20
68.008045
11
117.361695
21
67.677197
0
LINE
8
Layer 1
10
117.361695
20
67.677197
11
116.554560
21
67.234661
0
LINE
8
Layer 1
10
116.554560
20
67.234661
11
115.912391
21
66.521892
0
LINE
8
Layer 1
10
115.912391
20
66.521892
11
115.038914
21
66.142561
0
LINE
8
Layer 1
10
115.038914
20
66.142561
11
113.135224
21
65.694566
0
LINE
8
Layer 1
10
113.135224
20
65.694566
11
112.260220
21
65.248699
0
LINE
8
Layer 1
10
112.260220
20
65.248699
11
111.344522
21
64.916383
0
LINE
8
Layer 1
10
111.344522
20
64.916383
11
109.528232
21
64.206580
0
LINE
8
Layer 1
10
109.528232
20
64.206580
11
107.530867
21
62.950463
0
LINE
8
Layer 1
10
107.530867
20
62.950463
11
106.747675
21
62.105604
0
LINE
8
Layer 1
10
106.747675
20
62.105604
11
106.338308
21
61.015440
0
LINE
8
Layer 1
10
106.338308
20
61.015440
11
105.752341
21
60.316317
0
LINE
8
Layer 1
10
105.752341
20
60.316317
11
104.963986
21
59.923156
0
LINE
8
Layer 1
10
104.963986
20
59.923156
11
103.240721
21
59.378500
0
LINE
8
Layer 1
10
103.240721
20
59.378500
11
101.682942
21
58.358416
0
LINE
8
Layer 1
10
101.682942
20
58.358416
11
100.899886
21
57.862172
0
LINE
8
Layer 1
10
100.899886
20
57.862172
11
100.010815
21
57.549508
0
LINE
8
Layer 1
10
100.010815
20
57.549508
11
98.275223
21
57.019546
0
LINE
8
Layer 1
10
98.275223
20
57.019546
11
97.442407
21
56.669810
0
LINE
8
Layer 1
10
97.442407
20
56.669810
11
96.706450
21
56.129273
0
LINE
8
Layer 1
10
96.706450
20
56.129273
11
94.879930
21
55.397919
0
LINE
8
Layer 1
10
94.879930
20
55.397919
11
93.080600
21
54.558483
0
LINE
8
Layer 1
10
93.080600
20
54.558483
11
92.384975
21
54.216423
0
LINE
8
Layer 1
10
92.384975
20
54.216423
11
91.751065
21
53.759229
0
LINE
8
Layer 1
10
91.751065
20
53.759229
11
91.585421
21
53.519254
0
LINE
8
Layer 1
10
91.585421
20
53.519254
11
91.589006
21
53.288652
0
LINE
8
Layer 1
10
91.589006
20
53.288652
11
91.813088
21
53.080140
0
LINE
8
Layer 1
10
91.813088
20
53.080140
11
92.308934
21
52.906439
0
LINE
8
Layer 1
10
92.308934
20
52.906439
11
93.293479
21
52.814025
0
LINE
8
Layer 1
10
93.293479
20
52.814025
11
94.209155
21
52.441481
0
LINE
8
Layer 1
10
94.209155
20
52.441481
11
95.120194
21
52.049506
0
LINE
8
Layer 1
10
95.120194
20
52.049506
11
96.090827
21
51.898798
0
LINE
8
Layer 1
10
96.090827
20
51.898798
11
96.255267
21
51.982119
0
LINE
8
Layer 1
10
96.255267
20
51.982119
11
96.375669
21
52.115102
0
LINE
8
Layer 1
10
96.375669
20
52.115102
11
96.375669
21
52.115102
0
LINE
8
Layer 1
10
96.375669
20
52.115102
11
96.375669
21
52.115102
0
LINE
8
Layer 1
10
230.886310
20
51.914019
11
230.664568
21
52.399672
0
LINE
8
Layer 1
10
230.664568
20
52.399672
11
230.572338
21
53.126409
0
LINE
8
Layer 1
10
230.572338
20
53.126409
11
230.445864
21
53.856591
0
LINE
8
Layer 1
10
230.445864
20
53.856591
11
230.007894
21
54.172431
0
LINE
8
Layer 1
10
230.007894
20
54.172431
11
229.609255
21
54.393320
0
LINE
8
Layer 1
10
229.609255
20
54.393320
11
229.443449
21
54.717115
0
LINE
8
Layer 1
10
229.443449
20
54.717115
11
229.149727
21
55.112801
0
LINE
8
Layer 1
10
229.149727
20
55.112801
11
228.443544
21
55.506527
0
LINE
8
Layer 1
10
228.443544
20
55.506527
11
227.636518
21
55.994724
0
LINE
8
Layer 1
10
227.636518
20
55.994724
11
227.100344
21
56.617537
0
LINE
8
Layer 1
10
227.100344
20
56.617537
11
226.657151
21
57.163039
0
LINE
8
Layer 1
10
226.657151
20
57.163039
11
226.054138
21
57.431508
0
LINE
8
Layer 1
10
226.054138
20
57.431508
11
225.373607
21
57.669517
0
LINE
8
Layer 1
10
225.373607
20
57.669517
11
224.724502
21
58.107933
0
LINE
8
Layer 1
10
224.724502
20
58.107933
11
224.126702
21
58.517375
0
LINE
8
Layer 1
10
224.126702
20
58.517375
11
223.633843
21
58.304029
0
LINE
8
Layer 1
10
223.633843
20
58.304029
11
223.145611
21
58.108397
0
LINE
8
Layer 1
10
223.145611
20
58.108397
11
222.567235
21
58.615385
0
LINE
8
Layer 1
10
222.567235
20
58.615385
11
222.017242
21
59.107205
0
LINE
8
Layer 1
10
222.017242
20
59.107205
11
221.541227
21
59.311769
0
LINE
8
Layer 1
10
221.541227
20
59.311769
11
221.212266
21
59.516183
0
LINE
8
Layer 1
10
221.212266
20
59.516183
11
221.020296
21
60.017324
0
LINE
8
Layer 1
10
221.020296
20
60.017324
11
220.865369
21
60.644325
0
LINE
8
Layer 1
10
220.865369
20
60.644325
11
220.596493
21
61.084226
0
LINE
8
Layer 1
10
220.596493
20
61.084226
11
220.207623
21
61.343454
0
LINE
8
Layer 1
10
220.207623
20
61.343454
11
219.692711
21
61.428435
0
LINE
8
Layer 1
10
219.692711
20
61.428435
11
219.072467
21
61.632881
0
LINE
8
Layer 1
10
219.072467
20
61.632881
11
218.494734
21
62.124421
0
LINE
8
Layer 1
10
218.494734
20
62.124421
11
218.054389
21
62.562261
0
LINE
8
Layer 1
10
218.054389
20
62.562261
11
217.764464
21
62.637599
0
LINE
8
Layer 1
10
217.764464
20
62.637599
11
217.367167
21
62.760269
0
LINE
8
Layer 1
10
217.367167
20
62.760269
11
216.668666
21
63.311902
0
LINE
8
Layer 1
10
216.668666
20
63.311902
11
215.261783
21
64.342086
0
LINE
8
Layer 1
10
215.261783
20
64.342086
11
214.912974
21
64.575805
0
LINE
8
Layer 1
10
214.912974
20
64.575805
11
214.767894
21
64.894680
0
LINE
8
Layer 1
10
214.767894
20
64.894680
11
214.478834
21
65.276132
0
LINE
8
Layer 1
10
214.478834
20
65.276132
11
213.783858
21
65.660301
0
LINE
8
Layer 1
10
213.783858
20
65.660301
11
212.865016
21
66.166654
0
LINE
8
Layer 1
10
212.865016
20
66.166654
11
212.037721
21
66.841867
0
LINE
8
Layer 1
10
212.037721
20
66.841867
11
211.403495
21
67.403658
0
LINE
8
Layer 1
10
211.403495
20
67.403658
11
210.948834
21
67.637324
0
LINE
8
Layer 1
10
210.948834
20
67.637324
11
210.567986
21
67.803130
0
LINE
8
Layer 1
10
210.567986
20
67.803130
11
210.111227
21
68.201769
0
LINE
8
Layer 1
10
210.111227
20
68.201769
11
209.654468
21
68.600407
0
LINE
8
Layer 1
10
209.654468
20
68.600407
11
209.273620
21
68.766213
0
LINE
8
Layer 1
10
209.273620
20
68.766213
11
208.804547
21
69.014921
0
LINE
8
Layer 1
10
208.804547
20
69.014921
11
208.135672
21
69.612880
0
LINE
8
Layer 1
10
208.135672
20
69.612880
11
207.387870
21
70.210838
0
LINE
8
Layer 1
10
207.387870
20
70.210838
11
206.729036
21
70.459546
0
LINE
8
Layer 1
10
206.729036
20
70.459546
11
205.984670
21
70.791157
0
LINE
8
Layer 1
10
205.984670
20
70.791157
11
205.031227
21
71.588435
0
LINE
8
Layer 1
10
205.031227
20
71.588435
11
204.077784
21
72.385713
0
LINE
8
Layer 1
10
204.077784
20
72.385713
11
203.333418
21
72.717324
0
LINE
8
Layer 1
10
203.333418
20
72.717324
11
202.674584
21
72.966032
0
LINE
8
Layer 1
10
202.674584
20
72.966032
11
201.926783
21
73.563991
0
LINE
8
Layer 1
10
201.926783
20
73.563991
11
201.172307
21
74.161949
0
LINE
8
Layer 1
10
201.172307
20
74.161949
11
200.497426
21
74.410657
0
LINE
8
Layer 1
10
200.497426
20
74.410657
11
199.956782
21
74.536021
0
LINE
8
Layer 1
10
199.956782
20
74.536021
11
199.525041
21
74.837428
0
LINE
8
Layer 1
10
199.525041
20
74.837428
11
198.758005
21
75.385524
0
LINE
8
Layer 1
10
198.758005
20
75.385524
11
197.411227
21
76.103991
0
LINE
8
Layer 1
10
197.411227
20
76.103991
11
196.064449
21
76.822457
0
LINE
8
Layer 1
10
196.064449
20
76.822457
11
195.297414
21
77.370553
0
LINE
8
Layer 1
10
195.297414
20
77.370553
11
194.647227
21
77.797324
0
LINE
8
Layer 1
10
194.647227
20
77.797324
11
194.217197
21
77.950280
0
LINE
8
Layer 1
10
194.217197
20
77.950280
11
193.785113
21
78.332324
0
LINE
8
Layer 1
10
193.785113
20
78.332324
11
193.451479
21
78.828220
0
LINE
8
Layer 1
10
193.451479
20
78.828220
11
193.316804
21
79.322732
0
LINE
8
Layer 1
10
193.316804
20
79.322732
11
193.067827
21
79.945543
0
LINE
8
Layer 1
10
193.067827
20
79.945543
11
192.229189
21
80.344636
0
LINE
8
Layer 1
10
192.229189
20
80.344636
11
190.655006
21
80.556980
0
LINE
8
Layer 1
10
190.655006
20
80.556980
11
188.199395
21
80.619546
0
LINE
8
Layer 1
10
188.199395
20
80.619546
11
185.567438
21
80.699061
0
LINE
8
Layer 1
10
185.567438
20
80.699061
11
184.429005
21
80.901769
0
LINE
8
Layer 1
10
184.429005
20
80.901769
11
184.098562
21
81.101088
0
LINE
8
Layer 1
10
184.098562
20
81.101088
11
183.549028
21
81.183991
0
LINE
8
Layer 1
10
183.549028
20
81.183991
11
183.097078
21
81.102655
0
LINE
8
Layer 1
10
183.097078
20
81.102655
11
183.017894
21
80.901769
0
LINE
8
Layer 1
10
183.017894
20
80.901769
11
183.346046
21
80.702449
0
LINE
8
Layer 1
10
183.346046
20
80.702449
11
183.890073
21
80.619546
0
LINE
8
Layer 1
10
183.890073
20
80.619546
11
184.441442
21
80.481424
0
LINE
8
Layer 1
10
184.441442
20
80.481424
11
184.762140
21
80.125657
0
LINE
8
Layer 1
10
184.762140
20
80.125657
11
185.109472
21
79.474210
0
LINE
8
Layer 1
10
185.109472
20
79.474210
11
185.619234
21
78.909633
0
LINE
8
Layer 1
10
185.619234
20
78.909633
11
186.200514
21
78.512096
0
LINE
8
Layer 1
10
186.200514
20
78.512096
11
186.762398
21
78.361769
0
LINE
8
Layer 1
10
186.762398
20
78.361769
11
187.296546
21
78.225324
0
LINE
8
Layer 1
10
187.296546
20
78.225324
11
187.577357
21
77.856326
0
LINE
8
Layer 1
10
187.577357
20
77.856326
11
187.997182
21
77.357915
0
LINE
8
Layer 1
10
187.997182
20
77.357915
11
188.820936
21
76.869386
0
LINE
8
Layer 1
10
188.820936
20
76.869386
11
189.605864
21
76.404729
0
LINE
8
Layer 1
10
189.605864
20
76.404729
11
189.932338
21
75.963718
0
LINE
8
Layer 1
10
189.932338
20
75.963718
11
190.064454
21
75.664147
0
LINE
8
Layer 1
10
190.064454
20
75.664147
11
190.382093
21
75.539546
0
LINE
8
Layer 1
10
190.382093
20
75.539546
11
190.741087
21
75.381405
0
LINE
8
Layer 1
10
190.741087
20
75.381405
11
190.972629
21
75.001193
0
LINE
8
Layer 1
10
190.972629
20
75.001193
11
191.230197
21
74.579628
0
LINE
8
Layer 1
10
191.230197
20
74.579628
11
191.651763
21
74.322059
0
LINE
8
Layer 1
10
191.651763
20
74.322059
11
192.051016
21
74.037030
0
LINE
8
Layer 1
10
192.051016
20
74.037030
11
192.190116
21
73.482217
0
LINE
8
Layer 1
10
192.190116
20
73.482217
11
192.332538
21
72.922301
0
LINE
8
Layer 1
10
192.332538
20
72.922301
11
192.754560
21
72.635550
0
LINE
8
Layer 1
10
192.754560
20
72.635550
11
193.198086
21
72.305867
0
LINE
8
Layer 1
10
193.198086
20
72.305867
11
193.319005
21
71.490403
0
LINE
8
Layer 1
10
193.319005
20
71.490403
11
193.401908
21
70.734651
0
LINE
8
Layer 1
10
193.401908
20
70.734651
11
193.601227
21
70.318435
0
LINE
8
Layer 1
10
193.601227
20
70.318435
11
193.800547
21
69.831972
0
LINE
8
Layer 1
10
193.800547
20
69.831972
11
193.883449
21
68.907324
0
LINE
8
Layer 1
10
193.883449
20
68.907324
11
193.966352
21
67.982677
0
LINE
8
Layer 1
10
193.966352
20
67.982677
11
194.165672
21
67.496213
0
LINE
8
Layer 1
10
194.165672
20
67.496213
11
194.364991
21
67.087759
0
LINE
8
Layer 1
10
194.364991
20
67.087759
11
194.447894
21
66.350667
0
LINE
8
Layer 1
10
194.447894
20
66.350667
11
194.498659
21
65.746489
0
LINE
8
Layer 1
10
194.498659
20
65.746489
11
194.728118
21
65.422936
0
LINE
8
Layer 1
10
194.728118
20
65.422936
11
195.252015
21
65.313482
0
LINE
8
Layer 1
10
195.252015
20
65.313482
11
196.186095
21
65.351601
0
LINE
8
Layer 1
10
196.186095
20
65.351601
11
196.769972
21
65.304784
0
LINE
8
Layer 1
10
196.769972
20
65.304784
11
197.119974
21
65.111938
0
LINE
8
Layer 1
10
197.119974
20
65.111938
11
197.695718
21
64.902297
0
LINE
8
Layer 1
10
197.695718
20
64.902297
11
198.822338
21
64.815102
0
LINE
8
Layer 1
10
198.822338
20
64.815102
11
199.946305
21
64.732199
0
LINE
8
Layer 1
10
199.946305
20
64.732199
11
200.515672
21
64.532880
0
LINE
8
Layer 1
10
200.515672
20
64.532880
11
201.531096
21
64.331581
0
LINE
8
Layer 1
10
201.531096
20
64.331581
11
203.797512
21
64.250657
0
LINE
8
Layer 1
10
203.797512
20
64.250657
11
206.483467
21
64.333425
0
LINE
8
Layer 1
10
206.483467
20
64.333425
11
206.809708
21
64.520378
0
LINE
8
Layer 1
10
206.809708
20
64.520378
11
206.814745
21
64.878593
0
LINE
8
Layer 1
10
206.814745
20
64.878593
11
206.565092
21
65.414410
0
LINE
8
Layer 1
10
206.565092
20
65.414410
11
206.091505
21
65.820871
0
LINE
8
Layer 1
10
206.091505
20
65.820871
11
204.962616
21
66.533491
0
LINE
8
Layer 1
10
204.962616
20
66.533491
11
203.626546
21
67.368155
0
LINE
8
Layer 1
10
203.626546
20
67.368155
11
202.370603
21
67.637324
0
LINE
8
Layer 1
10
202.370603
20
67.637324
11
201.730465
21
67.720227
0
LINE
8
Layer 1
10
201.730465
20
67.720227
11
201.362338
21
67.919546
0
LINE
8
Layer 1
10
201.362338
20
67.919546
11
200.472071
21
68.118876
0
LINE
8
Layer 1
10
200.472071
20
68.118876
11
198.576260
21
68.201769
0
LINE
8
Layer 1
10
198.576260
20
68.201769
11
196.221098
21
68.315253
0
LINE
8
Layer 1
10
196.221098
20
68.315253
11
195.678965
21
68.557680
0
LINE
8
Layer 1
10
195.678965
20
68.557680
11
195.187118
21
69.013293
0
LINE
8
Layer 1
10
195.187118
20
69.013293
11
194.581512
21
69.880701
0
LINE
8
Layer 1
10
194.581512
20
69.880701
11
194.499317
21
70.918293
0
LINE
8
Layer 1
10
194.499317
20
70.918293
11
194.589005
21
72.011769
0
LINE
8
Layer 1
10
194.589005
20
72.011769
11
197.103252
21
72.093966
0
LINE
8
Layer 1
10
197.103252
20
72.093966
11
198.997474
21
72.071150
0
LINE
8
Layer 1
10
198.997474
20
72.071150
11
199.911363
21
71.882299
0
LINE
8
Layer 1
10
199.911363
20
71.882299
11
200.387591
21
71.674758
0
LINE
8
Layer 1
10
200.387591
20
71.674758
11
201.119904
21
71.588435
0
LINE
8
Layer 1
10
201.119904
20
71.588435
11
201.817132
21
71.505532
0
LINE
8
Layer 1
10
201.817132
20
71.505532
11
202.209005
21
71.306213
0
LINE
8
Layer 1
10
202.209005
20
71.306213
11
202.529663
21
71.106894
0
LINE
8
Layer 1
10
202.529663
20
71.106894
11
203.055672
21
71.023991
0
LINE
8
Layer 1
10
203.055672
20
71.023991
11
203.581680
21
70.941088
0
LINE
8
Layer 1
10
203.581680
20
70.941088
11
203.902338
21
70.741769
0
LINE
8
Layer 1
10
203.902338
20
70.741769
11
204.212379
21
70.542449
0
LINE
8
Layer 1
10
204.212379
20
70.542449
11
204.712861
21
70.459546
0
LINE
8
Layer 1
10
204.712861
20
70.459546
11
205.400382
21
70.210838
0
LINE
8
Layer 1
10
205.400382
20
70.210838
11
206.160116
21
69.612880
0
LINE
8
Layer 1
10
206.160116
20
69.612880
11
207.249028
21
68.766213
0
LINE
8
Layer 1
10
207.249028
20
68.766213
11
207.675634
21
68.610251
0
LINE
8
Layer 1
10
207.675634
20
68.610251
11
208.101280
21
68.220061
0
LINE
8
Layer 1
10
208.101280
20
68.220061
11
208.428295
21
67.712185
0
LINE
8
Layer 1
10
208.428295
20
67.712185
11
208.559005
21
67.203165
0
LINE
8
Layer 1
10
208.559005
20
67.203165
11
208.709445
21
66.702546
0
LINE
8
Layer 1
10
208.709445
20
66.702546
11
209.123449
21
66.426661
0
LINE
8
Layer 1
10
209.123449
20
66.426661
11
209.567803
21
66.094680
0
LINE
8
Layer 1
10
209.567803
20
66.094680
11
209.687894
21
65.264857
0
LINE
8
Layer 1
10
209.687894
20
65.264857
11
209.801079
21
64.437988
0
LINE
8
Layer 1
10
209.801079
20
64.437988
11
209.987571
21
64.289213
0
LINE
8
Layer 1
10
209.987571
20
64.289213
11
210.300672
21
64.250657
0
LINE
8
Layer 1
10
210.300672
20
64.250657
11
210.898873
21
64.116539
0
LINE
8
Layer 1
10
210.898873
20
64.116539
11
211.426434
21
63.764714
0
LINE
8
Layer 1
10
211.426434
20
63.764714
11
211.802364
21
63.270981
0
LINE
8
Layer 1
10
211.802364
20
63.270981
11
211.945672
21
62.711138
0
LINE
8
Layer 1
10
211.945672
20
62.711138
11
212.045155
21
62.184113
0
LINE
8
Layer 1
10
212.045155
20
62.184113
11
212.284338
21
61.767102
0
LINE
8
Layer 1
10
212.284338
20
61.767102
11
212.481893
21
61.428435
0
LINE
8
Layer 1
10
212.481893
20
61.428435
11
212.284338
21
61.089769
0
LINE
8
Layer 1
10
212.284338
20
61.089769
11
212.018517
21
60.681769
0
LINE
8
Layer 1
10
212.018517
20
60.681769
11
211.970085
21
60.229391
0
LINE
8
Layer 1
10
211.970085
20
60.229391
11
212.135224
21
59.762702
0
LINE
8
Layer 1
10
212.135224
20
59.762702
11
212.510116
21
59.311769
0
LINE
8
Layer 1
10
212.510116
20
59.311769
11
212.908755
21
58.839500
0
LINE
8
Layer 1
10
212.908755
20
58.839500
11
213.074560
21
58.421360
0
LINE
8
Layer 1
10
213.074560
20
58.421360
11
213.267115
21
58.153128
0
LINE
8
Layer 1
10
213.267115
20
58.153128
11
213.730922
21
58.041769
0
LINE
8
Layer 1
10
213.730922
20
58.041769
11
214.391193
21
57.832371
0
LINE
8
Layer 1
10
214.391193
20
57.832371
11
215.056960
21
57.328926
0
LINE
8
Layer 1
10
215.056960
20
57.328926
11
216.490056
21
56.249647
0
LINE
8
Layer 1
10
216.490056
20
56.249647
11
217.252353
21
55.910332
0
LINE
8
Layer 1
10
217.252353
20
55.910332
11
217.899042
21
55.783991
0
LINE
8
Layer 1
10
217.899042
20
55.783991
11
218.306531
21
55.701088
0
LINE
8
Layer 1
10
218.306531
20
55.701088
11
218.577894
21
55.501769
0
LINE
8
Layer 1
10
218.577894
20
55.501769
11
219.222206
21
55.302449
0
LINE
8
Layer 1
10
219.222206
20
55.302449
11
220.526364
21
55.219546
0
LINE
8
Layer 1
10
220.526364
20
55.219546
11
222.046801
21
55.106227
0
LINE
8
Layer 1
10
222.046801
20
55.106227
11
222.481328
21
54.933312
0
LINE
8
Layer 1
10
222.481328
20
54.933312
11
222.811227
21
54.655102
0
LINE
8
Layer 1
10
222.811227
20
54.655102
11
223.361506
21
54.256463
0
LINE
8
Layer 1
10
223.361506
20
54.256463
11
223.967201
21
54.090657
0
LINE
8
Layer 1
10
223.967201
20
54.090657
11
224.474081
21
54.007755
0
LINE
8
Layer 1
10
224.474081
20
54.007755
11
224.786783
21
53.808435
0
LINE
8
Layer 1
10
224.786783
20
53.808435
11
225.185085
21
53.609116
0
LINE
8
Layer 1
10
225.185085
20
53.609116
11
225.897770
21
53.526213
0
LINE
8
Layer 1
10
225.897770
20
53.526213
11
226.660997
21
53.403579
0
LINE
8
Layer 1
10
226.660997
20
53.403579
11
227.180812
21
53.108736
0
LINE
8
Layer 1
10
227.180812
20
53.108736
11
228.388913
21
52.269651
0
LINE
8
Layer 1
10
228.388913
20
52.269651
11
229.734474
21
51.832880
0
LINE
8
Layer 1
10
229.734474
20
51.832880
11
230.188834
21
51.699436
0
LINE
8
Layer 1
10
230.188834
20
51.699436
11
230.598020
21
51.378601
0
LINE
8
Layer 1
10
230.598020
20
51.378601
11
230.911718
21
51.114037
0
LINE
8
Layer 1
10
230.911718
20
51.114037
11
231.087662
21
51.262184
0
LINE
8
Layer 1
10
231.087662
20
51.262184
11
231.074971
21
51.593029
0
LINE
8
Layer 1
10
231.074971
20
51.593029
11
230.886310
21
51.914019
0
LINE
8
Layer 1
10
230.886310
20
51.914019
11
230.886310
21
51.914019
0
LINE
8
Layer 1
10
115.613821
20
54.278807
11
115.425672
21
55.069029
0
LINE
8
Layer 1
10
115.425672
20
55.069029
11
115.341490
21
55.578424
0
LINE
8
Layer 1
10
115.341490
20
55.578424
11
115.139095
21
55.957679
0
LINE
8
Layer 1
10
115.139095
20
55.957679
11
115.059860
21
56.382956
0
LINE
8
Layer 1
10
115.059860
20
56.382956
11
115.254489
21
57.047088
0
LINE
8
Layer 1
10
115.254489
20
57.047088
11
115.642986
21
57.761025
0
LINE
8
Layer 1
10
115.642986
20
57.761025
11
116.145355
21
58.335717
0
LINE
8
Layer 1
10
116.145355
20
58.335717
11
116.624438
21
58.494868
0
LINE
8
Layer 1
10
116.624438
20
58.494868
11
117.275675
21
58.027152
0
LINE
8
Layer 1
10
117.275675
20
58.027152
11
118.395756
21
56.532334
0
LINE
8
Layer 1
10
118.395756
20
56.532334
11
118.621066
21
55.906271
0
LINE
8
Layer 1
10
118.621066
20
55.906271
11
118.547416
21
55.417170
0
LINE
8
Layer 1
10
118.547416
20
55.417170
11
118.131040
21
54.982530
0
LINE
8
Layer 1
10
118.131040
20
54.982530
11
117.328171
21
54.519847
0
LINE
8
Layer 1
10
117.328171
20
54.519847
11
116.230769
21
54.114597
0
LINE
8
Layer 1
10
116.230769
20
54.114597
11
115.874109
21
54.127188
0
LINE
8
Layer 1
10
115.874109
20
54.127188
11
115.613821
21
54.278807
0
LINE
8
Layer 1
10
115.613821
20
54.278807
11
115.613821
21
54.278807
0
LINE
8
Layer 1
10
114.861227
20
47.132471
11
115.027033
21
47.550611
0
LINE
8
Layer 1
10
115.027033
20
47.550611
11
115.425672
21
48.022880
0
LINE
8
Layer 1
10
115.425672
20
48.022880
11
115.824310
21
48.585813
0
LINE
8
Layer 1
10
115.824310
20
48.585813
11
115.990116
21
49.221932
0
LINE
8
Layer 1
10
115.990116
20
49.221932
11
116.133668
21
49.772672
0
LINE
8
Layer 1
10
116.133668
20
49.772672
11
116.554560
21
50.057772
0
LINE
8
Layer 1
10
116.554560
20
50.057772
11
116.953199
21
50.251443
0
LINE
8
Layer 1
10
116.953199
20
50.251443
11
117.119005
21
50.509797
0
LINE
8
Layer 1
10
117.119005
20
50.509797
11
117.877361
21
51.605770
0
LINE
8
Layer 1
10
117.877361
20
51.605770
11
118.525415
21
52.105388
0
LINE
8
Layer 1
10
118.525415
20
52.105388
11
119.229707
21
52.365848
0
LINE
8
Layer 1
10
119.229707
20
52.365848
11
119.892026
21
52.368259
0
LINE
8
Layer 1
10
119.892026
20
52.368259
11
120.414155
21
52.093729
0
LINE
8
Layer 1
10
120.414155
20
52.093729
11
121.115564
21
51.856342
0
LINE
8
Layer 1
10
121.115564
20
51.856342
11
122.375600
21
51.711933
0
LINE
8
Layer 1
10
122.375600
20
51.711933
11
124.483024
21
51.437893
0
LINE
8
Layer 1
10
124.483024
20
51.437893
11
125.894135
21
51.175847
0
LINE
8
Layer 1
10
125.894135
20
51.175847
11
126.855391
21
50.986604
0
LINE
8
Layer 1
10
126.855391
20
50.986604
11
127.816254
21
50.624590
0
LINE
8
Layer 1
10
127.816254
20
50.624590
11
128.609900
21
50.304384
0
LINE
8
Layer 1
10
128.609900
20
50.304384
11
129.331499
21
50.159439
0
LINE
8
Layer 1
10
129.331499
20
50.159439
11
129.901997
21
50.196364
0
LINE
8
Layer 1
10
129.901997
20
50.196364
11
130.242338
21
50.421769
0
LINE
8
Layer 1
10
130.242338
20
50.421769
11
130.604448
21
50.621088
0
LINE
8
Layer 1
10
130.604448
20
50.621088
11
131.230116
21
50.703991
0
LINE
8
Layer 1
10
131.230116
20
50.703991
11
131.855784
21
50.621088
0
LINE
8
Layer 1
10
131.855784
20
50.621088
11
132.217894
21
50.421769
0
LINE
8
Layer 1
10
132.217894
20
50.421769
11
132.683181
21
50.222449
0
LINE
8
Layer 1
10
132.683181
20
50.222449
11
133.556917
21
50.139546
0
LINE
8
Layer 1
10
133.556917
20
50.139546
11
134.586202
21
49.996550
0
LINE
8
Layer 1
10
134.586202
20
49.996550
11
135.338038
21
49.560353
0
LINE
8
Layer 1
10
135.338038
20
49.560353
11
135.706875
21
49.239101
0
LINE
8
Layer 1
10
135.706875
20
49.239101
11
135.996405
21
49.125909
0
LINE
8
Layer 1
10
135.996405
20
49.125909
11
136.889487
21
49.503460
0
LINE
8
Layer 1
10
136.889487
20
49.503460
11
137.592863
21
49.970996
0
LINE
8
Layer 1
10
137.592863
20
49.970996
11
137.911667
21
50.352572
0
LINE
8
Layer 1
10
137.911667
20
50.352572
11
137.831526
21
50.609725
0
LINE
8
Layer 1
10
137.831526
20
50.609725
11
137.338068
21
50.703991
0
LINE
8
Layer 1
10
137.338068
20
50.703991
11
136.783687
21
50.786894
0
LINE
8
Layer 1
10
136.783687
20
50.786894
11
136.451227
21
50.986213
0
LINE
8
Layer 1
10
136.451227
20
50.986213
11
136.052924
21
51.185532
0
LINE
8
Layer 1
10
136.052924
20
51.185532
11
135.340240
21
51.268435
0
LINE
8
Layer 1
10
135.340240
20
51.268435
11
134.574747
21
51.393799
0
LINE
8
Layer 1
10
134.574747
20
51.393799
11
134.049485
21
51.695206
0
LINE
8
Layer 1
10
134.049485
20
51.695206
11
133.281243
21
52.243877
0
LINE
8
Layer 1
10
133.281243
20
52.243877
11
131.931565
21
52.963730
0
LINE
8
Layer 1
10
131.931565
20
52.963730
11
130.623804
21
53.719034
0
LINE
8
Layer 1
10
130.623804
20
53.719034
11
130.028230
21
54.339318
0
LINE
8
Layer 1
10
130.028230
20
54.339318
11
129.691428
21
54.829761
0
LINE
8
Layer 1
10
129.691428
20
54.829761
11
129.077706
21
55.259269
0
LINE
8
Layer 1
10
129.077706
20
55.259269
11
128.425353
21
55.713021
0
LINE
8
Layer 1
10
128.425353
20
55.713021
11
127.995672
21
56.261759
0
LINE
8
Layer 1
10
127.995672
20
56.261759
11
127.655857
21
56.735870
0
LINE
8
Layer 1
10
127.655857
20
56.735870
11
127.219560
21
57.010198
0
LINE
8
Layer 1
10
127.219560
20
57.010198
11
126.850425
21
57.291892
0
LINE
8
Layer 1
10
126.850425
20
57.291892
11
126.714560
21
57.830494
0
LINE
8
Layer 1
10
126.714560
20
57.830494
11
126.548755
21
58.466613
0
LINE
8
Layer 1
10
126.548755
20
58.466613
11
126.150116
21
59.029546
0
LINE
8
Layer 1
10
126.150116
20
59.029546
11
125.750265
21
59.626659
0
LINE
8
Layer 1
10
125.750265
20
59.626659
11
125.585672
21
60.347118
0
LINE
8
Layer 1
10
125.585672
20
60.347118
11
125.488178
21
61.301274
0
LINE
8
Layer 1
10
125.488178
20
61.301274
11
125.070957
21
61.832841
0
LINE
8
Layer 1
10
125.070957
20
61.832841
11
124.146901
21
62.045661
0
LINE
8
Layer 1
10
124.146901
20
62.045661
11
122.528900
21
62.043575
0
LINE
8
Layer 1
10
122.528900
20
62.043575
11
120.722258
21
61.902651
0
LINE
8
Layer 1
10
120.722258
20
61.902651
11
119.814227
21
61.690798
0
LINE
8
Layer 1
10
119.814227
20
61.690798
11
119.229462
21
61.505504
0
LINE
8
Layer 1
10
119.229462
20
61.505504
11
118.200035
21
61.428435
0
LINE
8
Layer 1
10
118.200035
20
61.428435
11
116.946309
21
61.275620
0
LINE
8
Layer 1
10
116.946309
20
61.275620
11
115.849005
21
60.863991
0
LINE
8
Layer 1
10
115.849005
20
60.863991
11
114.508294
21
60.299546
0
LINE
8
Layer 1
10
114.508294
20
60.299546
11
113.751976
21
60.093734
0
LINE
8
Layer 1
10
113.751976
20
60.093734
11
112.743508
21
59.613280
0
LINE
8
Layer 1
10
112.743508
20
59.613280
11
111.860246
21
59.063660
0
LINE
8
Layer 1
10
111.860246
20
59.063660
11
111.479544
21
58.650347
0
LINE
8
Layer 1
10
111.479544
20
58.650347
11
111.310187
21
58.339179
0
LINE
8
Layer 1
10
111.310187
20
58.339179
11
110.910113
21
58.123542
0
LINE
8
Layer 1
10
110.910113
20
58.123542
11
110.511474
21
57.896849
0
LINE
8
Layer 1
10
110.511474
20
57.896849
11
110.345669
21
57.559098
0
LINE
8
Layer 1
10
110.345669
20
57.559098
11
110.179863
21
57.221347
0
LINE
8
Layer 1
10
110.179863
20
57.221347
11
109.781224
21
56.994654
0
LINE
8
Layer 1
10
109.781224
20
56.994654
11
109.359202
21
56.707902
0
LINE
8
Layer 1
10
109.359202
20
56.707902
11
109.216780
21
56.147987
0
LINE
8
Layer 1
10
109.216780
20
56.147987
11
109.074358
21
55.588069
0
LINE
8
Layer 1
10
109.074358
20
55.588069
11
108.652335
21
55.301320
0
LINE
8
Layer 1
10
108.652335
20
55.301320
11
108.216269
21
54.989671
0
LINE
8
Layer 1
10
108.216269
20
54.989671
11
108.087891
21
54.284852
0
LINE
8
Layer 1
10
108.087891
20
54.284852
11
107.891384
21
53.518293
0
LINE
8
Layer 1
10
107.891384
20
53.518293
11
107.406603
21
52.718032
0
LINE
8
Layer 1
10
107.406603
20
52.718032
11
106.790654
21
52.088188
0
LINE
8
Layer 1
10
106.790654
20
52.088188
11
106.200646
21
51.832880
0
LINE
8
Layer 1
10
106.200646
20
51.832880
11
105.857830
21
51.754947
0
LINE
8
Layer 1
10
105.857830
20
51.754947
11
105.922068
21
51.536865
0
LINE
8
Layer 1
10
105.922068
20
51.536865
11
107.184086
21
50.774546
0
LINE
8
Layer 1
10
107.184086
20
50.774546
11
108.829071
21
50.139546
0
LINE
8
Layer 1
10
108.829071
20
50.139546
11
109.379752
21
49.999464
0
LINE
8
Layer 1
10
109.379752
20
49.999464
11
110.102201
21
49.637248
0
LINE
8
Layer 1
10
110.102201
20
49.637248
11
111.467714
21
48.594611
0
LINE
8
Layer 1
10
111.467714
20
48.594611
11
112.037731
21
48.091166
0
LINE
8
Layer 1
10
112.037731
20
48.091166
11
112.467794
21
47.881769
0
LINE
8
Layer 1
10
112.467794
20
47.881769
11
112.851187
21
47.715963
0
LINE
8
Layer 1
10
112.851187
20
47.715963
11
113.309005
21
47.317324
0
LINE
8
Layer 1
10
113.309005
20
47.317324
11
113.796134
21
46.937785
0
LINE
8
Layer 1
10
113.796134
20
46.937785
11
114.302534
21
46.770302
0
LINE
8
Layer 1
10
114.302534
20
46.770302
11
114.700224
21
46.830118
0
LINE
8
Layer 1
10
114.700224
20
46.830118
11
114.861227
21
47.132471
0
LINE
8
Layer 1
10
114.861227
20
47.132471
11
114.861227
21
47.132471
0
LINE
8
Layer 1
10
130.724024
20
46.006317
11
130.786664
21
46.887095
0
LINE
8
Layer 1
10
130.786664
20
46.887095
11
131.388223
21
47.562493
0
LINE
8
Layer 1
10
131.388223
20
47.562493
11
131.876760
21
48.051498
0
LINE
8
Layer 1
10
131.876760
20
48.051498
11
131.963411
21
48.371435
0
LINE
8
Layer 1
10
131.963411
20
48.371435
11
131.758731
21
48.409205
0
LINE
8
Layer 1
10
131.758731
20
48.409205
11
131.546834
21
48.219806
0
LINE
8
Layer 1
10
131.546834
20
48.219806
11
131.082593
21
48.023647
0
LINE
8
Layer 1
10
131.082593
20
48.023647
11
130.212658
21
47.967791
0
LINE
8
Layer 1
10
130.212658
20
47.967791
11
129.225076
21
48.048399
0
LINE
8
Layer 1
10
129.225076
20
48.048399
11
128.407894
21
48.261634
0
LINE
8
Layer 1
10
128.407894
20
48.261634
11
125.807687
21
48.530262
0
LINE
8
Layer 1
10
125.807687
20
48.530262
11
123.432316
21
48.812159
0
LINE
8
Layer 1
10
123.432316
20
48.812159
11
121.745290
21
49.010657
0
LINE
8
Layer 1
10
121.745290
20
49.010657
11
120.642780
21
49.093560
0
LINE
8
Layer 1
10
120.642780
20
49.093560
11
120.082338
21
49.292880
0
LINE
8
Layer 1
10
120.082338
20
49.292880
11
119.865506
21
49.512522
0
LINE
8
Layer 1
10
119.865506
20
49.512522
11
119.634814
21
49.563874
0
LINE
8
Layer 1
10
119.634814
20
49.563874
11
119.451496
21
49.455387
0
LINE
8
Layer 1
10
119.451496
20
49.455387
11
119.376783
21
49.195510
0
LINE
8
Layer 1
10
119.376783
20
49.195510
11
119.210977
21
48.777371
0
LINE
8
Layer 1
10
119.210977
20
48.777371
11
118.812338
21
48.305102
0
LINE
8
Layer 1
10
118.812338
20
48.305102
11
118.274258
21
47.567296
0
LINE
8
Layer 1
10
118.274258
20
47.567296
11
118.410221
21
47.380195
0
LINE
8
Layer 1
10
118.410221
20
47.380195
11
118.816176
21
47.317324
0
LINE
8
Layer 1
10
118.816176
20
47.317324
11
119.874395
21
47.025413
0
LINE
8
Layer 1
10
119.874395
20
47.025413
11
121.122897
21
46.231344
0
LINE
8
Layer 1
10
121.122897
20
46.231344
11
121.550904
21
46.019379
0
LINE
8
Layer 1
10
121.550904
20
46.019379
11
121.911370
21
46.043974
0
LINE
8
Layer 1
10
121.911370
20
46.043974
11
122.234839
21
46.094954
0
LINE
8
Layer 1
10
122.234839
20
46.094954
11
122.573895
21
45.946424
0
LINE
8
Layer 1
10
122.573895
20
45.946424
11
123.918679
21
45.724319
0
LINE
8
Layer 1
10
123.918679
20
45.724319
11
126.662643
21
45.598571
0
LINE
8
Layer 1
10
126.662643
20
45.598571
11
129.346760
21
45.487377
0
LINE
8
Layer 1
10
129.346760
20
45.487377
11
130.550116
21
45.300434
0
LINE
8
Layer 1
10
130.550116
20
45.300434
11
130.700646
21
45.099418
0
LINE
8
Layer 1
10
130.700646
20
45.099418
11
130.775309
21
45.131797
0
LINE
8
Layer 1
10
130.775309
20
45.131797
11
130.724032
21
46.006317
0
LINE
8
Layer 1
10
130.724032
20
46.006317
11
130.724024
21
46.006317
0
LINE
8
Layer 1
10
138.709005
20
41.955102
11
139.415903
21
42.553060
0
LINE
8
Layer 1
10
139.415903
20
42.553060
11
139.976394
21
42.801769
0
LINE
8
Layer 1
10
139.976394
20
42.801769
11
140.746120
21
43.017461
0
LINE
8
Layer 1
10
140.746120
20
43.017461
11
141.882694
21
43.530958
0
LINE
8
Layer 1
10
141.882694
20
43.530958
11
142.986832
21
44.141892
0
LINE
8
Layer 1
10
142.986832
20
44.141892
11
143.659250
21
44.649895
0
LINE
8
Layer 1
10
143.659250
20
44.649895
11
144.091574
21
44.939212
0
LINE
8
Layer 1
10
144.091574
20
44.939212
11
144.653573
21
45.059546
0
LINE
8
Layer 1
10
144.653573
20
45.059546
11
145.166938
21
45.142449
0
LINE
8
Layer 1
10
145.166938
20
45.142449
11
145.482338
21
45.341769
0
LINE
8
Layer 1
10
145.482338
20
45.341769
11
145.753701
21
45.541088
0
LINE
8
Layer 1
10
145.753701
20
45.541088
11
146.161190
21
45.623991
0
LINE
8
Layer 1
10
146.161190
20
45.623991
11
147.519384
21
46.058347
0
LINE
8
Layer 1
10
147.519384
20
46.058347
11
148.732754
21
46.899847
0
LINE
8
Layer 1
10
148.732754
20
46.899847
11
149.287911
21
47.196189
0
LINE
8
Layer 1
10
149.287911
20
47.196189
11
150.144903
21
47.317324
0
LINE
8
Layer 1
10
150.144903
20
47.317324
11
151.360359
21
47.550499
0
LINE
8
Layer 1
10
151.360359
20
47.550499
11
152.820116
21
48.163991
0
LINE
8
Layer 1
10
152.820116
20
48.163991
11
154.156816
21
48.761949
0
LINE
8
Layer 1
10
154.156816
20
48.761949
11
155.110380
21
49.010657
0
LINE
8
Layer 1
10
155.110380
20
49.010657
11
156.254360
21
49.293416
0
LINE
8
Layer 1
10
156.254360
20
49.293416
11
157.549283
21
50.114491
0
LINE
8
Layer 1
10
157.549283
20
50.114491
11
158.678172
21
50.828380
0
LINE
8
Layer 1
10
158.678172
20
50.828380
11
159.125267
21
51.173188
0
LINE
8
Layer 1
10
159.125267
20
51.173188
11
159.311227
21
51.558992
0
LINE
8
Layer 1
10
159.311227
20
51.558992
11
159.203722
21
51.764606
0
LINE
8
Layer 1
10
159.203722
20
51.764606
11
158.801121
21
51.876819
0
LINE
8
Layer 1
10
158.801121
20
51.876819
11
156.630116
21
51.878255
0
LINE
8
Layer 1
10
156.630116
20
51.878255
11
154.636584
21
51.727999
0
LINE
8
Layer 1
10
154.636584
20
51.727999
11
153.608588
21
51.501181
0
LINE
8
Layer 1
10
153.608588
20
51.501181
11
153.280582
21
51.356619
0
LINE
8
Layer 1
10
153.280582
20
51.356619
11
152.969996
21
51.404128
0
LINE
8
Layer 1
10
152.969996
20
51.404128
11
152.499017
21
51.404382
0
LINE
8
Layer 1
10
152.499017
20
51.404382
11
151.785385
21
51.146202
0
LINE
8
Layer 1
10
151.785385
20
51.146202
11
150.933039
21
50.833890
0
LINE
8
Layer 1
10
150.933039
20
50.833890
11
150.128560
21
50.703991
0
LINE
8
Layer 1
10
150.128560
20
50.703991
11
149.507972
21
50.568223
0
LINE
8
Layer 1
10
149.507972
20
50.568223
11
149.210564
21
50.139546
0
LINE
8
Layer 1
10
149.210564
20
50.139546
11
148.921355
21
49.715891
0
LINE
8
Layer 1
10
148.921355
20
49.715891
11
148.347639
21
49.575102
0
LINE
8
Layer 1
10
148.347639
20
49.575102
11
147.791206
21
49.492199
0
LINE
8
Layer 1
10
147.791206
20
49.492199
11
147.457894
21
49.292880
0
LINE
8
Layer 1
10
147.457894
20
49.292880
11
147.006864
21
49.093560
0
LINE
8
Layer 1
10
147.006864
20
49.093560
11
146.167407
21
49.010657
0
LINE
8
Layer 1
10
146.167407
20
49.010657
11
145.214509
21
48.907812
0
LINE
8
Layer 1
10
145.214509
20
48.907812
11
144.490731
21
48.660547
0
LINE
8
Layer 1
10
144.490731
20
48.660547
11
143.930116
21
48.451549
0
LINE
8
Layer 1
10
143.930116
20
48.451549
11
143.369501
21
48.660547
0
LINE
8
Layer 1
10
143.369501
20
48.660547
11
142.819806
21
48.931616
0
LINE
8
Layer 1
10
142.819806
20
48.931616
11
142.351871
21
48.970881
0
LINE
8
Layer 1
10
142.351871
20
48.970881
11
141.897973
21
48.766189
0
LINE
8
Layer 1
10
141.897973
20
48.766189
11
141.390384
21
48.305387
0
LINE
8
Layer 1
10
141.390384
20
48.305387
11
140.387186
21
47.559743
0
LINE
8
Layer 1
10
140.387186
20
47.559743
11
138.832726
21
46.674311
0
LINE
8
Layer 1
10
138.832726
20
46.674311
11
137.272928
21
45.934067
0
LINE
8
Layer 1
10
137.272928
20
45.934067
11
136.253717
21
45.623991
0
LINE
8
Layer 1
10
136.253717
20
45.623991
11
135.867200
21
45.541088
0
LINE
8
Layer 1
10
135.867200
20
45.541088
11
135.604560
21
45.341769
0
LINE
8
Layer 1
10
135.604560
20
45.341769
11
135.304951
21
45.142449
0
LINE
8
Layer 1
10
135.304951
20
45.142449
11
134.829547
21
45.059546
0
LINE
8
Layer 1
10
134.829547
20
45.059546
11
134.509437
21
45.042461
0
LINE
8
Layer 1
10
134.509437
20
45.042461
11
134.420422
21
44.948023
0
LINE
8
Layer 1
10
134.420422
20
44.948023
11
134.987315
21
44.267992
0
LINE
8
Layer 1
10
134.987315
20
44.267992
11
135.745672
21
43.223095
0
LINE
8
Layer 1
10
135.745672
20
43.223095
11
136.634251
21
42.058351
0
LINE
8
Layer 1
10
136.634251
20
42.058351
11
137.723790
21
41.108435
0
LINE
8
Layer 1
10
137.723790
20
41.108435
11
138.709005
21
41.955102
0
LINE
8
Layer 1
10
138.709005
20
41.955102
11
138.709005
21
41.955102
0
LINE
8
Layer 1
10
242.126321
20
39.574445
11
241.354696
21
40.217915
0
LINE
8
Layer 1
10
241.354696
20
40.217915
11
240.454349
21
40.748599
0
LINE
8
Layer 1
10
240.454349
20
40.748599
11
239.485549
21
41.317144
0
LINE
8
Layer 1
10
239.485549
20
41.317144
11
238.549344
21
42.051633
0
LINE
8
Layer 1
10
238.549344
20
42.051633
11
237.850034
21
42.599321
0
LINE
8
Layer 1
10
237.850034
20
42.599321
11
237.450794
21
42.718742
0
LINE
8
Layer 1
10
237.450794
20
42.718742
11
237.423378
21
42.454680
0
LINE
8
Layer 1
10
237.423378
20
42.454680
11
237.628274
21
42.106348
0
LINE
8
Layer 1
10
237.628274
20
42.106348
11
237.959415
21
41.802747
0
LINE
8
Layer 1
10
237.959415
20
41.802747
11
238.310730
21
41.672880
0
LINE
8
Layer 1
10
238.310730
20
41.672880
11
238.868662
21
41.341269
0
LINE
8
Layer 1
10
238.868662
20
41.341269
11
239.744560
21
40.543991
0
LINE
8
Layer 1
10
239.744560
20
40.543991
11
240.713548
21
39.734896
0
LINE
8
Layer 1
10
240.713548
20
39.734896
11
241.478514
21
39.415102
0
LINE
8
Layer 1
10
241.478514
20
39.415102
11
241.975835
21
39.332199
0
LINE
8
Layer 1
10
241.975835
20
39.332199
11
242.284560
21
39.132880
0
LINE
8
Layer 1
10
242.284560
20
39.132880
11
242.632634
21
38.850657
0
LINE
8
Layer 1
10
242.632634
20
38.850657
11
242.126321
21
39.574445
0
LINE
8
Layer 1
10
242.126321
20
39.574445
11
242.126321
21
39.574445
0
LINE
8
Layer 1
10
177.279610
20
38.638991
11
178.705971
21
39.589115
0
LINE
8
Layer 1
10
178.705971
20
39.589115
11
179.490116
21
40.372942
0
LINE
8
Layer 1
10
179.490116
20
40.372942
11
178.942328
21
40.543991
0
LINE
8
Layer 1
10
178.942328
20
40.543991
11
178.504216
21
40.626894
0
LINE
8
Layer 1
10
178.504216
20
40.626894
11
178.220116
21
40.826213
0
LINE
8
Layer 1
10
178.220116
20
40.826213
11
177.886803
21
41.025532
0
LINE
8
Layer 1
10
177.886803
20
41.025532
11
177.330371
21
41.108435
0
LINE
8
Layer 1
10
177.330371
20
41.108435
11
176.756654
21
41.249224
0
LINE
8
Layer 1
10
176.756654
20
41.249224
11
176.467445
21
41.672880
0
LINE
8
Layer 1
10
176.467445
20
41.672880
11
176.187313
21
42.090182
0
LINE
8
Layer 1
10
176.187313
20
42.090182
11
175.663857
21
42.237324
0
LINE
8
Layer 1
10
175.663857
20
42.237324
11
175.149331
21
42.320227
0
LINE
8
Layer 1
10
175.149331
20
42.320227
11
174.833449
21
42.519546
0
LINE
8
Layer 1
10
174.833449
20
42.519546
11
174.512791
21
42.718866
0
LINE
8
Layer 1
10
174.512791
20
42.718866
11
173.986783
21
42.801769
0
LINE
8
Layer 1
10
173.986783
20
42.801769
11
173.460774
21
42.884671
0
LINE
8
Layer 1
10
173.460774
20
42.884671
11
173.140116
21
43.083991
0
LINE
8
Layer 1
10
173.140116
20
43.083991
11
172.744512
21
43.283310
0
LINE
8
Layer 1
10
172.744512
20
43.283310
11
172.038312
21
43.366213
0
LINE
8
Layer 1
10
172.038312
20
43.366213
11
171.223376
21
43.518575
0
LINE
8
Layer 1
10
171.223376
20
43.518575
11
170.600116
21
43.930657
0
LINE
8
Layer 1
10
170.600116
20
43.930657
11
170.049837
21
44.329296
0
LINE
8
Layer 1
10
170.049837
20
44.329296
11
169.444142
21
44.495102
0
LINE
8
Layer 1
10
169.444142
20
44.495102
11
168.937262
21
44.578005
0
LINE
8
Layer 1
10
168.937262
20
44.578005
11
168.624560
21
44.777324
0
LINE
8
Layer 1
10
168.624560
20
44.777324
11
168.221000
21
44.976644
0
LINE
8
Layer 1
10
168.221000
20
44.976644
11
167.495672
21
45.059546
0
LINE
8
Layer 1
10
167.495672
20
45.059546
11
166.770344
21
45.142449
0
LINE
8
Layer 1
10
166.770344
20
45.142449
11
166.366783
21
45.341769
0
LINE
8
Layer 1
10
166.366783
20
45.341769
11
165.963222
21
45.541088
0
LINE
8
Layer 1
10
165.963222
20
45.541088
11
165.237894
21
45.623991
0
LINE
8
Layer 1
10
165.237894
20
45.623991
11
164.512566
21
45.706894
0
LINE
8
Layer 1
10
164.512566
20
45.706894
11
164.109005
21
45.906213
0
LINE
8
Layer 1
10
164.109005
20
45.906213
11
163.634229
21
46.105532
0
LINE
8
Layer 1
10
163.634229
20
46.105532
11
162.737681
21
46.188435
0
LINE
8
Layer 1
10
162.737681
20
46.188435
11
161.813614
21
46.264586
0
LINE
8
Layer 1
10
161.813614
20
46.264586
11
161.272672
21
46.447670
0
LINE
8
Layer 1
10
161.272672
20
46.447670
11
160.016783
21
46.800448
0
LINE
8
Layer 1
10
160.016783
20
46.800448
11
159.169510
21
46.752473
0
LINE
8
Layer 1
10
159.169510
20
46.752473
11
159.013963
21
46.521398
0
LINE
8
Layer 1
10
159.013963
20
46.521398
11
158.936603
21
46.085746
0
LINE
8
Layer 1
10
158.936603
20
46.085746
11
158.725852
21
45.452672
0
LINE
8
Layer 1
10
158.725852
20
45.452672
11
158.301603
21
45.135608
0
LINE
8
Layer 1
10
158.301603
20
45.135608
11
157.940446
21
44.917035
0
LINE
8
Layer 1
10
157.940446
20
44.917035
11
157.778562
21
44.553039
0
LINE
8
Layer 1
10
157.778562
20
44.553039
11
157.827216
21
44.122646
0
LINE
8
Layer 1
10
157.827216
20
44.122646
11
158.097672
21
43.704880
0
LINE
8
Layer 1
10
158.097672
20
43.704880
11
158.605541
21
43.465696
0
LINE
8
Layer 1
10
158.605541
20
43.465696
11
159.351015
21
43.366213
0
LINE
8
Layer 1
10
159.351015
20
43.366213
11
160.048243
21
43.283310
0
LINE
8
Layer 1
10
160.048243
20
43.283310
11
160.440116
21
43.083991
0
LINE
8
Layer 1
10
160.440116
20
43.083991
11
160.773429
21
42.884671
0
LINE
8
Layer 1
10
160.773429
20
42.884671
11
161.329861
21
42.801769
0
LINE
8
Layer 1
10
161.329861
20
42.801769
11
161.903578
21
42.660980
0
LINE
8
Layer 1
10
161.903578
20
42.660980
11
162.192787
21
42.237324
0
LINE
8
Layer 1
10
162.192787
20
42.237324
11
162.380573
21
41.908608
0
LINE
8
Layer 1
10
162.380573
20
41.908608
11
162.759659
21
41.699830
0
LINE
8
Layer 1
10
162.759659
20
41.699830
11
164.215995
21
41.603134
0
LINE
8
Layer 1
10
164.215995
20
41.603134
11
165.565136
21
41.083151
0
LINE
8
Layer 1
10
165.565136
20
41.083151
11
166.414129
21
40.702369
0
LINE
8
Layer 1
10
166.414129
20
40.702369
11
167.107345
21
40.543991
0
LINE
8
Layer 1
10
167.107345
20
40.543991
11
167.568848
21
40.387156
0
LINE
8
Layer 1
10
167.568848
20
40.387156
11
167.837231
21
39.979546
0
LINE
8
Layer 1
10
167.837231
20
39.979546
11
168.158665
21
39.539206
0
LINE
8
Layer 1
10
168.158665
20
39.539206
11
168.923041
21
39.415102
0
LINE
8
Layer 1
10
168.923041
20
39.415102
11
169.636887
21
39.332199
0
LINE
8
Layer 1
10
169.636887
20
39.332199
11
170.035672
21
39.132880
0
LINE
8
Layer 1
10
170.035672
20
39.132880
11
170.356330
21
38.933560
0
LINE
8
Layer 1
10
170.356330
20
38.933560
11
170.882338
21
38.850657
0
LINE
8
Layer 1
10
170.882338
20
38.850657
11
171.408347
21
38.767755
0
LINE
8
Layer 1
10
171.408347
20
38.767755
11
171.729005
21
38.568435
0
LINE
8
Layer 1
10
171.729005
20
38.568435
11
172.589059
21
38.348278
0
LINE
8
Layer 1
10
172.589059
20
38.348278
11
174.296088
21
38.292946
0
LINE
8
Layer 1
10
174.296088
20
38.292946
11
176.107227
21
38.392998
0
LINE
8
Layer 1
10
176.107227
20
38.392998
11
177.279610
21
38.638991
0
LINE
8
Layer 1
10
177.279610
20
38.638991
11
177.279610
21
38.638991
0
LINE
8
Layer 1
10
246.474621
20
37.095890
11
246.147132
21
37.526490
0
LINE
8
Layer 1
10
246.147132
20
37.526490
11
245.537958
21
37.943706
0
LINE
8
Layer 1
10
245.537958
20
37.943706
11
244.900208
21
38.208999
0
LINE
8
Layer 1
10
244.900208
20
38.208999
11
244.486989
21
38.183828
0
LINE
8
Layer 1
10
244.486989
20
38.183828
11
244.572570
21
37.991385
0
LINE
8
Layer 1
10
244.572570
20
37.991385
11
245.008685
21
37.759064
0
LINE
8
Layer 1
10
245.008685
20
37.759064
11
246.070160
21
37.045615
0
LINE
8
Layer 1
10
246.070160
20
37.045615
11
246.514150
21
36.619971
0
LINE
8
Layer 1
10
246.514150
20
36.619971
11
246.474621
21
37.095890
0
LINE
8
Layer 1
10
246.474621
20
37.095890
11
246.474621
21
37.095890
0
LINE
8
Layer 1
10
249.091492
20
35.611822
11
248.768784
21
35.862285
0
LINE
8
Layer 1
10
248.768784
20
35.862285
11
248.634560
21
35.822817
0
LINE
8
Layer 1
10
248.634560
20
35.822817
11
248.970079
21
35.247583
0
LINE
8
Layer 1
10
248.970079
20
35.247583
11
249.234458
21
35.043133
0
LINE
8
Layer 1
10
249.234458
20
35.043133
11
249.425454
21
35.031923
0
LINE
8
Layer 1
10
249.425454
20
35.031923
11
249.091492
21
35.611822
0
LINE
8
Layer 1
10
249.091492
20
35.611822
11
249.091492
21
35.611822
0
LINE
8
Layer 1
10
51.292822
20
32.968475
11
51.568644
21
33.134688
0
LINE
8
Layer 1
10
51.568644
20
33.134688
11
51.850860
21
33.065596
0
LINE
8
Layer 1
10
51.850860
20
33.065596
11
52.395295
21
32.721115
0
LINE
8
Layer 1
10
52.395295
20
32.721115
11
53.019466
21
32.970061
0
LINE
8
Layer 1
10
53.019466
20
32.970061
11
53.331458
21
33.130839
0
LINE
8
Layer 1
10
53.331458
20
33.130839
11
53.684627
21
33.180435
0
LINE
8
Layer 1
10
53.684627
20
33.180435
11
54.594268
21
33.285090
0
LINE
8
Layer 1
10
54.594268
20
33.285090
11
55.393370
21
33.708862
0
LINE
8
Layer 1
10
55.393370
20
33.708862
11
56.041576
21
34.185707
0
LINE
8
Layer 1
10
56.041576
20
34.185707
11
56.828512
21
34.342736
0
LINE
8
Layer 1
10
56.828512
20
34.342736
11
57.133080
21
34.492482
0
LINE
8
Layer 1
10
57.133080
20
34.492482
11
57.255448
21
34.801312
0
LINE
8
Layer 1
10
57.255448
20
34.801312
11
57.287118
21
35.517424
0
LINE
8
Layer 1
10
57.287118
20
35.517424
11
57.181987
21
37.128523
0
LINE
8
Layer 1
10
57.181987
20
37.128523
11
56.621849
21
36.926366
0
LINE
8
Layer 1
10
56.621849
20
36.926366
11
56.069577
21
36.621813
0
LINE
8
Layer 1
10
56.069577
20
36.621813
11
54.990640
21
36.182002
0
LINE
8
Layer 1
10
54.990640
20
36.182002
11
53.838619
21
36.011155
0
LINE
8
Layer 1
10
53.838619
20
36.011155
11
52.265786
21
35.532936
0
LINE
8
Layer 1
10
52.265786
20
35.532936
11
50.770429
21
34.837139
0
LINE
8
Layer 1
10
50.770429
20
34.837139
11
49.671035
21
34.462521
0
LINE
8
Layer 1
10
49.671035
20
34.462521
11
48.521380
21
34.321115
0
LINE
8
Layer 1
10
48.521380
20
34.321115
11
47.768498
21
34.128485
0
LINE
8
Layer 1
10
47.768498
20
34.128485
11
47.153226
21
33.657272
0
LINE
8
Layer 1
10
47.153226
20
33.657272
11
46.514336
21
33.291867
0
LINE
8
Layer 1
10
46.514336
20
33.291867
11
45.785030
21
33.172022
0
LINE
8
Layer 1
10
45.785030
20
33.172022
11
45.359314
21
32.959186
0
LINE
8
Layer 1
10
45.359314
20
32.959186
11
45.369485
21
32.815275
0
LINE
8
Layer 1
10
45.369485
20
32.815275
11
45.642877
21
32.750052
0
LINE
8
Layer 1
10
45.642877
20
32.750052
11
47.714002
21
32.630285
0
LINE
8
Layer 1
10
47.714002
20
32.630285
11
49.789396
21
32.698433
0
LINE
8
Layer 1
10
49.789396
20
32.698433
11
50.557785
21
32.768359
0
LINE
8
Layer 1
10
50.557785
20
32.768359
11
51.292822
21
32.968475
0
LINE
8
Layer 1
10
51.292822
20
32.968475
11
51.292822
21
32.968475
0
LINE
8
Layer 1
10
103.117825
20
42.075687
11
103.056128
21
43.134020
0
LINE
8
Layer 1
10
103.056128
20
43.134020
11
103.317855
21
43.665324
0
LINE
8
Layer 1
10
103.317855
20
43.665324
11
104.132913
21
43.789546
0
LINE
8
Layer 1
10
104.132913
20
43.789546
11
104.919925
21
43.674958
0
LINE
8
Layer 1
10
104.919925
20
43.674958
11
105.215986
21
43.274660
0
LINE
8
Layer 1
10
105.215986
20
43.274660
11
105.201943
21
42.868441
0
LINE
8
Layer 1
10
105.201943
20
42.868441
11
105.030678
21
42.486149
0
LINE
8
Layer 1
10
105.030678
20
42.486149
11
104.389082
21
41.891975
0
LINE
8
Layer 1
10
104.389082
20
41.891975
11
103.636397
21
41.689401
0
LINE
8
Layer 1
10
103.636397
20
41.689401
11
103.326272
21
41.796608
0
LINE
8
Layer 1
10
103.326272
20
41.796608
11
103.117825
21
42.075687
0
LINE
8
Layer 1
10
103.117825
20
42.075687
11
103.117825
21
42.075687
0
LINE
8
Layer 1
10
96.335740
20
39.276277
11
96.348298
21
39.922429
0
LINE
8
Layer 1
10
96.348298
20
39.922429
11
96.661190
21
40.716074
0
LINE
8
Layer 1
10
96.661190
20
40.716074
11
97.131214
21
41.388971
0
LINE
8
Layer 1
10
97.131214
20
41.388971
11
97.615169
21
41.672880
0
LINE
8
Layer 1
10
97.615169
20
41.672880
11
98.093511
21
41.530180
0
LINE
8
Layer 1
10
98.093511
20
41.530180
11
98.560943
21
41.170668
0
LINE
8
Layer 1
10
98.560943
20
41.170668
11
98.915891
21
40.697226
0
LINE
8
Layer 1
10
98.915891
20
40.697226
11
99.056780
21
40.212732
0
LINE
8
Layer 1
10
99.056780
20
40.212732
11
98.955032
21
39.819640
0
LINE
8
Layer 1
10
98.955032
20
39.819640
11
98.683636
21
39.470469
0
LINE
8
Layer 1
10
98.683636
20
39.470469
11
97.834977
21
38.973785
0
LINE
8
Layer 1
10
97.834977
20
38.973785
11
96.916959
21
38.862461
0
LINE
8
Layer 1
10
96.916959
20
38.862461
11
96.558865
21
38.994990
0
LINE
8
Layer 1
10
96.558865
20
38.994990
11
96.335740
21
39.276277
0
LINE
8
Layer 1
10
96.335740
20
39.276277
11
96.335740
21
39.276277
0
LINE
8
Layer 1
10
99.723284
20
35.887324
11
99.643404
21
36.360236
0
LINE
8
Layer 1
10
99.643404
20
36.360236
11
99.757440
21
36.766302
0
LINE
8
Layer 1
10
99.757440
20
36.766302
11
100.034172
21
37.050378
0
LINE
8
Layer 1
10
100.034172
20
37.050378
11
100.442378
21
37.157324
0
LINE
8
Layer 1
10
100.442378
20
37.157324
11
100.930658
21
37.066677
0
LINE
8
Layer 1
10
100.930658
20
37.066677
11
101.175093
21
36.820043
0
LINE
8
Layer 1
10
101.175093
20
36.820043
11
101.161359
21
36.455382
0
LINE
8
Layer 1
10
101.161359
20
36.455382
11
100.875129
21
36.010652
0
LINE
8
Layer 1
10
100.875129
20
36.010652
11
100.158421
21
35.489440
0
LINE
8
Layer 1
10
100.158421
20
35.489440
11
99.911901
21
35.574163
0
LINE
8
Layer 1
10
99.911901
20
35.574163
11
99.723284
21
35.887324
0
LINE
8
Layer 1
10
99.723284
20
35.887324
11
99.723284
21
35.887324
0
LINE
8
Layer 1
10
104.324929
20
34.523251
11
104.142206
21
34.965001
0
LINE
8
Layer 1
10
104.142206
20
34.965001
11
104.162892
21
35.591613
0
LINE
8
Layer 1
10
104.162892
20
35.591613
11
104.358670
21
36.236729
0
LINE
8
Layer 1
10
104.358670
20
36.236729
11
104.701224
21
36.733991
0
LINE
8
Layer 1
10
104.701224
20
36.733991
11
105.265669
21
37.103694
0
LINE
8
Layer 1
10
105.265669
20
37.103694
11
105.830113
21
36.733991
0
LINE
8
Layer 1
10
105.830113
20
36.733991
11
106.228752
21
36.233119
0
LINE
8
Layer 1
10
106.228752
20
36.233119
11
106.394558
21
35.746213
0
LINE
8
Layer 1
10
106.394558
20
35.746213
11
106.150810
21
35.095436
0
LINE
8
Layer 1
10
106.150810
20
35.095436
11
105.572094
21
34.584552
0
LINE
8
Layer 1
10
105.572094
20
34.584552
11
104.887203
21
34.348759
0
LINE
8
Layer 1
10
104.887203
20
34.348759
11
104.324929
21
34.523251
0
LINE
8
Layer 1
10
104.324929
20
34.523251
11
104.324929
21
34.523251
0
LINE
8
Layer 1
10
72.669002
20
25.586213
11
75.722037
21
26.309605
0
LINE
8
Layer 1
10
75.722037
20
26.309605
11
78.634105
21
27.478866
0
LINE
8
Layer 1
10
78.634105
20
27.478866
11
80.213900
21
27.847496
0
LINE
8
Layer 1
10
80.213900
20
27.847496
11
81.831486
21
28.027368
0
LINE
8
Layer 1
10
81.831486
20
28.027368
11
85.076146
21
28.398433
0
LINE
8
Layer 1
10
85.076146
20
28.398433
11
87.024327
21
28.584360
0
LINE
8
Layer 1
10
87.024327
20
28.584360
11
88.985856
21
28.629990
0
LINE
8
Layer 1
10
88.985856
20
28.629990
11
92.907474
21
28.464360
0
LINE
8
Layer 1
10
92.907474
20
28.464360
11
96.313098
21
27.337119
0
LINE
8
Layer 1
10
96.313098
20
27.337119
11
97.983249
21
26.709984
0
LINE
8
Layer 1
10
97.983249
20
26.709984
11
99.551069
21
25.892847
0
LINE
8
Layer 1
10
99.551069
20
25.892847
11
100.216298
21
26.148796
0
LINE
8
Layer 1
10
100.216298
20
26.148796
11
100.915820
21
26.208308
0
LINE
8
Layer 1
10
100.915820
20
26.208308
11
102.387291
21
26.003052
0
LINE
8
Layer 1
10
102.387291
20
26.003052
11
103.904579
21
25.807146
0
LINE
8
Layer 1
10
103.904579
20
25.807146
11
104.661372
21
25.878346
0
LINE
8
Layer 1
10
104.661372
20
25.878346
11
105.406780
21
26.150657
0
LINE
8
Layer 1
10
105.406780
20
26.150657
11
106.918924
21
26.541033
0
LINE
8
Layer 1
10
106.918924
20
26.541033
11
108.382296
21
27.126197
0
LINE
8
Layer 1
10
108.382296
20
27.126197
11
109.838279
21
27.751561
0
LINE
8
Layer 1
10
109.838279
20
27.751561
11
111.328254
21
28.262532
0
LINE
8
Layer 1
10
111.328254
20
28.262532
11
112.899560
21
29.229993
0
LINE
8
Layer 1
10
112.899560
20
29.229993
11
114.388544
21
30.302148
0
LINE
8
Layer 1
10
114.388544
20
30.302148
11
115.708750
21
31.546893
0
LINE
8
Layer 1
10
115.708750
20
31.546893
11
116.773723
21
33.032127
0
LINE
8
Layer 1
10
116.773723
20
33.032127
11
117.343464
21
34.327977
0
LINE
8
Layer 1
10
117.343464
20
34.327977
11
117.525833
21
35.633008
0
LINE
8
Layer 1
10
117.525833
20
35.633008
11
117.412278
21
36.958674
0
LINE
8
Layer 1
10
117.412278
20
36.958674
11
117.094246
21
38.316431
0
LINE
8
Layer 1
10
117.094246
20
38.316431
11
115.652949
21
40.180620
0
LINE
8
Layer 1
10
115.652949
20
40.180620
11
114.828006
21
41.013110
0
LINE
8
Layer 1
10
114.828006
20
41.013110
11
113.829756
21
41.602324
0
LINE
8
Layer 1
10
113.829756
20
41.602324
11
111.594188
21
43.429698
0
LINE
8
Layer 1
10
111.594188
20
43.429698
11
110.458010
21
44.290006
0
LINE
8
Layer 1
10
110.458010
20
44.290006
11
109.198963
21
44.950166
0
LINE
8
Layer 1
10
109.198963
20
44.950166
11
108.855907
21
45.539461
0
LINE
8
Layer 1
10
108.855907
20
45.539461
11
108.396507
21
45.963761
0
LINE
8
Layer 1
10
108.396507
20
45.963761
11
107.230609
21
46.466109
0
LINE
8
Layer 1
10
107.230609
20
46.466109
11
105.905124
21
46.754674
0
LINE
8
Layer 1
10
105.905124
20
46.754674
11
104.623910
21
47.126923
0
LINE
8
Layer 1
10
104.623910
20
47.126923
11
103.745247
21
47.392421
0
LINE
8
Layer 1
10
103.745247
20
47.392421
11
102.928764
21
47.359587
0
LINE
8
Layer 1
10
102.928764
20
47.359587
11
101.395093
21
46.782761
0
LINE
8
Layer 1
10
101.395093
20
46.782761
11
99.848415
21
46.164120
0
LINE
8
Layer 1
10
99.848415
20
46.164120
11
99.015674
21
46.079017
0
LINE
8
Layer 1
10
99.015674
20
46.079017
11
98.114251
21
46.271338
0
LINE
8
Layer 1
10
98.114251
20
46.271338
11
96.604720
21
46.834651
0
LINE
8
Layer 1
10
96.604720
20
46.834651
11
95.209112
21
47.613263
0
LINE
8
Layer 1
10
95.209112
20
47.613263
11
93.807890
21
48.362582
0
LINE
8
Layer 1
10
93.807890
20
48.362582
11
92.281519
21
48.838017
0
LINE
8
Layer 1
10
92.281519
20
48.838017
11
90.760785
21
49.191954
0
LINE
8
Layer 1
10
90.760785
20
49.191954
11
89.204260
21
49.408873
0
LINE
8
Layer 1
10
89.204260
20
49.408873
11
87.661848
21
49.626013
0
LINE
8
Layer 1
10
87.661848
20
49.626013
11
86.183456
21
49.980616
0
LINE
8
Layer 1
10
86.183456
20
49.980616
11
84.961622
21
50.493651
0
LINE
8
Layer 1
10
84.961622
20
50.493651
11
83.577444
21
50.659572
0
LINE
8
Layer 1
10
83.577444
20
50.659572
11
82.149279
21
50.765789
0
LINE
8
Layer 1
10
82.149279
20
50.765789
11
80.795487
21
51.099714
0
LINE
8
Layer 1
10
80.795487
20
51.099714
11
77.144251
21
51.288777
0
LINE
8
Layer 1
10
77.144251
20
51.288777
11
75.318261
21
51.223462
0
LINE
8
Layer 1
10
75.318261
20
51.223462
11
73.515669
21
50.986213
0
LINE
8
Layer 1
10
73.515669
20
50.986213
11
71.982056
21
50.719722
0
LINE
8
Layer 1
10
71.982056
20
50.719722
11
70.353634
21
50.566083
0
LINE
8
Layer 1
10
70.353634
20
50.566083
11
69.585728
21
50.398252
0
LINE
8
Layer 1
10
69.585728
20
50.398252
11
68.892348
21
50.098637
0
LINE
8
Layer 1
10
68.892348
20
50.098637
11
68.306237
21
49.613905
0
LINE
8
Layer 1
10
68.306237
20
49.613905
11
67.860139
21
48.890724
0
LINE
8
Layer 1
10
67.860139
20
48.890724
11
66.902618
21
47.817432
0
LINE
8
Layer 1
10
66.902618
20
47.817432
11
66.081483
21
46.623467
0
LINE
8
Layer 1
10
66.081483
20
46.623467
11
65.263598
21
45.453020
0
LINE
8
Layer 1
10
65.263598
20
45.453020
11
64.315823
21
44.450282
0
LINE
8
Layer 1
10
64.315823
20
44.450282
11
63.762061
21
42.967311
0
LINE
8
Layer 1
10
63.762061
20
42.967311
11
62.971538
21
41.567986
0
LINE
8
Layer 1
10
62.971538
20
41.567986
11
62.121318
21
40.181764
0
LINE
8
Layer 1
10
62.121318
20
40.181764
11
61.388464
21
38.738104
0
LINE
8
Layer 1
10
61.388464
20
38.738104
11
61.076712
21
37.774041
0
LINE
8
Layer 1
10
61.076712
20
37.774041
11
60.971128
21
36.819296
0
LINE
8
Layer 1
10
60.971128
20
36.819296
11
60.730027
21
35.934870
0
LINE
8
Layer 1
10
60.730027
20
35.934870
11
60.451880
21
35.538091
0
LINE
8
Layer 1
10
60.451880
20
35.538091
11
60.011722
21
35.181769
0
LINE
8
Layer 1
10
60.011722
20
35.181769
11
60.805230
21
34.214718
0
LINE
8
Layer 1
10
60.805230
20
34.214718
11
61.241239
21
33.063432
0
LINE
8
Layer 1
10
61.241239
20
33.063432
11
61.544634
21
31.838851
0
LINE
8
Layer 1
10
61.544634
20
31.838851
11
61.940299
21
30.651916
0
LINE
8
Layer 1
10
61.940299
20
30.651916
11
62.901788
21
29.619220
0
LINE
8
Layer 1
10
62.901788
20
29.619220
11
63.932284
21
28.672935
0
LINE
8
Layer 1
10
63.932284
20
28.672935
11
64.918194
21
27.701401
0
LINE
8
Layer 1
10
64.918194
20
27.701401
11
65.745927
21
26.592956
0
LINE
8
Layer 1
10
65.745927
20
26.592956
11
68.575002
21
25.637634
0
LINE
8
Layer 1
10
68.575002
20
25.637634
11
70.070521
21
25.344407
0
LINE
8
Layer 1
10
70.070521
20
25.344407
11
71.600320
21
25.307451
0
LINE
8
Layer 1
10
71.600320
20
25.307451
11
72.162590
21
25.360624
0
LINE
8
Layer 1
10
72.162590
20
25.360624
11
72.669002
21
25.586213
0
LINE
8
Layer 1
10
72.669002
20
25.586213
11
72.669002
21
25.586213
0
LINE
8
Layer 1
10
64.766780
20
22.763991
11
64.178694
21
23.046213
0
LINE
8
Layer 1
10
64.178694
20
23.046213
11
63.807965
21
23.252895
0
LINE
8
Layer 1
10
63.807965
20
23.252895
11
63.497525
21
23.749810
0
LINE
8
Layer 1
10
63.497525
20
23.749810
11
63.143227
21
24.274363
0
LINE
8
Layer 1
10
63.143227
20
24.274363
11
62.588199
21
24.384810
0
LINE
8
Layer 1
10
62.588199
20
24.384810
11
62.076462
21
24.464972
0
LINE
8
Layer 1
10
62.076462
20
24.464972
11
61.863695
21
24.887044
0
LINE
8
Layer 1
10
61.863695
20
24.887044
11
61.779766
21
25.177319
0
LINE
8
Layer 1
10
61.779766
20
25.177319
11
61.591551
21
25.335210
0
LINE
8
Layer 1
10
61.591551
20
25.335210
11
60.650120
21
25.350030
0
LINE
8
Layer 1
10
60.650120
20
25.350030
11
59.856843
21
25.184181
0
LINE
8
Layer 1
10
59.856843
20
25.184181
11
59.634117
21
24.920310
0
LINE
8
Layer 1
10
59.634117
20
24.920310
11
59.879116
21
24.710336
0
LINE
8
Layer 1
10
59.879116
20
24.710336
11
60.306831
21
24.657502
0
LINE
8
Layer 1
10
60.306831
20
24.657502
11
61.012770
21
24.389831
0
LINE
8
Layer 1
10
61.012770
20
24.389831
11
61.955776
21
23.599168
0
LINE
8
Layer 1
10
61.955776
20
23.599168
11
63.016603
21
22.716841
0
LINE
8
Layer 1
10
63.016603
20
22.716841
11
63.994044
21
22.481769
0
LINE
8
Layer 1
10
63.994044
20
22.481769
11
64.628895
21
22.560354
0
LINE
8
Layer 1
10
64.628895
20
22.560354
11
64.766780
21
22.763991
0
LINE
8
Layer 1
10
64.766780
20
22.763991
11
64.766780
21
22.763991
0
LINE
8
Layer 1
10
92.706780
20
21.352880
11
93.166200
21
21.751519
0
LINE
8
Layer 1
10
93.166200
20
21.751519
11
93.553447
21
21.917324
0
LINE
8
Layer 1
10
93.553447
20
21.917324
11
93.971779
21
22.086269
0
LINE
8
Layer 1
10
93.971779
20
22.086269
11
94.390498
21
22.483954
0
LINE
8
Layer 1
10
94.390498
20
22.483954
11
94.675660
21
22.946656
0
LINE
8
Layer 1
10
94.675660
20
22.946656
11
94.693325
21
23.310652
0
LINE
8
Layer 1
10
94.693325
20
23.310652
11
94.286884
21
23.533150
0
LINE
8
Layer 1
10
94.286884
20
23.533150
11
93.568597
21
23.599886
0
LINE
8
Layer 1
10
93.568597
20
23.599886
11
92.731566
21
23.513322
0
LINE
8
Layer 1
10
92.731566
20
23.513322
11
91.968893
21
23.275919
0
LINE
8
Layer 1
10
91.968893
20
23.275919
11
91.461673
21
22.910582
0
LINE
8
Layer 1
10
91.461673
20
22.910582
11
91.020138
21
22.369785
0
LINE
8
Layer 1
10
91.020138
20
22.369785
11
90.708286
21
21.751952
0
LINE
8
Layer 1
10
90.708286
20
21.751952
11
90.590113
21
21.155505
0
LINE
8
Layer 1
10
90.590113
20
21.155505
11
90.840328
21
20.852996
0
LINE
8
Layer 1
10
90.840328
20
20.852996
11
91.433740
21
20.799717
0
LINE
8
Layer 1
10
91.433740
20
20.799717
11
92.134506
21
20.973676
0
LINE
8
Layer 1
10
92.134506
20
20.973676
11
92.706780
21
21.352880
0
LINE
8
Layer 1
10
92.706780
20
21.352880
11
92.706780
21
21.352880
0
LINE
8
Layer 1
10
176.950116
20
18.191991
11
176.850633
21
18.849569
0
LINE
8
Layer 1
10
176.850633
20
18.849569
11
176.611449
21
19.320880
0
LINE
8
Layer 1
10
176.611449
20
19.320880
11
176.413894
21
19.659546
0
LINE
8
Layer 1
10
176.413894
20
19.659546
11
176.611449
21
19.998213
0
LINE
8
Layer 1
10
176.611449
20
19.998213
11
176.899765
21
20.387098
0
LINE
8
Layer 1
10
176.899765
20
20.387098
11
176.972214
21
20.748328
0
LINE
8
Layer 1
10
176.972214
20
20.748328
11
176.840724
21
21.074446
0
LINE
8
Layer 1
10
176.840724
20
21.074446
11
176.517227
21
21.357994
0
LINE
8
Layer 1
10
176.517227
20
21.357994
11
175.341924
21
21.767548
0
LINE
8
Layer 1
10
175.341924
20
21.767548
11
173.541741
21
21.917324
0
LINE
8
Layer 1
10
173.541741
20
21.917324
11
172.012597
21
22.017316
0
LINE
8
Layer 1
10
172.012597
20
22.017316
11
171.300383
21
22.347030
0
LINE
8
Layer 1
10
171.300383
20
22.347030
11
170.901537
21
22.604400
0
LINE
8
Layer 1
10
170.901537
20
22.604400
11
170.442910
21
22.617771
0
LINE
8
Layer 1
10
170.442910
20
22.617771
11
170.035866
21
22.591784
0
LINE
8
Layer 1
10
170.035866
20
22.591784
11
169.760544
21
22.752510
0
LINE
8
Layer 1
10
169.760544
20
22.752510
11
169.434875
21
22.959938
0
LINE
8
Layer 1
10
169.434875
20
22.959938
11
168.906783
21
23.046213
0
LINE
8
Layer 1
10
168.906783
20
23.046213
11
168.380774
21
23.129116
0
LINE
8
Layer 1
10
168.380774
20
23.129116
11
168.060116
21
23.328435
0
LINE
8
Layer 1
10
168.060116
20
23.328435
11
167.553378
21
23.527755
0
LINE
8
Layer 1
10
167.553378
20
23.527755
11
166.579982
21
23.610657
0
LINE
8
Layer 1
10
166.579982
20
23.610657
11
165.586754
21
23.473901
0
LINE
8
Layer 1
10
165.586754
20
23.473901
11
164.753557
21
23.106642
0
LINE
8
Layer 1
10
164.753557
20
23.106642
11
164.181102
21
22.573398
0
LINE
8
Layer 1
10
164.181102
20
22.573398
11
163.970095
21
21.938686
0
LINE
8
Layer 1
10
163.970095
20
21.938686
11
164.164120
21
21.578145
0
LINE
8
Layer 1
10
164.164120
20
21.578145
11
164.640490
21
21.202837
0
LINE
8
Layer 1
10
164.640490
20
21.202837
11
165.245724
21
20.907890
0
LINE
8
Layer 1
10
165.245724
20
20.907890
11
165.826344
21
20.788435
0
LINE
8
Layer 1
10
165.826344
20
20.788435
11
166.969522
21
20.368743
0
LINE
8
Layer 1
10
166.969522
20
20.368743
11
167.678537
21
20.116088
0
LINE
8
Layer 1
10
167.678537
20
20.116088
11
168.248031
21
20.097998
0
LINE
8
Layer 1
10
168.248031
20
20.097998
11
168.633387
21
20.116923
0
LINE
8
Layer 1
10
168.633387
20
20.116923
11
168.899688
21
19.953249
0
LINE
8
Layer 1
10
168.899688
20
19.953249
11
169.238011
21
19.745821
0
LINE
8
Layer 1
10
169.238011
20
19.745821
11
169.796528
21
19.659546
0
LINE
8
Layer 1
10
169.796528
20
19.659546
11
170.370244
21
19.518758
0
LINE
8
Layer 1
10
170.370244
20
19.518758
11
170.659453
21
19.095102
0
LINE
8
Layer 1
10
170.659453
20
19.095102
11
170.976477
21
18.655719
0
LINE
8
Layer 1
10
170.976477
20
18.655719
11
171.691365
21
18.510030
0
LINE
8
Layer 1
10
171.691365
20
18.510030
11
172.564614
21
18.341775
0
LINE
8
Layer 1
10
172.564614
20
18.341775
11
173.422338
21
17.966213
0
LINE
8
Layer 1
10
173.422338
20
17.966213
11
174.408159
21
17.584621
0
LINE
8
Layer 1
10
174.408159
20
17.584621
11
175.609560
21
17.422396
0
LINE
8
Layer 1
10
175.609560
20
17.422396
11
176.761710
21
17.515727
0
LINE
8
Layer 1
10
176.761710
20
17.515727
11
176.921356
21
17.749407
0
LINE
8
Layer 1
10
176.921356
20
17.749407
11
176.950116
21
18.191991
0
LINE
8
Layer 1
10
176.950116
20
18.191991
11
176.950116
21
18.191991
0
LINE
8
Layer 1
10
225.116043
20
27.185473
11
224.934727
21
27.546924
0
LINE
8
Layer 1
10
224.934727
20
27.546924
11
224.987304
21
28.006417
0
LINE
8
Layer 1
10
224.987304
20
28.006417
11
225.263147
21
28.532075
0
LINE
8
Layer 1
10
225.263147
20
28.532075
11
225.751627
21
29.092020
0
LINE
8
Layer 1
10
225.751627
20
29.092020
11
226.371391
21
29.573430
0
LINE
8
Layer 1
10
226.371391
20
29.573430
11
226.820378
21
29.670635
0
LINE
8
Layer 1
10
226.820378
20
29.670635
11
227.093500
21
29.384963
0
LINE
8
Layer 1
10
227.093500
20
29.384963
11
227.185672
21
28.717742
0
LINE
8
Layer 1
10
227.185672
20
28.717742
11
226.956285
21
27.893589
0
LINE
8
Layer 1
10
226.956285
20
27.893589
11
226.401504
21
27.264743
0
LINE
8
Layer 1
10
226.401504
20
27.264743
11
225.721400
21
26.979330
0
LINE
8
Layer 1
10
225.721400
20
26.979330
11
225.396874
21
27.011699
0
LINE
8
Layer 1
10
225.396874
20
27.011699
11
225.116043
21
27.185473
0
LINE
8
Layer 1
10
225.116043
20
27.185473
11
225.116043
21
27.185473
0
LINE
8
Layer 1
10
216.926702
20
24.692980
11
216.600002
21
25.271075
0
LINE
8
Layer 1
10
216.600002
20
25.271075
11
216.911490
21
26.119844
0
LINE
8
Layer 1
10
216.911490
20
26.119844
11
217.443444
21
26.849337
0
LINE
8
Layer 1
10
217.443444
20
26.849337
11
218.253646
21
26.942522
0
LINE
8
Layer 1
10
218.253646
20
26.942522
11
218.993147
21
26.722415
0
LINE
8
Layer 1
10
218.993147
20
26.722415
11
219.234049
21
26.055145
0
LINE
8
Layer 1
10
219.234049
20
26.055145
11
219.170177
21
25.383555
0
LINE
8
Layer 1
10
219.170177
20
25.383555
11
218.873348
21
24.779272
0
LINE
8
Layer 1
10
218.873348
20
24.779272
11
218.416442
21
24.342914
0
LINE
8
Layer 1
10
218.416442
20
24.342914
11
217.872338
21
24.175102
0
LINE
8
Layer 1
10
217.872338
20
24.175102
11
217.397811
21
24.327229
0
LINE
8
Layer 1
10
217.397811
20
24.327229
11
216.926702
21
24.692980
0
LINE
8
Layer 1
10
216.926702
20
24.692980
11
216.926702
21
24.692980
0
LINE
8
Layer 1
10
204.231598
20
23.234362
11
204.055936
21
23.671838
0
LINE
8
Layer 1
10
204.055936
20
23.671838
11
204.054751
21
24.293206
0
LINE
8
Layer 1
10
204.054751
20
24.293206
11
204.201357
21
24.877264
0
LINE
8
Layer 1
10
204.201357
20
24.877264
11
204.469069
21
25.202809
0
LINE
8
Layer 1
10
204.469069
20
25.202809
11
205.037962
21
25.173438
0
LINE
8
Layer 1
10
205.037962
20
25.173438
11
205.840192
21
24.908750
0
LINE
8
Layer 1
10
205.840192
20
24.908750
11
206.556010
21
24.541790
0
LINE
8
Layer 1
10
206.556010
20
24.541790
11
206.865672
21
24.205602
0
LINE
8
Layer 1
10
206.865672
20
24.205602
11
206.533076
21
23.650567
0
LINE
8
Layer 1
10
206.533076
20
23.650567
11
205.759244
21
23.221105
0
LINE
8
Layer 1
10
205.759244
20
23.221105
11
204.880108
21
23.041082
0
LINE
8
Layer 1
10
204.880108
20
23.041082
11
204.231598
21
23.234362
0
LINE
8
Layer 1
10
204.231598
20
23.234362
11
204.231598
21
23.234362
0
LINE
8
Layer 1
10
209.277901
20
18.188057
11
209.091970
21
18.653364
0
LINE
8
Layer 1
10
209.091970
20
18.653364
11
209.168763
21
19.304028
0
LINE
8
Layer 1
10
209.168763
20
19.304028
11
209.471963
21
20.010359
0
LINE
8
Layer 1
10
209.471963
20
20.010359
11
209.965253
21
20.642665
0
LINE
8
Layer 1
10
209.965253
20
20.642665
11
210.770398
21
21.271357
0
LINE
8
Layer 1
10
210.770398
20
21.271357
11
211.037174
21
21.210802
0
LINE
8
Layer 1
10
211.037174
20
21.210802
11
211.376364
21
20.933946
0
LINE
8
Layer 1
10
211.376364
20
20.933946
11
211.764258
21
20.509742
0
LINE
8
Layer 1
10
211.764258
20
20.509742
11
211.914230
21
20.095857
0
LINE
8
Layer 1
10
211.914230
20
20.095857
11
211.833448
21
19.597800
0
LINE
8
Layer 1
10
211.833448
20
19.597800
11
211.529081
21
18.921084
0
LINE
8
Layer 1
10
211.529081
20
18.921084
11
211.016894
21
18.289829
0
LINE
8
Layer 1
10
211.016894
20
18.289829
11
210.272421
21
18.075854
0
LINE
8
Layer 1
10
210.272421
20
18.075854
11
209.277901
21
18.188057
0
LINE
8
Layer 1
10
209.277901
20
18.188057
11
209.277901
21
18.188057
0
LINE
8
Layer 1
10
204.191156
20
11.485773
11
207.704878
21
11.722913
0
LINE
8
Layer 1
10
207.704878
20
11.722913
11
211.233865
21
11.774158
0
LINE
8
Layer 1
10
211.233865
20
11.774158
11
218.295815
21
11.661882
0
LINE
8
Layer 1
10
218.295815
20
11.661882
11
221.399588
21
11.451767
0
LINE
8
Layer 1
10
221.399588
20
11.451767
11
222.899715
21
11.494860
0
LINE
8
Layer 1
10
222.899715
20
11.494860
11
224.449242
21
11.736067
0
LINE
8
Layer 1
10
224.449242
20
11.736067
11
227.996451
21
11.840145
0
LINE
8
Layer 1
10
227.996451
20
11.840145
11
229.738802
21
12.085466
0
LINE
8
Layer 1
10
229.738802
20
12.085466
11
231.455745
21
12.487571
0
LINE
8
Layer 1
10
231.455745
20
12.487571
11
233.241430
21
13.110164
0
LINE
8
Layer 1
10
233.241430
20
13.110164
11
235.015467
21
13.625165
0
LINE
8
Layer 1
10
235.015467
20
13.625165
11
236.685462
21
14.314439
0
LINE
8
Layer 1
10
236.685462
20
14.314439
11
237.452572
21
14.812509
0
LINE
8
Layer 1
10
237.452572
20
14.812509
11
238.159025
21
15.459845
0
LINE
8
Layer 1
10
238.159025
20
15.459845
11
241.382488
21
17.291511
0
LINE
8
Layer 1
10
241.382488
20
17.291511
11
242.774101
21
18.421725
0
LINE
8
Layer 1
10
242.774101
20
18.421725
11
243.271263
21
19.104804
0
LINE
8
Layer 1
10
243.271263
20
19.104804
11
243.581284
21
19.891056
0
LINE
8
Layer 1
10
243.581284
20
19.891056
11
243.890157
21
21.186556
0
LINE
8
Layer 1
10
243.890157
20
21.186556
11
243.737217
21
22.572853
0
LINE
8
Layer 1
10
243.737217
20
22.572853
11
243.299772
21
23.966799
0
LINE
8
Layer 1
10
243.299772
20
23.966799
11
242.755126
21
25.285243
0
LINE
8
Layer 1
10
242.755126
20
25.285243
11
242.081958
21
25.775671
0
LINE
8
Layer 1
10
242.081958
20
25.775671
11
241.524125
21
26.346542
0
LINE
8
Layer 1
10
241.524125
20
26.346542
11
240.602703
21
27.621804
0
LINE
8
Layer 1
10
240.602703
20
27.621804
11
239.687352
21
28.895425
0
LINE
8
Layer 1
10
239.687352
20
28.895425
11
239.137106
21
29.464244
0
LINE
8
Layer 1
10
239.137106
20
29.464244
11
238.474560
21
29.951801
0
LINE
8
Layer 1
10
238.474560
20
29.951801
11
237.589301
21
30.878169
0
LINE
8
Layer 1
10
237.589301
20
30.878169
11
236.533639
21
31.707687
0
LINE
8
Layer 1
10
236.533639
20
31.707687
11
235.446461
21
32.525890
0
LINE
8
Layer 1
10
235.446461
20
32.525890
11
234.466649
21
33.418309
0
LINE
8
Layer 1
10
234.466649
20
33.418309
11
233.342061
21
34.072189
0
LINE
8
Layer 1
10
233.342061
20
34.072189
11
232.124781
21
34.585238
0
LINE
8
Layer 1
10
232.124781
20
34.585238
11
230.968873
21
35.161142
0
LINE
8
Layer 1
10
230.968873
20
35.161142
11
230.028403
21
36.003588
0
LINE
8
Layer 1
10
230.028403
20
36.003588
11
229.166321
21
36.086497
0
LINE
8
Layer 1
10
229.166321
20
36.086497
11
228.351999
21
36.301989
0
LINE
8
Layer 1
10
228.351999
20
36.301989
11
226.811538
21
36.981223
0
LINE
8
Layer 1
10
226.811538
20
36.981223
11
225.296830
21
37.742296
0
LINE
8
Layer 1
10
225.296830
20
37.742296
11
223.697681
21
38.286213
0
LINE
8
Layer 1
10
223.697681
20
38.286213
11
221.997261
21
38.711438
0
LINE
8
Layer 1
10
221.997261
20
38.711438
11
220.260865
21
39.005842
0
LINE
8
Layer 1
10
220.260865
20
39.005842
11
218.530763
21
39.337935
0
LINE
8
Layer 1
10
218.530763
20
39.337935
11
216.849221
21
39.876230
0
LINE
8
Layer 1
10
216.849221
20
39.876230
11
213.364517
21
39.991534
0
LINE
8
Layer 1
10
213.364517
20
39.991534
11
211.639655
21
40.125567
0
LINE
8
Layer 1
10
211.639655
20
40.125567
11
209.970116
21
40.543991
0
LINE
8
Layer 1
10
209.970116
20
40.543991
11
208.320395
21
40.115119
0
LINE
8
Layer 1
10
208.320395
20
40.115119
11
206.698781
21
39.553846
0
LINE
8
Layer 1
10
206.698781
20
39.553846
11
203.463536
21
38.346188
0
LINE
8
Layer 1
10
203.463536
20
38.346188
11
200.089796
21
37.780192
0
LINE
8
Layer 1
10
200.089796
20
37.780192
11
198.420305
21
37.416870
0
LINE
8
Layer 1
10
198.420305
20
37.416870
11
196.825314
21
36.758685
0
LINE
8
Layer 1
10
196.825314
20
36.758685
11
193.445672
21
35.847570
0
LINE
8
Layer 1
10
193.445672
20
35.847570
11
190.072806
21
34.816644
0
LINE
8
Layer 1
10
190.072806
20
34.816644
11
188.629066
21
34.253755
0
LINE
8
Layer 1
10
188.629066
20
34.253755
11
187.342054
21
33.476236
0
LINE
8
Layer 1
10
187.342054
20
33.476236
11
186.158806
21
32.526971
0
LINE
8
Layer 1
10
186.158806
20
32.526971
11
185.026359
21
31.448843
0
LINE
8
Layer 1
10
185.026359
20
31.448843
11
184.065842
21
30.225279
0
LINE
8
Layer 1
10
184.065842
20
30.225279
11
182.993026
21
29.032464
0
LINE
8
Layer 1
10
182.993026
20
29.032464
11
182.016321
21
27.790496
0
LINE
8
Layer 1
10
182.016321
20
27.790496
11
181.344135
21
26.419471
0
LINE
8
Layer 1
10
181.344135
20
26.419471
11
180.874099
21
24.565353
0
LINE
8
Layer 1
10
180.874099
20
24.565353
11
180.231654
21
22.701141
0
LINE
8
Layer 1
10
180.231654
20
22.701141
11
179.884975
21
20.839720
0
LINE
8
Layer 1
10
179.884975
20
20.839720
11
179.968853
21
19.914083
0
LINE
8
Layer 1
10
179.968853
20
19.914083
11
180.302239
21
18.993976
0
LINE
8
Layer 1
10
180.302239
20
18.993976
11
181.304981
21
18.077183
0
LINE
8
Layer 1
10
181.304981
20
18.077183
11
182.222574
21
17.105383
0
LINE
8
Layer 1
10
182.222574
20
17.105383
11
183.188768
21
16.171670
0
LINE
8
Layer 1
10
183.188768
20
16.171670
11
184.337311
21
15.369134
0
LINE
8
Layer 1
10
184.337311
20
15.369134
11
187.897941
21
13.403542
0
LINE
8
Layer 1
10
187.897941
20
13.403542
11
189.771973
21
12.656956
0
LINE
8
Layer 1
10
189.771973
20
12.656956
11
191.777668
21
12.299498
0
LINE
8
Layer 1
10
191.777668
20
12.299498
11
195.150887
21
11.521169
0
LINE
8
Layer 1
10
195.150887
20
11.521169
11
198.628912
21
11.199046
0
LINE
8
Layer 1
10
198.628912
20
11.199046
11
201.424093
21
11.200787
0
LINE
8
Layer 1
10
201.424093
20
11.200787
11
202.818119
21
11.272881
0
LINE
8
Layer 1
10
202.818119
20
11.272881
11
204.191156
21
11.485773
0
LINE
8
Layer 1
10
204.191156
20
11.485773
11
204.191156
21
11.485773
0
LINE
8
Layer 1
10
264.650728
20
10.828136
11
264.844817
21
11.468536
0
LINE
8
Layer 1
10
264.844817
20
11.468536
11
264.721284
21
11.870157
0
LINE
8
Layer 1
10
264.721284
20
11.870157
11
264.521924
21
12.385672
0
LINE
8
Layer 1
10
264.521924
20
12.385672
11
264.439005
21
13.228709
0
LINE
8
Layer 1
10
264.439005
20
13.228709
11
264.336160
21
14.153508
0
LINE
8
Layer 1
10
264.336160
20
14.153508
11
264.088894
21
14.865598
0
LINE
8
Layer 1
10
264.088894
20
14.865598
11
263.882867
21
15.433603
0
LINE
8
Layer 1
10
263.882867
20
15.433603
11
264.112065
21
16.023931
0
LINE
8
Layer 1
10
264.112065
20
16.023931
11
264.328549
21
16.554113
0
LINE
8
Layer 1
10
264.328549
20
16.554113
11
264.179950
21
16.927043
0
LINE
8
Layer 1
10
264.179950
20
16.927043
11
263.964270
21
17.416305
0
LINE
8
Layer 1
10
263.964270
20
17.416305
11
263.874560
21
18.163769
0
LINE
8
Layer 1
10
263.874560
20
18.163769
11
263.771870
21
18.869631
0
LINE
8
Layer 1
10
263.771870
20
18.869631
11
263.450389
21
19.095102
0
LINE
8
Layer 1
10
263.450389
20
19.095102
11
263.013137
21
19.412898
0
LINE
8
Layer 1
10
263.013137
20
19.412898
11
262.557520
21
20.176961
0
LINE
8
Layer 1
10
262.557520
20
20.176961
11
262.055016
21
21.017017
0
LINE
8
Layer 1
10
262.055016
20
21.017017
11
261.505037
21
21.517517
0
LINE
8
Layer 1
10
261.505037
20
21.517517
11
260.998080
21
21.892039
0
LINE
8
Layer 1
10
260.998080
20
21.892039
11
260.599016
21
22.429210
0
LINE
8
Layer 1
10
260.599016
20
22.429210
11
259.535673
21
23.855765
0
LINE
8
Layer 1
10
259.535673
20
23.855765
11
258.794560
21
24.877911
0
LINE
8
Layer 1
10
258.794560
20
24.877911
11
258.602626
21
25.286003
0
LINE
8
Layer 1
10
258.602626
20
25.286003
11
258.150388
21
25.802176
0
LINE
8
Layer 1
10
258.150388
20
25.802176
11
257.623191
21
26.244959
0
LINE
8
Layer 1
10
257.623191
20
26.244959
11
257.206383
21
26.432880
0
LINE
8
Layer 1
10
257.206383
20
26.432880
11
256.871963
21
26.666927
0
LINE
8
Layer 1
10
256.871963
20
26.666927
11
256.485124
21
27.256322
0
LINE
8
Layer 1
10
256.485124
20
27.256322
11
255.918456
21
28.824679
0
LINE
8
Layer 1
10
255.918456
20
28.824679
11
255.646797
21
29.320809
0
LINE
8
Layer 1
10
255.646797
20
29.320809
11
255.123171
21
29.730962
0
LINE
8
Layer 1
10
255.123171
20
29.730962
11
254.579106
21
30.197420
0
LINE
8
Layer 1
10
254.579106
20
30.197420
11
254.279005
21
30.844230
0
LINE
8
Layer 1
10
254.279005
20
30.844230
11
253.948354
21
31.527639
0
LINE
8
Layer 1
10
253.948354
20
31.527639
11
253.291227
21
32.071643
0
LINE
8
Layer 1
10
253.291227
20
32.071643
11
252.618690
21
32.563361
0
LINE
8
Layer 1
10
252.618690
20
32.563361
11
252.190676
21
33.095308
0
LINE
8
Layer 1
10
252.190676
20
33.095308
11
251.801843
21
33.590111
0
LINE
8
Layer 1
10
251.801843
20
33.590111
11
251.223512
21
33.992521
0
LINE
8
Layer 1
10
251.223512
20
33.992521
11
250.510229
21
34.329136
0
LINE
8
Layer 1
10
250.510229
20
34.329136
11
251.195174
21
33.556008
0
LINE
8
Layer 1
10
251.195174
20
33.556008
11
252.266866
21
32.048329
0
LINE
8
Layer 1
10
252.266866
20
32.048329
11
252.509572
21
31.371558
0
LINE
8
Layer 1
10
252.509572
20
31.371558
11
252.585672
21
30.686700
0
LINE
8
Layer 1
10
252.585672
20
30.686700
11
252.668574
21
30.046562
0
LINE
8
Layer 1
10
252.668574
20
30.046562
11
252.867894
21
29.678435
0
LINE
8
Layer 1
10
252.867894
20
29.678435
11
253.067213
21
29.203659
0
LINE
8
Layer 1
10
253.067213
20
29.203659
11
253.150116
21
28.307112
0
LINE
8
Layer 1
10
253.150116
20
28.307112
11
253.225999
21
27.383044
0
LINE
8
Layer 1
10
253.225999
20
27.383044
11
253.408440
21
26.842102
0
LINE
8
Layer 1
10
253.408440
20
26.842102
11
253.761217
21
25.875835
0
LINE
8
Layer 1
10
253.761217
20
25.875835
11
253.898704
21
25.490208
0
LINE
8
Layer 1
10
253.898704
20
25.490208
11
254.244993
21
25.115114
0
LINE
8
Layer 1
10
254.244993
20
25.115114
11
255.831227
21
24.177219
0
LINE
8
Layer 1
10
255.831227
20
24.177219
11
257.312231
21
23.289373
0
LINE
8
Layer 1
10
257.312231
20
23.289373
11
258.077894
21
22.564415
0
LINE
8
Layer 1
10
258.077894
20
22.564415
11
258.417708
21
22.093150
0
LINE
8
Layer 1
10
258.417708
20
22.093150
11
258.854005
21
21.820005
0
LINE
8
Layer 1
10
258.854005
20
21.820005
11
259.223141
21
21.538312
0
LINE
8
Layer 1
10
259.223141
20
21.538312
11
259.359005
21
20.999710
0
LINE
8
Layer 1
10
259.359005
20
20.999710
11
259.527838
21
20.360850
0
LINE
8
Layer 1
10
259.527838
20
20.360850
11
259.933756
21
19.791330
0
LINE
8
Layer 1
10
259.933756
20
19.791330
11
260.239690
21
19.423522
0
LINE
8
Layer 1
10
260.239690
20
19.423522
11
260.406746
21
18.868785
0
LINE
8
Layer 1
10
260.406746
20
18.868785
11
260.460987
21
16.290366
0
LINE
8
Layer 1
10
260.460987
20
16.290366
11
260.366579
21
14.102259
0
LINE
8
Layer 1
10
260.366579
20
14.102259
11
260.206329
21
13.027324
0
LINE
8
Layer 1
10
260.206329
20
13.027324
11
259.859348
21
11.968991
0
LINE
8
Layer 1
10
259.859348
20
11.968991
11
259.805450
21
11.528559
0
LINE
8
Layer 1
10
259.805450
20
11.528559
11
259.916893
21
11.297233
0
LINE
8
Layer 1
10
259.916893
20
11.297233
11
261.047732
21
11.192880
0
LINE
8
Layer 1
10
261.047732
20
11.192880
11
262.191073
21
11.065207
0
LINE
8
Layer 1
10
262.191073
20
11.065207
11
262.886783
21
10.628435
0
LINE
8
Layer 1
10
262.886783
20
10.628435
11
263.399731
21
10.205217
0
LINE
8
Layer 1
10
263.399731
20
10.205217
11
263.874863
21
10.098577
0
LINE
8
Layer 1
10
263.874863
20
10.098577
11
264.296941
21
10.306792
0
LINE
8
Layer 1
10
264.296941
20
10.306792
11
264.650728
21
10.828136
0
LINE
8
Layer 1
10
264.650728
20
10.828136
11
264.650728
21
10.828136
0
LINE
8
Layer 1
10
99.890027
20
8.213375
11
100.923635
21
8.900863
0
LINE
8
Layer 1
10
100.923635
20
8.900863
11
102.818539
21
9.900408
0
LINE
8
Layer 1
10
102.818539
20
9.900408
11
104.748225
21
10.801312
0
LINE
8
Layer 1
10
104.748225
20
10.801312
11
105.886179
21
11.192880
0
LINE
8
Layer 1
10
105.886179
20
11.192880
11
106.272932
21
11.275782
0
LINE
8
Layer 1
10
106.272932
20
11.275782
11
106.535669
21
11.475102
0
LINE
8
Layer 1
10
106.535669
20
11.475102
11
106.929671
21
11.674421
0
LINE
8
Layer 1
10
106.929671
20
11.674421
11
107.632017
21
11.757324
0
LINE
8
Layer 1
10
107.632017
20
11.757324
11
108.491538
21
11.933685
0
LINE
8
Layer 1
10
108.491538
20
11.933685
11
109.223624
21
12.470167
0
LINE
8
Layer 1
10
109.223624
20
12.470167
11
109.933601
21
13.097025
0
LINE
8
Layer 1
10
109.933601
20
13.097025
11
110.732125
21
13.585268
0
LINE
8
Layer 1
10
110.732125
20
13.585268
11
111.553410
21
13.902193
0
LINE
8
Layer 1
10
111.553410
20
13.902193
11
112.331672
21
14.015102
0
LINE
8
Layer 1
10
112.331672
20
14.015102
11
112.943033
21
14.146845
0
LINE
8
Layer 1
10
112.943033
20
14.146845
11
113.276270
21
14.508991
0
LINE
8
Layer 1
10
113.276270
20
14.508991
11
113.614928
21
15.355657
0
LINE
8
Layer 1
10
113.614928
20
15.355657
11
113.552840
21
15.619873
0
LINE
8
Layer 1
10
113.552840
20
15.619873
11
113.041444
21
15.708435
0
LINE
8
Layer 1
10
113.041444
20
15.708435
11
112.476075
21
15.823628
0
LINE
8
Layer 1
10
112.476075
20
15.823628
11
112.153031
21
16.100580
0
LINE
8
Layer 1
10
112.153031
20
16.100580
11
111.883762
21
16.361172
0
LINE
8
Layer 1
10
111.883762
20
16.361172
11
111.430945
21
16.319245
0
LINE
8
Layer 1
10
111.430945
20
16.319245
11
110.845947
21
15.993019
0
LINE
8
Layer 1
10
110.845947
20
15.993019
11
110.180131
21
15.400717
0
LINE
8
Layer 1
10
110.180131
20
15.400717
11
109.442424
21
14.820766
0
LINE
8
Layer 1
10
109.442424
20
14.820766
11
108.773561
21
14.579546
0
LINE
8
Layer 1
10
108.773561
20
14.579546
11
108.280563
21
14.427939
0
LINE
8
Layer 1
10
108.280563
20
14.427939
11
108.006117
21
14.015102
0
LINE
8
Layer 1
10
108.006117
20
14.015102
11
107.745706
21
13.615188
0
LINE
8
Layer 1
10
107.745706
20
13.615188
11
107.323910
21
13.450657
0
LINE
8
Layer 1
10
107.323910
20
13.450657
11
106.653630
21
13.339763
0
LINE
8
Layer 1
10
106.653630
20
13.339763
11
105.984235
21
13.054994
0
LINE
8
Layer 1
10
105.984235
20
13.054994
11
105.445068
21
12.668218
0
LINE
8
Layer 1
10
105.445068
20
12.668218
11
105.165469
21
12.251306
0
LINE
8
Layer 1
10
105.165469
20
12.251306
11
104.903191
21
11.902432
0
LINE
8
Layer 1
10
104.903191
20
11.902432
11
104.454009
21
11.757324
0
LINE
8
Layer 1
10
104.454009
20
11.757324
11
103.747568
21
11.591519
0
LINE
8
Layer 1
10
103.747568
20
11.591519
11
102.866780
21
11.192880
0
LINE
8
Layer 1
10
102.866780
20
11.192880
11
101.923699
21
10.794241
0
LINE
8
Layer 1
10
101.923699
20
10.794241
11
101.067492
21
10.628435
0
LINE
8
Layer 1
10
101.067492
20
10.628435
11
100.356436
21
10.462630
0
LINE
8
Layer 1
10
100.356436
20
10.462630
11
99.762335
21
10.063991
0
LINE
8
Layer 1
10
99.762335
20
10.063991
11
99.207164
21
9.665352
0
LINE
8
Layer 1
10
99.207164
20
9.665352
11
98.589705
21
9.499546
0
LINE
8
Layer 1
10
98.589705
20
9.499546
11
98.053598
21
9.338728
0
LINE
8
Layer 1
10
98.053598
20
9.338728
11
97.927891
21
8.652880
0
LINE
8
Layer 1
10
97.927891
20
8.652880
11
98.066123
21
7.950326
0
LINE
8
Layer 1
10
98.066123
20
7.950326
11
98.740002
21
7.806213
0
LINE
8
Layer 1
10
98.740002
20
7.806213
11
99.412816
21
7.925817
0
LINE
8
Layer 1
10
99.412816
20
7.925817
11
99.890027
21
8.213375
0
LINE
8
Layer 1
10
99.890027
20
8.213375
11
99.890027
21
8.213375
0
LINE
8
Layer 1
10
41.876272
20
6.183435
11
41.983826
21
6.763150
0
LINE
8
Layer 1
10
41.983826
20
6.763150
11
41.747763
21
7.226649
0
LINE
8
Layer 1
10
41.747763
20
7.226649
11
41.264492
21
7.574492
0
LINE
8
Layer 1
10
41.264492
20
7.574492
11
40.630423
21
7.807238
0
LINE
8
Layer 1
10
40.630423
20
7.807238
11
39.295523
21
7.929673
0
LINE
8
Layer 1
10
39.295523
20
7.929673
11
38.787511
21
7.820482
0
LINE
8
Layer 1
10
38.787511
20
7.820482
11
38.514336
21
7.598430
0
LINE
8
Layer 1
10
38.514336
20
7.598430
11
38.609907
21
6.448333
0
LINE
8
Layer 1
10
38.609907
20
6.448333
11
38.675211
21
5.888784
0
LINE
8
Layer 1
10
38.675211
20
5.888784
11
38.912210
21
5.532289
0
LINE
8
Layer 1
10
38.912210
20
5.532289
11
40.482341
21
5.617633
0
LINE
8
Layer 1
10
40.482341
20
5.617633
11
41.235156
21
5.773446
0
LINE
8
Layer 1
10
41.235156
20
5.773446
11
41.876272
21
6.183435
0
LINE
8
Layer 1
10
41.876272
20
6.183435
11
41.876272
21
6.183435
0
LINE
8
Layer 1
10
19.752338
20
5.971769
11
19.903166
21
6.481521
0
LINE
8
Layer 1
10
19.903166
20
6.481521
11
19.734115
21
7.009995
0
LINE
8
Layer 1
10
19.734115
20
7.009995
11
19.514991
21
7.562529
0
LINE
8
Layer 1
10
19.514991
20
7.562529
11
19.515603
21
8.144462
0
LINE
8
Layer 1
10
19.515603
20
8.144462
11
19.539609
21
9.451764
0
LINE
8
Layer 1
10
19.539609
20
9.451764
11
19.659264
21
10.070443
0
LINE
8
Layer 1
10
19.659264
20
10.070443
11
20.057947
21
10.521973
0
LINE
8
Layer 1
10
20.057947
20
10.521973
11
20.895830
21
10.534573
0
LINE
8
Layer 1
10
20.895830
20
10.534573
11
21.660292
21
10.207004
0
LINE
8
Layer 1
10
21.660292
20
10.207004
11
22.327974
21
9.663568
0
LINE
8
Layer 1
10
22.327974
20
9.663568
11
22.875512
21
9.028568
0
LINE
8
Layer 1
10
22.875512
20
9.028568
11
23.225374
21
8.493333
0
LINE
8
Layer 1
10
23.225374
20
8.493333
11
23.355766
21
7.873048
0
LINE
8
Layer 1
10
23.355766
20
7.873048
11
23.454027
21
7.252961
0
LINE
8
Layer 1
10
23.454027
20
7.252961
11
23.707495
21
6.718323
0
LINE
8
Layer 1
10
23.707495
20
6.718323
11
24.287589
21
6.760596
0
LINE
8
Layer 1
10
24.287589
20
6.760596
11
24.544259
21
7.204588
0
LINE
8
Layer 1
10
24.544259
20
7.204588
11
24.613748
21
8.404950
0
LINE
8
Layer 1
10
24.613748
20
8.404950
11
24.590170
21
9.021405
0
LINE
8
Layer 1
10
24.590170
20
9.021405
11
24.713270
21
9.617089
0
LINE
8
Layer 1
10
24.713270
20
9.617089
11
25.013872
21
10.127204
0
LINE
8
Layer 1
10
25.013872
20
10.127204
11
25.522799
21
10.486952
0
LINE
8
Layer 1
10
25.522799
20
10.486952
11
26.107113
21
10.379989
0
LINE
8
Layer 1
10
26.107113
20
10.379989
11
26.653690
21
10.104240
0
LINE
8
Layer 1
10
26.653690
20
10.104240
11
27.604219
21
9.319765
0
LINE
8
Layer 1
10
27.604219
20
9.319765
11
27.887951
21
8.710022
0
LINE
8
Layer 1
10
27.887951
20
8.710022
11
27.950740
21
7.951349
0
LINE
8
Layer 1
10
27.950740
20
7.951349
11
28.108012
21
7.312398
0
LINE
8
Layer 1
10
28.108012
20
7.312398
11
28.320650
21
7.121772
0
LINE
8
Layer 1
10
28.320650
20
7.121772
11
28.675195
21
7.061821
0
LINE
8
Layer 1
10
28.675195
20
7.061821
11
28.885953
21
7.261668
0
LINE
8
Layer 1
10
28.885953
20
7.261668
11
28.948038
21
7.486825
0
LINE
8
Layer 1
10
28.948038
20
7.486825
11
28.818137
21
7.990386
0
LINE
8
Layer 1
10
28.818137
20
7.990386
11
28.669392
21
8.527135
0
LINE
8
Layer 1
10
28.669392
20
8.527135
11
28.885701
21
9.051702
0
LINE
8
Layer 1
10
28.885701
20
9.051702
11
29.087601
21
9.529626
0
LINE
8
Layer 1
10
29.087601
20
9.529626
11
29.403807
21
9.877017
0
LINE
8
Layer 1
10
29.403807
20
9.877017
11
29.806770
21
9.976628
0
LINE
8
Layer 1
10
29.806770
20
9.976628
11
30.268940
21
9.711213
0
LINE
8
Layer 1
10
30.268940
20
9.711213
11
31.375471
21
8.961853
0
LINE
8
Layer 1
10
31.375471
20
8.961853
11
31.768531
21
8.449066
0
LINE
8
Layer 1
10
31.768531
20
8.449066
11
31.894185
21
7.801511
0
LINE
8
Layer 1
10
31.894185
20
7.801511
11
32.103301
21
7.193647
0
LINE
8
Layer 1
10
32.103301
20
7.193647
11
32.596708
21
6.836724
0
LINE
8
Layer 1
10
32.596708
20
6.836724
11
33.233751
21
6.682890
0
LINE
8
Layer 1
10
33.233751
20
6.682890
11
33.873779
21
6.684292
0
LINE
8
Layer 1
10
33.873779
20
6.684292
11
34.438709
21
6.835242
0
LINE
8
Layer 1
10
34.438709
20
6.835242
11
34.813566
21
7.256527
0
LINE
8
Layer 1
10
34.813566
20
7.256527
11
35.292645
21
8.347349
0
LINE
8
Layer 1
10
35.292645
20
8.347349
11
35.201186
21
8.769691
0
LINE
8
Layer 1
10
35.201186
20
8.769691
11
34.747151
21
8.939653
0
LINE
8
Layer 1
10
34.747151
20
8.939653
11
34.170665
21
9.040467
0
LINE
8
Layer 1
10
34.170665
20
9.040467
11
33.711848
21
9.255365
0
LINE
8
Layer 1
10
33.711848
20
9.255365
11
31.970230
21
10.093544
0
LINE
8
Layer 1
10
31.970230
20
10.093544
11
31.083043
21
10.464924
0
LINE
8
Layer 1
10
31.083043
20
10.464924
11
30.145143
21
10.676805
0
LINE
8
Layer 1
10
30.145143
20
10.676805
11
29.685254
21
10.971543
0
LINE
8
Layer 1
10
29.685254
20
10.971543
11
29.173401
21
11.131226
0
LINE
8
Layer 1
10
29.173401
20
11.131226
11
28.079737
21
11.241250
0
LINE
8
Layer 1
10
28.079737
20
11.241250
11
26.960979
21
11.668809
0
LINE
8
Layer 1
10
26.960979
20
11.668809
11
25.765637
21
11.886633
0
LINE
8
Layer 1
10
25.765637
20
11.886633
11
24.377618
21
12.460240
0
LINE
8
Layer 1
10
24.377618
20
12.460240
11
23.678322
21
12.724670
0
LINE
8
Layer 1
10
23.678322
20
12.724670
11
22.934541
21
12.848503
0
LINE
8
Layer 1
10
22.934541
20
12.848503
11
22.000871
21
12.879751
0
LINE
8
Layer 1
10
22.000871
20
12.879751
11
21.080275
21
12.748785
0
LINE
8
Layer 1
10
21.080275
20
12.748785
11
19.359403
21
12.047705
0
LINE
8
Layer 1
10
19.359403
20
12.047705
11
18.856834
21
11.943048
0
LINE
8
Layer 1
10
18.856834
20
11.943048
11
18.376403
21
12.092265
0
LINE
8
Layer 1
10
18.376403
20
12.092265
11
17.900829
21
12.207416
0
LINE
8
Layer 1
10
17.900829
20
12.207416
11
17.412830
21
12.000560
0
LINE
8
Layer 1
10
17.412830
20
12.000560
11
15.405595
21
11.859983
0
LINE
8
Layer 1
10
15.405595
20
11.859983
11
13.389090
21
11.899666
0
LINE
8
Layer 1
10
13.389090
20
11.899666
11
14.160358
21
10.372053
0
LINE
8
Layer 1
10
14.160358
20
10.372053
11
14.655999
21
9.690384
0
LINE
8
Layer 1
10
14.655999
20
9.690384
11
15.325927
21
9.166270
0
LINE
8
Layer 1
10
15.325927
20
9.166270
11
16.156141
21
8.164364
0
LINE
8
Layer 1
10
16.156141
20
8.164364
11
16.553723
21
7.649780
0
LINE
8
Layer 1
10
16.553723
20
7.649780
11
17.061604
21
7.237586
0
LINE
8
Layer 1
10
17.061604
20
7.237586
11
17.595186
21
6.927626
0
LINE
8
Layer 1
10
17.595186
20
6.927626
11
17.979817
21
6.458411
0
LINE
8
Layer 1
10
17.979817
20
6.458411
11
18.339353
21
5.968011
0
LINE
8
Layer 1
10
18.339353
20
5.968011
11
18.797650
21
5.594494
0
LINE
8
Layer 1
10
18.797650
20
5.594494
11
19.327329
21
5.638242
0
LINE
8
Layer 1
10
19.327329
20
5.638242
11
19.752338
21
5.971769
0
LINE
8
Layer 1
10
19.752338
20
5.971769
11
19.752338
21
5.971769
0
LINE
8
Layer 1
10
165.379005
20
4.842880
11
166.039939
21
5.341178
0
LINE
8
Layer 1
10
166.039939
20
5.341178
11
166.698199
21
5.548435
0
LINE
8
Layer 1
10
166.698199
20
5.548435
11
167.172758
21
5.663739
0
LINE
8
Layer 1
10
167.172758
20
5.663739
11
167.354560
21
5.964716
0
LINE
8
Layer 1
10
167.354560
20
5.964716
11
167.706897
21
6.419470
0
LINE
8
Layer 1
10
167.706897
20
6.419470
11
168.554005
21
6.928254
0
LINE
8
Layer 1
10
168.554005
20
6.928254
11
169.602095
21
7.529133
0
LINE
8
Layer 1
10
169.602095
20
7.529133
11
170.437643
21
8.205309
0
LINE
8
Layer 1
10
170.437643
20
8.205309
11
171.017912
21
8.720725
0
LINE
8
Layer 1
10
171.017912
20
8.720725
11
171.452238
21
8.935102
0
LINE
8
Layer 1
10
171.452238
20
8.935102
11
171.835632
21
9.100907
0
LINE
8
Layer 1
10
171.835632
20
9.100907
11
172.293449
21
9.499546
0
LINE
8
Layer 1
10
172.293449
20
9.499546
11
172.752870
21
9.898185
0
LINE
8
Layer 1
10
172.752870
20
9.898185
11
173.140116
21
10.063991
0
LINE
8
Layer 1
10
173.140116
20
10.063991
11
173.527362
21
10.229796
0
LINE
8
Layer 1
10
173.527362
20
10.229796
11
173.986783
21
10.628435
0
LINE
8
Layer 1
10
173.986783
20
10.628435
11
174.806635
21
11.200517
0
LINE
8
Layer 1
10
174.806635
20
11.200517
11
176.135036
21
12.161997
0
LINE
8
Layer 1
10
176.135036
20
12.161997
11
177.232338
21
13.313345
0
LINE
8
Layer 1
10
177.232338
20
13.313345
11
175.864969
21
13.450657
0
LINE
8
Layer 1
10
175.864969
20
13.450657
11
174.688864
21
13.576696
0
LINE
8
Layer 1
10
174.688864
20
13.576696
11
173.986783
21
14.015102
0
LINE
8
Layer 1
10
173.986783
20
14.015102
11
173.486197
21
14.428343
0
LINE
8
Layer 1
10
173.486197
20
14.428343
11
173.015233
21
14.553446
0
LINE
8
Layer 1
10
173.015233
20
14.553446
11
172.605802
21
14.391738
0
LINE
8
Layer 1
10
172.605802
20
14.391738
11
172.289817
21
13.944546
0
LINE
8
Layer 1
10
172.289817
20
13.944546
11
171.583822
21
13.239005
0
LINE
8
Layer 1
10
171.583822
20
13.239005
11
170.238333
21
12.427915
0
LINE
8
Layer 1
10
170.238333
20
12.427915
11
167.958333
21
11.087360
0
LINE
8
Layer 1
10
167.958333
20
11.087360
11
167.164413
21
10.628435
0
LINE
8
Layer 1
10
167.164413
20
10.628435
11
166.366783
21
10.063991
0
LINE
8
Layer 1
10
166.366783
20
10.063991
11
165.811611
21
9.665352
0
LINE
8
Layer 1
10
165.811611
20
9.665352
11
165.194152
21
9.499546
0
LINE
8
Layer 1
10
165.194152
20
9.499546
11
164.726747
21
9.400454
0
LINE
8
Layer 1
10
164.726747
20
9.400454
11
164.532338
21
9.162212
0
LINE
8
Layer 1
10
164.532338
20
9.162212
11
164.303956
21
8.677793
0
LINE
8
Layer 1
10
164.303956
20
8.677793
11
163.770148
21
8.038124
0
LINE
8
Layer 1
10
163.770148
20
8.038124
11
163.157922
21
7.480388
0
LINE
8
Layer 1
10
163.157922
20
7.480388
11
162.694287
21
7.241769
0
LINE
8
Layer 1
10
162.694287
20
7.241769
11
162.268312
21
7.029909
0
LINE
8
Layer 1
10
162.268312
20
7.029909
11
161.695395
21
6.520544
0
LINE
8
Layer 1
10
161.695395
20
6.520544
11
161.330096
21
6.048651
0
LINE
8
Layer 1
10
161.330096
20
6.048651
11
161.327469
21
5.952288
0
LINE
8
Layer 1
10
161.327469
20
5.952288
11
161.452340
21
5.966054
0
LINE
8
Layer 1
10
161.452340
20
5.966054
11
161.911225
21
5.920980
0
LINE
8
Layer 1
10
161.911225
20
5.920980
11
162.406663
21
5.558389
0
LINE
8
Layer 1
10
162.406663
20
5.558389
11
162.875142
21
5.152720
0
LINE
8
Layer 1
10
162.875142
20
5.152720
11
163.271522
21
4.983991
0
LINE
8
Layer 1
10
163.271522
20
4.983991
11
163.967894
21
4.560657
0
LINE
8
Layer 1
10
163.967894
20
4.560657
11
164.280166
21
4.247914
0
LINE
8
Layer 1
10
164.280166
20
4.247914
11
164.562134
21
4.179241
0
LINE
8
Layer 1
10
164.562134
20
4.179241
11
165.379005
21
4.842880
0
LINE
8
Layer 1
10
165.379005
20
4.842880
11
165.379005
21
4.842880
0
LINE
8
Layer 1
10
48.821227
20
4.387286
11
49.070512
21
5.236186
0
LINE
8
Layer 1
10
49.070512
20
5.236186
11
49.345013
21
6.045292
0
LINE
8
Layer 1
10
49.345013
20
6.045292
11
49.358504
21
6.374458
0
LINE
8
Layer 1
10
49.358504
20
6.374458
11
49.218439
21
6.621118
0
LINE
8
Layer 1
10
49.218439
20
6.621118
11
48.871533
21
6.761086
0
LINE
8
Layer 1
10
48.871533
20
6.761086
11
48.264499
21
6.770175
0
LINE
8
Layer 1
10
48.264499
20
6.770175
11
47.180881
21
7.213697
0
LINE
8
Layer 1
10
47.180881
20
7.213697
11
46.023180
21
7.219340
0
LINE
8
Layer 1
10
46.023180
20
7.219340
11
45.565645
21
7.022048
0
LINE
8
Layer 1
10
45.565645
20
7.022048
11
45.268502
21
6.672193
0
LINE
8
Layer 1
10
45.268502
20
6.672193
11
45.191392
21
6.155413
0
LINE
8
Layer 1
10
45.191392
20
6.155413
11
45.393951
21
5.457342
0
LINE
8
Layer 1
10
45.393951
20
5.457342
11
45.580550
21
4.978682
0
LINE
8
Layer 1
10
45.580550
20
4.978682
11
45.935110
21
4.555265
0
LINE
8
Layer 1
10
45.935110
20
4.555265
11
46.950369
21
3.960761
0
LINE
8
Layer 1
10
46.950369
20
3.960761
11
48.044238
21
3.847033
0
LINE
8
Layer 1
10
48.044238
20
3.847033
11
48.497061
21
4.024587
0
LINE
8
Layer 1
10
48.497061
20
4.024587
11
48.821227
21
4.387286
0
LINE
8
Layer 1
10
48.821227
20
4.387286
11
48.821227
21
4.387286
0
LINE
8
Layer 1
10
55.030116
20
3.175968
11
55.567473
21
3.716888
0
LINE
8
Layer 1
10
55.567473
20
3.716888
11
55.985904
21
4.334462
0
LINE
8
Layer 1
10
55.985904
20
4.334462
11
56.241600
21
5.043383
0
LINE
8
Layer 1
10
56.241600
20
5.043383
11
56.290755
21
5.858343
0
LINE
8
Layer 1
10
56.290755
20
5.858343
11
56.130194
21
6.108947
0
LINE
8
Layer 1
10
56.130194
20
6.108947
11
55.727632
21
6.139532
0
LINE
8
Layer 1
10
55.727632
20
6.139532
11
54.825908
21
6.112880
0
LINE
8
Layer 1
10
54.825908
20
6.112880
11
54.173202
21
6.184372
0
LINE
8
Layer 1
10
54.173202
20
6.184372
11
53.694613
21
5.976143
0
LINE
8
Layer 1
10
53.694613
20
5.976143
11
53.374163
21
5.558475
0
LINE
8
Layer 1
10
53.374163
20
5.558475
11
53.195868
21
5.001647
0
LINE
8
Layer 1
10
53.195868
20
5.001647
11
53.201823
21
3.751645
0
LINE
8
Layer 1
10
53.201823
20
3.751645
11
53.584630
21
2.788389
0
LINE
8
Layer 1
10
53.584630
20
2.788389
11
54.439799
21
2.724629
0
LINE
8
Layer 1
10
54.439799
20
2.724629
11
54.830289
21
2.838184
0
LINE
8
Layer 1
10
54.830289
20
2.838184
11
55.030116
21
3.175968
0
LINE
8
Layer 1
10
55.030116
20
3.175968
11
55.030116
21
3.175968
0
LINE
8
Layer 1
10
199.104560
20
3.572880
11
201.280844
21
4.569477
0
LINE
8
Layer 1
10
201.280844
20
4.569477
11
202.621142
21
4.983991
0
LINE
8
Layer 1
10
202.621142
20
4.983991
11
203.246764
21
5.083474
0
LINE
8
Layer 1
10
203.246764
20
5.083474
11
203.704783
21
5.322657
0
LINE
8
Layer 1
10
203.704783
20
5.322657
11
204.043449
21
5.520212
0
LINE
8
Layer 1
10
204.043449
20
5.520212
11
204.382116
21
5.322657
0
LINE
8
Layer 1
10
204.382116
20
5.322657
11
204.972888
21
5.083474
0
LINE
8
Layer 1
10
204.972888
20
5.083474
11
205.917681
21
4.983991
0
LINE
8
Layer 1
10
205.917681
20
4.983991
11
206.814229
21
4.901088
0
LINE
8
Layer 1
10
206.814229
20
4.901088
11
207.289005
21
4.701769
0
LINE
8
Layer 1
10
207.289005
20
4.701769
11
207.516209
21
4.459828
0
LINE
8
Layer 1
10
207.516209
20
4.459828
11
207.749771
21
4.505069
0
LINE
8
Layer 1
10
207.749771
20
4.505069
11
208.350479
21
5.548435
0
LINE
8
Layer 1
10
208.350479
20
5.548435
11
208.857947
21
6.404824
0
LINE
8
Layer 1
10
208.857947
20
6.404824
11
209.404833
21
6.677324
0
LINE
8
Layer 1
10
209.404833
20
6.677324
11
209.804064
21
6.760227
0
LINE
8
Layer 1
10
209.804064
20
6.760227
11
209.970116
21
6.959546
0
LINE
8
Layer 1
10
209.970116
20
6.959546
11
209.687714
21
7.151729
0
LINE
8
Layer 1
10
209.687714
20
7.151729
11
209.043006
21
7.235627
0
LINE
8
Layer 1
10
209.043006
20
7.235627
11
208.339738
21
7.200296
0
LINE
8
Layer 1
10
208.339738
20
7.200296
11
207.881657
21
7.034792
0
LINE
8
Layer 1
10
207.881657
20
7.034792
11
206.315181
21
6.866797
0
LINE
8
Layer 1
10
206.315181
20
6.866797
11
202.839622
21
6.753547
0
LINE
8
Layer 1
10
202.839622
20
6.753547
11
198.004563
21
6.679280
0
LINE
8
Layer 1
10
198.004563
20
6.679280
11
197.130015
21
5.831637
0
LINE
8
Layer 1
10
197.130015
20
5.831637
11
196.314251
21
5.236157
0
LINE
8
Layer 1
10
196.314251
20
5.236157
11
195.523130
21
4.981118
0
LINE
8
Layer 1
10
195.523130
20
4.981118
11
194.885365
21
5.080538
0
LINE
8
Layer 1
10
194.885365
20
5.080538
11
194.529668
21
5.548435
0
LINE
8
Layer 1
10
194.529668
20
5.548435
11
194.402912
21
5.830023
0
LINE
8
Layer 1
10
194.402912
20
5.830023
11
194.163966
21
6.002563
0
LINE
8
Layer 1
10
194.163966
20
6.002563
11
193.118557
21
6.112880
0
LINE
8
Layer 1
10
193.118557
20
6.112880
11
192.073146
21
6.223197
0
LINE
8
Layer 1
10
192.073146
20
6.223197
11
191.834201
21
6.395736
0
LINE
8
Layer 1
10
191.834201
20
6.395736
11
191.707445
21
6.677324
0
LINE
8
Layer 1
10
191.707445
20
6.677324
11
191.501363
21
7.075963
0
LINE
8
Layer 1
10
191.501363
20
7.075963
11
191.213164
21
7.241769
0
LINE
8
Layer 1
10
191.213164
20
7.241769
11
190.818272
21
7.407574
0
LINE
8
Layer 1
10
190.818272
20
7.407574
11
190.355672
21
7.806213
0
LINE
8
Layer 1
10
190.355672
20
7.806213
11
189.732412
21
8.218296
0
LINE
8
Layer 1
10
189.732412
20
8.218296
11
188.917476
21
8.370657
0
LINE
8
Layer 1
10
188.917476
20
8.370657
11
188.211276
21
8.453560
0
LINE
8
Layer 1
10
188.211276
20
8.453560
11
187.815672
21
8.652880
0
LINE
8
Layer 1
10
187.815672
20
8.652880
11
187.544309
21
8.852199
0
LINE
8
Layer 1
10
187.544309
20
8.852199
11
187.136820
21
8.935102
0
LINE
8
Layer 1
10
187.136820
20
8.935102
11
186.446855
21
9.074055
0
LINE
8
Layer 1
10
186.446855
20
9.074055
11
185.698566
21
9.413198
0
LINE
8
Layer 1
10
185.698566
20
9.413198
11
185.098284
21
9.835961
0
LINE
8
Layer 1
10
185.098284
20
9.835961
11
184.852338
21
10.225772
0
LINE
8
Layer 1
10
184.852338
20
10.225772
11
184.664209
21
10.515540
0
LINE
8
Layer 1
10
184.664209
20
10.515540
11
184.181338
21
10.628435
0
LINE
8
Layer 1
10
184.181338
20
10.628435
11
183.597073
21
10.761426
0
LINE
8
Layer 1
10
183.597073
20
10.761426
11
183.134604
21
11.081171
0
LINE
8
Layer 1
10
183.134604
20
11.081171
11
182.064903
21
11.797750
0
LINE
8
Layer 1
10
182.064903
20
11.797750
11
181.669417
21
11.898000
0
LINE
8
Layer 1
10
181.669417
20
11.898000
11
181.311856
21
11.834783
0
LINE
8
Layer 1
10
181.311856
20
11.834783
11
180.348072
21
11.062792
0
LINE
8
Layer 1
10
180.348072
20
11.062792
11
179.028067
21
10.063991
0
LINE
8
Layer 1
10
179.028067
20
10.063991
11
178.220116
21
9.499546
0
LINE
8
Layer 1
10
178.220116
20
9.499546
11
177.950826
21
9.176458
0
LINE
8
Layer 1
10
177.950826
20
9.176458
11
177.947152
21
9.008530
0
LINE
8
Layer 1
10
177.947152
20
9.008530
11
179.026871
21
8.935102
0
LINE
8
Layer 1
10
179.026871
20
8.935102
11
180.111104
21
8.839115
0
LINE
8
Layer 1
10
180.111104
20
8.839115
11
180.867671
21
8.608339
0
LINE
8
Layer 1
10
180.867671
20
8.608339
11
181.383228
21
8.418130
0
LINE
8
Layer 1
10
181.383228
20
8.418130
11
181.865224
21
8.488355
0
LINE
8
Layer 1
10
181.865224
20
8.488355
11
182.279478
21
8.804288
0
LINE
8
Layer 1
10
182.279478
20
8.804288
11
182.591812
21
9.351202
0
LINE
8
Layer 1
10
182.591812
20
9.351202
11
182.783327
21
9.827277
0
LINE
8
Layer 1
10
182.783327
20
9.827277
11
182.976520
21
10.011338
0
LINE
8
Layer 1
10
182.976520
20
10.011338
11
183.962311
21
9.619988
0
LINE
8
Layer 1
10
183.962311
20
9.619988
11
184.628524
21
9.133103
0
LINE
8
Layer 1
10
184.628524
20
9.133103
11
184.853343
21
8.561654
0
LINE
8
Layer 1
10
184.853343
20
8.561654
11
184.929490
21
8.232204
0
LINE
8
Layer 1
10
184.929490
20
8.232204
11
185.187376
21
7.928064
0
LINE
8
Layer 1
10
185.187376
20
7.928064
11
186.432642
21
7.241769
0
LINE
8
Layer 1
10
186.432642
20
7.241769
11
187.654186
21
6.553804
0
LINE
8
Layer 1
10
187.654186
20
6.553804
11
188.261021
21
5.896153
0
LINE
8
Layer 1
10
188.261021
20
5.896153
11
188.646386
21
5.364744
0
LINE
8
Layer 1
10
188.646386
20
5.364744
11
189.221722
21
4.985916
0
LINE
8
Layer 1
10
189.221722
20
4.985916
11
189.723595
21
4.668696
0
LINE
8
Layer 1
10
189.723595
20
4.668696
11
189.932338
21
4.285420
0
LINE
8
Layer 1
10
189.932338
20
4.285420
11
190.043844
21
3.981508
0
LINE
8
Layer 1
10
190.043844
20
3.981508
11
190.311930
21
3.855102
0
LINE
8
Layer 1
10
190.311930
20
3.855102
11
190.730069
21
3.689296
0
LINE
8
Layer 1
10
190.730069
20
3.689296
11
191.202338
21
3.290657
0
LINE
8
Layer 1
10
191.202338
20
3.290657
11
191.825598
21
2.878575
0
LINE
8
Layer 1
10
191.825598
20
2.878575
11
192.640534
21
2.726213
0
LINE
8
Layer 1
10
192.640534
20
2.726213
11
193.346734
21
2.643310
0
LINE
8
Layer 1
10
193.346734
20
2.643310
11
193.742338
21
2.443991
0
LINE
8
Layer 1
10
193.742338
20
2.443991
11
194.220403
21
2.244671
0
LINE
8
Layer 1
10
194.220403
20
2.244671
11
195.124857
21
2.161769
0
LINE
8
Layer 1
10
195.124857
20
2.161769
11
196.681791
21
2.476604
0
LINE
8
Layer 1
10
196.681791
20
2.476604
11
199.104560
21
3.572880
0
LINE
8
Layer 1
10
199.104560
20
3.572880
11
199.104560
21
3.572880
0
LINE
8
Layer 1
10
235.652338
20
0.045102
11
236.043386
21
0.344081
0
LINE
8
Layer 1
10
236.043386
20
0.344081
11
236.490202
21
0.468435
0
LINE
8
Layer 1
10
236.490202
20
0.468435
11
237.216364
21
0.617805
0
LINE
8
Layer 1
10
237.216364
20
0.617805
11
237.994053
21
0.998589
0
LINE
8
Layer 1
10
237.994053
20
0.998589
11
238.659851
21
1.509805
0
LINE
8
Layer 1
10
238.659851
20
1.509805
11
239.050339
21
2.050466
0
LINE
8
Layer 1
10
239.050339
20
2.050466
11
239.385570
21
2.531044
0
LINE
8
Layer 1
10
239.385570
20
2.531044
11
239.835326
21
2.726213
0
LINE
8
Layer 1
10
239.835326
20
2.726213
11
240.475641
21
2.849069
0
LINE
8
Layer 1
10
240.475641
20
2.849069
11
241.233780
21
3.171422
0
LINE
8
Layer 1
10
241.233780
20
3.171422
11
242.566783
21
4.137324
0
LINE
8
Layer 1
10
242.566783
20
4.137324
11
243.863225
21
5.085124
0
LINE
8
Layer 1
10
243.863225
20
5.085124
11
244.595815
21
5.418791
0
LINE
8
Layer 1
10
244.595815
20
5.418791
11
245.179957
21
5.548435
0
LINE
8
Layer 1
10
245.179957
20
5.548435
11
245.757838
21
5.761281
0
LINE
8
Layer 1
10
245.757838
20
5.761281
11
246.413911
21
6.246076
0
LINE
8
Layer 1
10
246.413911
20
6.246076
11
246.889926
21
6.772207
0
LINE
8
Layer 1
10
246.889926
20
6.772207
11
246.927630
21
7.109062
0
LINE
8
Layer 1
10
246.927630
20
7.109062
11
245.397297
21
7.311844
0
LINE
8
Layer 1
10
245.397297
20
7.311844
11
244.226935
21
7.136105
0
LINE
8
Layer 1
10
244.226935
20
7.136105
11
242.839783
21
6.669563
0
LINE
8
Layer 1
10
242.839783
20
6.669563
11
241.563802
21
6.046411
0
LINE
8
Layer 1
10
241.563802
20
6.046411
11
240.726959
21
5.400842
0
LINE
8
Layer 1
10
240.726959
20
5.400842
11
240.255523
21
5.106440
0
LINE
8
Layer 1
10
240.255523
20
5.106440
11
239.607880
21
4.983991
0
LINE
8
Layer 1
10
239.607880
20
4.983991
11
238.428312
21
4.658104
0
LINE
8
Layer 1
10
238.428312
20
4.658104
11
236.677993
21
3.874587
0
LINE
8
Layer 1
10
236.677993
20
3.874587
11
233.909444
21
2.675142
0
LINE
8
Layer 1
10
233.909444
20
2.675142
11
233.392454
21
2.496625
0
LINE
8
Layer 1
10
233.392454
20
2.496625
11
233.201996
21
2.208931
0
LINE
8
Layer 1
10
233.201996
20
2.208931
11
233.343811
21
1.884341
0
LINE
8
Layer 1
10
233.343811
20
1.884341
11
233.823643
21
1.595137
0
LINE
8
Layer 1
10
233.823643
20
1.595137
11
234.360153
21
1.267639
0
LINE
8
Layer 1
10
234.360153
20
1.267639
11
234.406158
21
0.852074
0
LINE
8
Layer 1
10
234.406158
20
0.852074
11
234.381391
21
0.471302
0
LINE
8
Layer 1
10
234.381391
20
0.471302
11
234.525543
21
0.069333
0
LINE
8
Layer 1
10
234.525543
20
0.069333
11
234.780437
21
-0.248842
0
LINE
8
Layer 1
10
234.780437
20
-0.248842
11
235.087894
21
-0.378231
0
LINE
8
Layer 1
10
235.087894
20
-0.378231
11
235.652338
21
0.045102
0
LINE
8
Layer 1
10
235.652338
20
0.045102
11
235.652338
21
0.045102
0
LINE
8
Layer 1
10
69.141224
20
0.618403
11
69.091591
21
1.369422
0
LINE
8
Layer 1
10
69.091591
20
1.369422
11
69.303470
21
2.063480
0
LINE
8
Layer 1
10
69.303470
20
2.063480
11
69.884262
21
3.179501
0
LINE
8
Layer 1
10
69.884262
20
3.179501
11
68.786840
21
2.898277
0
LINE
8
Layer 1
10
68.786840
20
2.898277
11
67.641722
21
2.974194
0
LINE
8
Layer 1
10
67.641722
20
2.974194
11
66.563084
21
3.348413
0
LINE
8
Layer 1
10
66.563084
20
3.348413
11
65.665102
21
3.962092
0
LINE
8
Layer 1
10
65.665102
20
3.962092
11
61.566699
21
4.850875
0
LINE
8
Layer 1
10
61.566699
20
4.850875
11
60.344204
21
5.100612
0
LINE
8
Layer 1
10
60.344204
20
5.100612
11
59.776042
21
5.135240
0
LINE
8
Layer 1
10
59.776042
20
5.135240
11
59.604145
21
5.024962
0
LINE
8
Layer 1
10
59.604145
20
5.024962
11
59.545669
21
4.789613
0
LINE
8
Layer 1
10
59.545669
20
4.789613
11
59.501012
21
3.250213
0
LINE
8
Layer 1
10
59.501012
20
3.250213
11
59.348581
21
2.506367
0
LINE
8
Layer 1
10
59.348581
20
2.506367
11
59.045582
21
1.810735
0
LINE
8
Layer 1
10
59.045582
20
1.810735
11
59.390861
21
1.411813
0
LINE
8
Layer 1
10
59.390861
20
1.411813
11
59.863371
21
1.140911
0
LINE
8
Layer 1
10
59.863371
20
1.140911
11
60.940561
21
1.009341
0
LINE
8
Layer 1
10
60.940561
20
1.009341
11
61.420481
21
1.161756
0
LINE
8
Layer 1
10
61.420481
20
1.161756
11
61.778111
21
1.468362
0
LINE
8
Layer 1
10
61.778111
20
1.468362
11
61.951070
21
1.935700
0
LINE
8
Layer 1
10
61.951070
20
1.935700
11
61.876980
21
2.570313
0
LINE
8
Layer 1
10
61.876980
20
2.570313
11
62.147292
21
3.145728
0
LINE
8
Layer 1
10
62.147292
20
3.145728
11
62.602772
21
3.558386
0
LINE
8
Layer 1
10
62.602772
20
3.558386
11
63.177553
21
3.804310
0
LINE
8
Layer 1
10
63.177553
20
3.804310
11
63.805769
21
3.879524
0
LINE
8
Layer 1
10
63.805769
20
3.879524
11
64.421552
21
3.780052
0
LINE
8
Layer 1
10
64.421552
20
3.780052
11
64.959037
21
3.501919
0
LINE
8
Layer 1
10
64.959037
20
3.501919
11
65.352355
21
3.041147
0
LINE
8
Layer 1
10
65.352355
20
3.041147
11
65.535641
21
2.393761
0
LINE
8
Layer 1
10
65.535641
20
2.393761
11
65.614017
21
1.433474
0
LINE
8
Layer 1
10
65.614017
20
1.433474
11
65.757288
21
0.526213
0
LINE
8
Layer 1
10
65.757288
20
0.526213
11
66.191352
21
-0.178594
0
LINE
8
Layer 1
10
66.191352
20
-0.178594
11
66.588025
21
-0.408380
0
LINE
8
Layer 1
10
66.588025
20
-0.408380
11
67.142109
21
-0.531518
0
LINE
8
Layer 1
10
67.142109
20
-0.531518
11
67.870265
21
-0.685148
0
LINE
8
Layer 1
10
67.870265
20
-0.685148
11
68.522694
21
-1.019257
0
LINE
8
Layer 1
10
68.522694
20
-1.019257
11
68.782508
21
-1.096614
0
LINE
8
Layer 1
10
68.782508
20
-1.096614
11
68.977785
21
-1.030237
0
LINE
8
Layer 1
10
68.977785
20
-1.030237
11
69.113922
21
-0.214478
0
LINE
8
Layer 1
10
69.113922
20
-0.214478
11
69.141213
21
0.618403
0
LINE
8
Layer 1
10
69.141213
20
0.618403
11
69.141224
21
0.618403
0
LINE
8
Layer 1
10
298.463547
20
-0.405367
11
298.973971
21
1.319245
0
LINE
8
Layer 1
10
298.973971
20
1.319245
11
299.261767
21
3.061840
0
LINE
8
Layer 1
10
299.261767
20
3.061840
11
299.361031
21
4.816914
0
LINE
8
Layer 1
10
299.361031
20
4.816914
11
299.305864
21
6.578963
0
LINE
8
Layer 1
10
299.305864
20
6.578963
11
298.868625
21
10.101975
0
LINE
8
Layer 1
10
298.868625
20
10.101975
11
298.222839
21
13.586849
0
LINE
8
Layer 1
10
298.222839
20
13.586849
11
297.935057
21
15.494182
0
LINE
8
Layer 1
10
297.935057
20
15.494182
11
297.349762
21
17.279423
0
LINE
8
Layer 1
10
297.349762
20
17.279423
11
296.521102
21
18.960147
0
LINE
8
Layer 1
10
296.521102
20
18.960147
11
295.503223
21
20.553929
0
LINE
8
Layer 1
10
295.503223
20
20.553929
11
293.116388
21
23.550970
0
LINE
8
Layer 1
10
293.116388
20
23.550970
11
290.622426
21
26.411146
0
LINE
8
Layer 1
10
290.622426
20
26.411146
11
287.689843
21
28.754344
0
LINE
8
Layer 1
10
287.689843
20
28.754344
11
284.696317
21
30.933970
0
LINE
8
Layer 1
10
284.696317
20
30.933970
11
278.804968
21
35.062222
0
LINE
8
Layer 1
10
278.804968
20
35.062222
11
273.943614
21
40.130153
0
LINE
8
Layer 1
10
273.943614
20
40.130153
11
268.888786
21
45.072334
0
LINE
8
Layer 1
10
268.888786
20
45.072334
11
266.687209
21
48.032347
0
LINE
8
Layer 1
10
266.687209
20
48.032347
11
264.673714
21
51.198284
0
LINE
8
Layer 1
10
264.673714
20
51.198284
11
262.687780
21
54.401759
0
LINE
8
Layer 1
10
262.687780
20
54.401759
11
260.568886
21
57.474386
0
LINE
8
Layer 1
10
260.568886
20
57.474386
11
258.584326
21
60.467968
0
LINE
8
Layer 1
10
258.584326
20
60.467968
11
256.723112
21
63.419532
0
LINE
8
Layer 1
10
256.723112
20
63.419532
11
254.730773
21
66.260934
0
LINE
8
Layer 1
10
254.730773
20
66.260934
11
252.352838
21
68.924032
0
LINE
8
Layer 1
10
252.352838
20
68.924032
11
250.873825
21
70.670974
0
LINE
8
Layer 1
10
250.873825
20
70.670974
11
249.287621
21
72.285786
0
LINE
8
Layer 1
10
249.287621
20
72.285786
11
245.856323
21
75.208578
0
LINE
8
Layer 1
10
245.856323
20
75.208578
11
242.184300
21
77.871523
0
LINE
8
Layer 1
10
242.184300
20
77.871523
11
238.396910
21
80.453741
0
LINE
8
Layer 1
10
238.396910
20
80.453741
11
232.120328
21
83.666156
0
LINE
8
Layer 1
10
232.120328
20
83.666156
11
228.887893
21
85.128386
0
LINE
8
Layer 1
10
228.887893
20
85.128386
11
225.480335
21
86.263991
0
LINE
8
Layer 1
10
225.480335
20
86.263991
11
220.022813
21
87.984678
0
LINE
8
Layer 1
10
220.022813
20
87.984678
11
214.538523
21
89.538536
0
LINE
8
Layer 1
10
214.538523
20
89.538536
11
211.594222
21
91.309847
0
LINE
8
Layer 1
10
211.594222
20
91.309847
11
208.582557
21
93.229995
0
LINE
8
Layer 1
10
208.582557
20
93.229995
11
205.732436
21
95.422299
0
LINE
8
Layer 1
10
205.732436
20
95.422299
11
204.439489
21
96.659047
0
LINE
8
Layer 1
10
204.439489
20
96.659047
11
203.272768
21
98.010077
0
LINE
8
Layer 1
10
203.272768
20
98.010077
11
201.748788
21
99.002971
0
LINE
8
Layer 1
10
201.748788
20
99.002971
11
200.268851
21
100.144481
0
LINE
8
Layer 1
10
200.268851
20
100.144481
11
197.304080
21
102.560516
0
LINE
8
Layer 1
10
197.304080
20
102.560516
11
195.750734
21
103.678621
0
LINE
8
Layer 1
10
195.750734
20
103.678621
11
194.104406
21
104.632506
0
LINE
8
Layer 1
10
194.104406
20
104.632506
11
192.330839
21
105.343962
0
LINE
8
Layer 1
10
192.330839
20
105.343962
11
190.395778
21
105.734779
0
LINE
8
Layer 1
10
190.395778
20
105.734779
11
187.285072
21
106.536144
0
LINE
8
Layer 1
10
187.285072
20
106.536144
11
184.084471
21
107.240290
0
LINE
8
Layer 1
10
184.084471
20
107.240290
11
180.868058
21
107.604389
0
LINE
8
Layer 1
10
180.868058
20
107.604389
11
179.277073
21
107.583036
0
LINE
8
Layer 1
10
179.277073
20
107.583036
11
177.709917
21
107.385609
0
LINE
8
Layer 1
10
177.709917
20
107.385609
11
175.947163
21
107.186004
0
LINE
8
Layer 1
10
175.947163
20
107.186004
11
174.208150
21
106.731103
0
LINE
8
Layer 1
10
174.208150
20
106.731103
11
172.529885
21
106.041735
0
LINE
8
Layer 1
10
172.529885
20
106.041735
11
170.949377
21
105.138728
0
LINE
8
Layer 1
10
170.949377
20
105.138728
11
169.503631
21
104.042912
0
LINE
8
Layer 1
10
169.503631
20
104.042912
11
168.229654
21
102.775114
0
LINE
8
Layer 1
10
168.229654
20
102.775114
11
167.164454
21
101.356164
0
LINE
8
Layer 1
10
167.164454
20
101.356164
11
166.345037
21
99.806890
0
LINE
8
Layer 1
10
166.345037
20
99.806890
11
165.601920
21
99.067677
0
LINE
8
Layer 1
10
165.601920
20
99.067677
11
165.165006
21
98.162463
0
LINE
8
Layer 1
10
165.165006
20
98.162463
11
164.962542
21
97.131247
0
LINE
8
Layer 1
10
164.962542
20
97.131247
11
164.922778
21
96.014027
0
LINE
8
Layer 1
10
164.922778
20
96.014027
11
165.044338
21
93.681568
0
LINE
8
Layer 1
10
165.044338
20
93.681568
11
165.062159
21
92.546326
0
LINE
8
Layer 1
10
165.062159
20
92.546326
11
164.955672
21
91.485074
0
LINE
8
Layer 1
10
164.955672
20
91.485074
11
167.072443
21
89.797803
0
LINE
8
Layer 1
10
167.072443
20
89.797803
11
168.214724
21
89.112806
0
LINE
8
Layer 1
10
168.214724
20
89.112806
11
169.222362
21
88.664523
0
LINE
8
Layer 1
10
169.222362
20
88.664523
11
169.952427
21
88.551170
0
LINE
8
Layer 1
10
169.952427
20
88.551170
11
170.168705
21
88.650785
0
LINE
8
Layer 1
10
170.168705
20
88.650785
11
170.261991
21
88.870963
0
LINE
8
Layer 1
10
170.261991
20
88.870963
11
170.008123
21
89.722118
0
LINE
8
Layer 1
10
170.008123
20
89.722118
11
169.047894
21
91.202851
0
LINE
8
Layer 1
10
169.047894
20
91.202851
11
168.606251
21
92.428644
0
LINE
8
Layer 1
10
168.606251
20
92.428644
11
168.644085
21
93.447790
0
LINE
8
Layer 1
10
168.644085
20
93.447790
11
169.036360
21
94.204238
0
LINE
8
Layer 1
10
169.036360
20
94.204238
11
169.658040
21
94.641941
0
LINE
8
Layer 1
10
169.658040
20
94.641941
11
170.384088
21
94.704846
0
LINE
8
Layer 1
10
170.384088
20
94.704846
11
171.089468
21
94.336905
0
LINE
8
Layer 1
10
171.089468
20
94.336905
11
171.649144
21
93.482067
0
LINE
8
Layer 1
10
171.649144
20
93.482067
11
171.938078
21
92.084282
0
LINE
8
Layer 1
10
171.938078
20
92.084282
11
173.165636
21
91.008472
0
LINE
8
Layer 1
10
173.165636
20
91.008472
11
174.245917
21
89.809957
0
LINE
8
Layer 1
10
174.245917
20
89.809957
11
174.580421
21
89.166495
0
LINE
8
Layer 1
10
174.580421
20
89.166495
11
174.697618
21
88.494526
0
LINE
8
Layer 1
10
174.697618
20
88.494526
11
174.537344
21
87.794775
0
LINE
8
Layer 1
10
174.537344
20
87.794775
11
174.039437
21
87.067966
0
LINE
8
Layer 1
10
174.039437
20
87.067966
11
175.152544
21
87.262656
0
LINE
8
Layer 1
10
175.152544
20
87.262656
11
175.465520
21
87.494386
0
LINE
8
Layer 1
10
175.465520
20
87.494386
11
175.646507
21
87.802298
0
LINE
8
Layer 1
10
175.646507
20
87.802298
11
175.703701
21
88.606440
0
LINE
8
Layer 1
10
175.703701
20
88.606440
11
175.506500
21
89.594629
0
LINE
8
Layer 1
10
175.506500
20
89.594629
11
175.237278
21
90.686412
0
LINE
8
Layer 1
10
175.237278
20
90.686412
11
175.078409
21
91.801336
0
LINE
8
Layer 1
10
175.078409
20
91.801336
11
175.212267
21
92.858948
0
LINE
8
Layer 1
10
175.212267
20
92.858948
11
175.445961
21
93.341121
0
LINE
8
Layer 1
10
175.445961
20
93.341121
11
175.821227
21
93.778795
0
LINE
8
Layer 1
10
175.821227
20
93.778795
11
176.719634
21
95.462898
0
LINE
8
Layer 1
10
176.719634
20
95.462898
11
177.410258
21
96.085013
0
LINE
8
Layer 1
10
177.410258
20
96.085013
11
177.681413
21
96.067137
0
LINE
8
Layer 1
10
177.681413
20
96.067137
11
177.905136
21
95.866938
0
LINE
8
Layer 1
10
177.905136
20
95.866938
11
178.216307
21
95.030472
0
LINE
8
Layer 1
10
178.216307
20
95.030472
11
178.355808
21
93.797415
0
LINE
8
Layer 1
10
178.355808
20
93.797415
11
178.335677
21
92.389565
0
LINE
8
Layer 1
10
178.335677
20
92.389565
11
178.167953
21
91.028721
0
LINE
8
Layer 1
10
178.167953
20
91.028721
11
177.864671
21
89.936681
0
LINE
8
Layer 1
10
177.864671
20
89.936681
11
178.096481
21
89.584036
0
LINE
8
Layer 1
10
178.096481
20
89.584036
11
178.308835
21
89.500093
0
LINE
8
Layer 1
10
178.308835
20
89.500093
11
178.703508
21
89.991309
0
LINE
8
Layer 1
10
178.703508
20
89.991309
11
179.571051
21
92.581156
0
LINE
8
Layer 1
10
179.571051
20
92.581156
11
180.157252
21
94.091787
0
LINE
8
Layer 1
10
180.157252
20
94.091787
11
180.920628
21
95.354221
0
LINE
8
Layer 1
10
180.920628
20
95.354221
11
181.386465
21
95.800490
0
LINE
8
Layer 1
10
181.386465
20
95.800490
11
181.917846
21
96.074460
0
LINE
8
Layer 1
10
181.917846
20
96.074460
11
182.521854
21
96.139380
0
LINE
8
Layer 1
10
182.521854
20
96.139380
11
183.205572
21
95.958502
0
LINE
8
Layer 1
10
183.205572
20
95.958502
11
183.187370
21
94.862003
0
LINE
8
Layer 1
10
183.187370
20
94.862003
11
182.824883
21
93.375572
0
LINE
8
Layer 1
10
182.824883
20
93.375572
11
181.774539
21
89.999986
0
LINE
8
Layer 1
10
181.774539
20
89.999986
11
181.440428
21
88.494365
0
LINE
8
Layer 1
10
181.440428
20
88.494365
11
181.469521
21
87.365884
0
LINE
8
Layer 1
10
181.469521
20
87.365884
11
181.675542
21
87.002997
0
LINE
8
Layer 1
10
181.675542
20
87.002997
11
182.038691
21
86.806308
0
LINE
8
Layer 1
10
182.038691
20
86.806308
11
182.581078
21
86.799788
0
LINE
8
Layer 1
10
182.581078
20
86.799788
11
183.324810
21
87.007406
0
LINE
8
Layer 1
10
183.324810
20
87.007406
11
184.404772
21
89.436844
0
LINE
8
Layer 1
10
184.404772
20
89.436844
11
185.714170
21
92.247024
0
LINE
8
Layer 1
10
185.714170
20
92.247024
11
186.476556
21
93.275915
0
LINE
8
Layer 1
10
186.476556
20
93.275915
11
186.888460
21
93.605490
0
LINE
8
Layer 1
10
186.888460
20
93.605490
11
187.322280
21
93.777220
0
LINE
8
Layer 1
10
187.322280
20
93.777220
11
187.779098
21
93.765156
0
LINE
8
Layer 1
10
187.779098
20
93.765156
11
188.259999
21
93.543348
0
LINE
8
Layer 1
10
188.259999
20
93.543348
11
188.766063
21
93.085848
0
LINE
8
Layer 1
10
188.766063
20
93.085848
11
189.298374
21
92.366708
0
LINE
8
Layer 1
10
189.298374
20
92.366708
11
188.357318
21
91.472743
0
LINE
8
Layer 1
10
188.357318
20
91.472743
11
187.617999
21
90.147988
0
LINE
8
Layer 1
10
187.617999
20
90.147988
11
187.083703
21
88.647182
0
LINE
8
Layer 1
10
187.083703
20
88.647182
11
186.757714
21
87.225068
0
LINE
8
Layer 1
10
186.757714
20
87.225068
11
186.643320
21
86.136387
0
LINE
8
Layer 1
10
186.643320
20
86.136387
11
186.743805
21
85.635881
0
LINE
8
Layer 1
10
186.743805
20
85.635881
11
187.062455
21
85.978290
0
LINE
8
Layer 1
10
187.062455
20
85.978290
11
187.602557
21
87.418356
0
LINE
8
Layer 1
10
187.602557
20
87.418356
11
187.608729
21
88.304366
0
LINE
8
Layer 1
10
187.608729
20
88.304366
11
187.826363
21
89.144033
0
LINE
8
Layer 1
10
187.826363
20
89.144033
11
188.218668
21
89.926059
0
LINE
8
Layer 1
10
188.218668
20
89.926059
11
188.748847
21
90.639144
0
LINE
8
Layer 1
10
188.748847
20
90.639144
11
190.075657
21
91.813299
0
LINE
8
Layer 1
10
190.075657
20
91.813299
11
191.512444
21
92.576110
0
LINE
8
Layer 1
10
191.512444
20
92.576110
11
192.764855
21
92.837188
0
LINE
8
Layer 1
10
192.764855
20
92.837188
11
193.229936
21
92.751332
0
LINE
8
Layer 1
10
193.229936
20
92.751332
11
193.538542
21
92.506146
0
LINE
8
Layer 1
10
193.538542
20
92.506146
11
193.653879
21
92.090333
0
LINE
8
Layer 1
10
193.653879
20
92.090333
11
193.539153
21
91.492595
0
LINE
8
Layer 1
10
193.539153
20
91.492595
11
193.157571
21
90.701631
0
LINE
8
Layer 1
10
193.157571
20
90.701631
11
192.472338
21
89.706145
0
LINE
8
Layer 1
10
192.472338
20
89.706145
11
191.858261
21
89.412268
0
LINE
8
Layer 1
10
191.858261
20
89.412268
11
191.357531
21
89.013626
0
LINE
8
Layer 1
10
191.357531
20
89.013626
11
190.673797
21
88.000945
0
LINE
8
Layer 1
10
190.673797
20
88.000945
11
190.376494
21
86.865890
0
LINE
8
Layer 1
10
190.376494
20
86.865890
11
190.420981
21
85.806246
0
LINE
8
Layer 1
10
190.420981
20
85.806246
11
190.762619
21
85.019802
0
LINE
8
Layer 1
10
190.762619
20
85.019802
11
191.030919
21
84.790838
0
LINE
8
Layer 1
10
191.030919
20
84.790838
11
191.356766
21
84.704344
0
LINE
8
Layer 1
10
191.356766
20
84.704344
11
191.734581
21
84.785043
0
LINE
8
Layer 1
10
191.734581
20
84.785043
11
192.158782
21
85.057659
0
LINE
8
Layer 1
10
192.158782
20
85.057659
11
193.124026
21
86.277535
0
LINE
8
Layer 1
10
193.124026
20
86.277535
11
193.218291
21
87.121395
0
LINE
8
Layer 1
10
193.218291
20
87.121395
11
193.525045
21
87.919379
0
LINE
8
Layer 1
10
193.525045
20
87.919379
11
194.005272
21
88.660570
0
LINE
8
Layer 1
10
194.005272
20
88.660570
11
194.619951
21
89.334046
0
LINE
8
Layer 1
10
194.619951
20
89.334046
11
196.096594
21
90.434177
0
LINE
8
Layer 1
10
196.096594
20
90.434177
11
197.642827
21
91.132418
0
LINE
8
Layer 1
10
197.642827
20
91.132418
11
198.946500
21
91.341412
0
LINE
8
Layer 1
10
198.946500
20
91.341412
11
199.409830
21
91.235143
0
LINE
8
Layer 1
10
199.409830
20
91.235143
11
199.695464
21
90.973803
0
LINE
8
Layer 1
10
199.695464
20
90.973803
11
199.764385
21
90.546473
0
LINE
8
Layer 1
10
199.764385
20
90.546473
11
199.577572
21
89.942234
0
LINE
8
Layer 1
10
199.577572
20
89.942234
11
199.096009
21
89.150166
0
LINE
8
Layer 1
10
199.096009
20
89.150166
11
198.280675
21
88.159350
0
LINE
8
Layer 1
10
198.280675
20
88.159350
11
197.637099
21
87.871069
0
LINE
8
Layer 1
10
197.637099
20
87.871069
11
197.082458
21
87.469628
0
LINE
8
Layer 1
10
197.082458
20
87.469628
11
196.230082
21
86.436615
0
LINE
8
Layer 1
10
196.230082
20
86.436615
11
195.703755
21
85.279004
0
LINE
8
Layer 1
10
195.703755
20
85.279004
11
195.483684
21
84.215485
0
LINE
8
Layer 1
10
195.483684
20
84.215485
11
195.550076
21
83.464751
0
LINE
8
Layer 1
10
195.550076
20
83.464751
11
195.684511
21
83.275019
0
LINE
8
Layer 1
10
195.684511
20
83.275019
11
195.883141
21
83.245493
0
LINE
8
Layer 1
10
195.883141
20
83.245493
11
196.463085
21
83.776403
0
LINE
8
Layer 1
10
196.463085
20
83.776403
11
197.270116
21
85.276174
0
LINE
8
Layer 1
10
197.270116
20
85.276174
11
197.400943
21
86.012462
0
LINE
8
Layer 1
10
197.400943
20
86.012462
11
197.693260
21
86.663411
0
LINE
8
Layer 1
10
197.693260
20
86.663411
11
198.640274
21
87.701316
0
LINE
8
Layer 1
10
198.640274
20
87.701316
11
199.866986
21
88.373938
0
LINE
8
Layer 1
10
199.866986
20
88.373938
11
201.129225
21
88.665326
0
LINE
8
Layer 1
10
201.129225
20
88.665326
11
202.182819
21
88.559528
0
LINE
8
Layer 1
10
202.182819
20
88.559528
11
202.555070
21
88.352700
0
LINE
8
Layer 1
10
202.555070
20
88.352700
11
202.783596
21
88.040593
0
LINE
8
Layer 1
10
202.783596
20
88.040593
11
202.837875
21
87.621215
0
LINE
8
Layer 1
10
202.837875
20
87.621215
11
202.687386
21
87.092570
0
LINE
8
Layer 1
10
202.687386
20
87.092570
11
202.301607
21
86.452665
0
LINE
8
Layer 1
10
202.301607
20
86.452665
11
201.650016
21
85.699507
0
LINE
8
Layer 1
10
201.650016
20
85.699507
11
200.689124
21
85.163858
0
LINE
8
Layer 1
10
200.689124
20
85.163858
11
199.877537
21
84.287770
0
LINE
8
Layer 1
10
199.877537
20
84.287770
11
199.252705
21
83.211742
0
LINE
8
Layer 1
10
199.252705
20
83.211742
11
198.852081
21
82.076272
0
LINE
8
Layer 1
10
198.852081
20
82.076272
11
198.713118
21
81.021859
0
LINE
8
Layer 1
10
198.713118
20
81.021859
11
198.873267
21
80.189002
0
LINE
8
Layer 1
10
198.873267
20
80.189002
11
199.369982
21
79.718200
0
LINE
8
Layer 1
10
199.369982
20
79.718200
11
200.240714
21
79.749952
0
LINE
8
Layer 1
10
200.240714
20
79.749952
11
200.788376
21
80.821483
0
LINE
8
Layer 1
10
200.788376
20
80.821483
11
201.753460
21
82.190339
0
LINE
8
Layer 1
10
201.753460
20
82.190339
11
202.987546
21
83.623695
0
LINE
8
Layer 1
10
202.987546
20
83.623695
11
204.342216
21
84.888726
0
LINE
8
Layer 1
10
204.342216
20
84.888726
11
205.669054
21
85.752608
0
LINE
8
Layer 1
10
205.669054
20
85.752608
11
206.275655
21
85.961361
0
LINE
8
Layer 1
10
206.275655
20
85.961361
11
206.819640
21
85.982517
0
LINE
8
Layer 1
10
206.819640
20
85.982517
11
207.282459
21
85.786973
0
LINE
8
Layer 1
10
207.282459
20
85.786973
11
207.645557
21
85.345627
0
LINE
8
Layer 1
10
207.645557
20
85.345627
11
207.890384
21
84.629375
0
LINE
8
Layer 1
10
207.890384
20
84.629375
11
207.998387
21
83.609115
0
LINE
8
Layer 1
10
207.998387
20
83.609115
11
205.925181
21
81.950764
0
LINE
8
Layer 1
10
205.925181
20
81.950764
11
204.774647
21
80.925650
0
LINE
8
Layer 1
10
204.774647
20
80.925650
11
203.807455
21
79.840444
0
LINE
8
Layer 1
10
203.807455
20
79.840444
11
203.218082
21
78.748047
0
LINE
8
Layer 1
10
203.218082
20
78.748047
11
203.125849
21
78.215684
0
LINE
8
Layer 1
10
203.125849
20
78.215684
11
203.200998
21
77.701360
0
LINE
8
Layer 1
10
203.200998
20
77.701360
11
203.467839
21
77.211688
0
LINE
8
Layer 1
10
203.467839
20
77.211688
11
203.950680
21
76.753281
0
LINE
8
Layer 1
10
203.950680
20
76.753281
11
204.673830
21
76.332752
0
LINE
8
Layer 1
10
204.673830
20
76.332752
11
205.661599
21
75.956713
0
LINE
8
Layer 1
10
205.661599
20
75.956713
11
205.586687
21
76.797592
0
LINE
8
Layer 1
10
205.586687
20
76.797592
11
205.737587
21
77.652880
0
LINE
8
Layer 1
10
205.737587
20
77.652880
11
206.077438
21
78.500694
0
LINE
8
Layer 1
10
206.077438
20
78.500694
11
206.569376
21
79.319150
0
LINE
8
Layer 1
10
206.569376
20
79.319150
11
207.862069
21
80.780455
0
LINE
8
Layer 1
10
207.862069
20
80.780455
11
209.320772
21
81.861725
0
LINE
8
Layer 1
10
209.320772
20
81.861725
11
210.650587
21
82.387892
0
LINE
8
Layer 1
10
210.650587
20
82.387892
11
211.175008
21
82.388103
0
LINE
8
Layer 1
10
211.175008
20
82.388103
11
211.556621
21
82.183887
0
LINE
8
Layer 1
10
211.556621
20
82.183887
11
211.758564
21
81.753361
0
LINE
8
Layer 1
10
211.758564
20
81.753361
11
211.743977
21
81.074641
0
LINE
8
Layer 1
10
211.743977
20
81.074641
11
211.475995
21
80.125843
0
LINE
8
Layer 1
10
211.475995
20
80.125843
11
210.917759
21
78.885085
0
LINE
8
Layer 1
10
210.917759
20
78.885085
11
210.038904
21
78.654551
0
LINE
8
Layer 1
10
210.038904
20
78.654551
11
209.370363
21
78.266952
0
LINE
8
Layer 1
10
209.370363
20
78.266952
11
208.893281
21
77.755701
0
LINE
8
Layer 1
10
208.893281
20
77.755701
11
208.588805
21
77.154214
0
LINE
8
Layer 1
10
208.588805
20
77.154214
11
208.422248
21
75.814193
0
LINE
8
Layer 1
10
208.422248
20
75.814193
11
208.719857
21
74.514209
0
LINE
8
Layer 1
10
208.719857
20
74.514209
11
209.330793
21
73.521584
0
LINE
8
Layer 1
10
209.330793
20
73.521584
11
209.706622
21
73.224068
0
LINE
8
Layer 1
10
209.706622
20
73.224068
11
210.104220
21
73.103637
0
LINE
8
Layer 1
10
210.104220
20
73.103637
11
210.504731
21
73.193706
0
LINE
8
Layer 1
10
210.504731
20
73.193706
11
210.889301
21
73.527690
0
LINE
8
Layer 1
10
210.889301
20
73.527690
11
211.239075
21
74.139005
0
LINE
8
Layer 1
10
211.239075
20
74.139005
11
211.535199
21
75.061064
0
LINE
8
Layer 1
10
211.535199
20
75.061064
11
211.746260
21
75.761223
0
LINE
8
Layer 1
10
211.746260
20
75.761223
11
212.083803
21
76.392694
0
LINE
8
Layer 1
10
212.083803
20
76.392694
11
213.035580
21
77.428594
0
LINE
8
Layer 1
10
213.035580
20
77.428594
11
214.185012
21
78.126806
0
LINE
8
Layer 1
10
214.185012
20
78.126806
11
215.326583
21
78.445369
0
LINE
8
Layer 1
10
215.326583
20
78.445369
11
216.254774
21
78.342324
0
LINE
8
Layer 1
10
216.254774
20
78.342324
11
216.574629
21
78.119587
0
LINE
8
Layer 1
10
216.574629
20
78.119587
11
216.764070
21
77.775713
0
LINE
8
Layer 1
10
216.764070
20
77.775713
11
216.797407
21
77.305458
0
LINE
8
Layer 1
10
216.797407
20
77.305458
11
216.648952
21
76.703576
0
LINE
8
Layer 1
10
216.648952
20
76.703576
11
215.703904
21
75.083952
0
LINE
8
Layer 1
10
215.703904
20
75.083952
11
216.382380
21
75.605277
0
LINE
8
Layer 1
10
216.382380
20
75.605277
11
217.065524
21
75.933182
0
LINE
8
Layer 1
10
217.065524
20
75.933182
11
217.736608
21
76.088876
0
LINE
8
Layer 1
10
217.736608
20
76.088876
11
218.378905
21
76.093570
0
LINE
8
Layer 1
10
218.378905
20
76.093570
11
219.510225
21
75.734795
0
LINE
8
Layer 1
10
219.510225
20
75.734795
11
220.325662
21
75.026537
0
LINE
8
Layer 1
10
220.325662
20
75.026537
11
220.691394
21
74.138474
0
LINE
8
Layer 1
10
220.691394
20
74.138474
11
220.663801
21
73.680041
0
LINE
8
Layer 1
10
220.663801
20
73.680041
11
220.473598
21
73.240287
0
LINE
8
Layer 1
10
220.473598
20
73.240287
11
220.104059
21
72.840422
0
LINE
8
Layer 1
10
220.104059
20
72.840422
11
219.538455
21
72.501655
0
LINE
8
Layer 1
10
219.538455
20
72.501655
11
218.760057
21
72.245196
0
LINE
8
Layer 1
10
218.760057
20
72.245196
11
217.752140
21
72.092256
0
LINE
8
Layer 1
10
217.752140
20
72.092256
11
217.095450
21
71.882279
0
LINE
8
Layer 1
10
217.095450
20
71.882279
11
216.614795
21
71.554085
0
LINE
8
Layer 1
10
216.614795
20
71.554085
11
216.293978
21
71.134285
0
LINE
8
Layer 1
10
216.293978
20
71.134285
11
216.116801
21
70.649489
0
LINE
8
Layer 1
10
216.116801
20
70.649489
11
216.128578
21
69.591353
0
LINE
8
Layer 1
10
216.128578
20
69.591353
11
216.520545
21
68.592566
0
LINE
8
Layer 1
10
216.520545
20
68.592566
11
217.163122
21
67.866015
0
LINE
8
Layer 1
10
217.163122
20
67.866015
11
217.537895
21
67.671355
0
LINE
8
Layer 1
10
217.537895
20
67.671355
11
217.926728
21
67.624588
0
LINE
8
Layer 1
10
217.926728
20
67.624588
11
218.313423
21
67.752323
0
LINE
8
Layer 1
10
218.313423
20
67.752323
11
218.681783
21
68.081172
0
LINE
8
Layer 1
10
218.681783
20
68.081172
11
219.015610
21
68.637745
0
LINE
8
Layer 1
10
219.015610
20
68.637745
11
219.298706
21
69.448655
0
LINE
8
Layer 1
10
219.298706
20
69.448655
11
220.253192
21
70.377385
0
LINE
8
Layer 1
10
220.253192
20
70.377385
11
221.626765
21
71.065828
0
LINE
8
Layer 1
10
221.626765
20
71.065828
11
223.170928
21
71.484288
0
LINE
8
Layer 1
10
223.170928
20
71.484288
11
224.637183
21
71.603071
0
LINE
8
Layer 1
10
224.637183
20
71.603071
11
225.777033
21
71.392482
0
LINE
8
Layer 1
10
225.777033
20
71.392482
11
226.146900
21
71.154394
0
LINE
8
Layer 1
10
226.146900
20
71.154394
11
226.341980
21
70.822827
0
LINE
8
Layer 1
10
226.341980
20
70.822827
11
226.331210
21
70.394070
0
LINE
8
Layer 1
10
226.331210
20
70.394070
11
226.083528
21
69.864412
0
LINE
8
Layer 1
10
226.083528
20
69.864412
11
224.753178
21
68.487541
0
LINE
8
Layer 1
10
224.753178
20
68.487541
11
223.624160
21
68.246655
0
LINE
8
Layer 1
10
223.624160
20
68.246655
11
222.593190
21
67.689172
0
LINE
8
Layer 1
10
222.593190
20
67.689172
11
221.745413
21
66.948834
0
LINE
8
Layer 1
10
221.745413
20
66.948834
11
221.165977
21
66.159386
0
LINE
8
Layer 1
10
221.165977
20
66.159386
11
220.940028
21
65.454568
0
LINE
8
Layer 1
10
220.940028
20
65.454568
11
221.152711
21
64.968124
0
LINE
8
Layer 1
10
221.152711
20
64.968124
11
221.889173
21
64.833797
0
LINE
8
Layer 1
10
221.889173
20
64.833797
11
223.234560
21
65.185330
0
LINE
8
Layer 1
10
223.234560
20
65.185330
11
223.562645
21
65.794573
0
LINE
8
Layer 1
10
223.562645
20
65.794573
11
224.067082
21
66.329701
0
LINE
8
Layer 1
10
224.067082
20
66.329701
11
225.458084
21
67.166510
0
LINE
8
Layer 1
10
225.458084
20
67.166510
11
227.113714
21
67.673555
0
LINE
8
Layer 1
10
227.113714
20
67.673555
11
228.740117
21
67.828635
0
LINE
8
Layer 1
10
228.740117
20
67.828635
11
230.043442
21
67.609550
0
LINE
8
Layer 1
10
230.043442
20
67.609550
11
230.482120
21
67.352758
0
LINE
8
Layer 1
10
230.482120
20
67.352758
11
230.729834
21
66.994099
0
LINE
8
Layer 1
10
230.729834
20
66.994099
11
230.749851
21
66.530798
0
LINE
8
Layer 1
10
230.749851
20
66.530798
11
230.505441
21
65.960080
0
LINE
8
Layer 1
10
230.505441
20
65.960080
11
229.959870
21
65.279171
0
LINE
8
Layer 1
10
229.959870
20
65.279171
11
229.076408
21
64.485294
0
LINE
8
Layer 1
10
229.076408
20
64.485294
11
227.503847
21
64.315198
0
LINE
8
Layer 1
10
227.503847
20
64.315198
11
226.453935
21
63.937745
0
LINE
8
Layer 1
10
226.453935
20
63.937745
11
225.882683
21
63.406114
0
LINE
8
Layer 1
10
225.882683
20
63.406114
11
225.746106
21
62.773487
0
LINE
8
Layer 1
10
225.746106
20
62.773487
11
226.000216
21
62.093042
0
LINE
8
Layer 1
10
226.000216
20
62.093042
11
226.601026
21
61.417960
0
LINE
8
Layer 1
10
226.601026
20
61.417960
11
227.504550
21
60.801421
0
LINE
8
Layer 1
10
227.504550
20
60.801421
11
228.666799
21
60.296606
0
LINE
8
Layer 1
10
228.666799
20
60.296606
11
230.946993
21
61.949455
0
LINE
8
Layer 1
10
230.946993
20
61.949455
11
232.514738
21
62.874437
0
LINE
8
Layer 1
10
232.514738
20
62.874437
11
234.126809
21
63.640485
0
LINE
8
Layer 1
10
234.126809
20
63.640485
11
235.602627
21
64.079118
0
LINE
8
Layer 1
10
235.602627
20
64.079118
11
236.233011
21
64.123004
0
LINE
8
Layer 1
10
236.233011
20
64.123004
11
236.761614
21
64.021856
0
LINE
8
Layer 1
10
236.761614
20
64.021856
11
237.165865
21
63.754614
0
LINE
8
Layer 1
10
237.165865
20
63.754614
11
237.423191
21
63.300219
0
LINE
8
Layer 1
10
237.423191
20
63.300219
11
237.511019
21
62.637609
0
LINE
8
Layer 1
10
237.511019
20
62.637609
11
237.406778
21
61.745726
0
LINE
8
Layer 1
10
237.406778
20
61.745726
11
235.242425
21
60.470773
0
LINE
8
Layer 1
10
235.242425
20
60.470773
11
232.800138
21
58.951263
0
LINE
8
Layer 1
10
232.800138
20
58.951263
11
232.012054
21
58.184804
0
LINE
8
Layer 1
10
232.012054
20
58.184804
11
231.820301
21
57.814775
0
LINE
8
Layer 1
10
231.820301
20
57.814775
11
231.799227
21
57.459213
0
LINE
8
Layer 1
10
231.799227
20
57.459213
11
231.975697
21
57.122368
0
LINE
8
Layer 1
10
231.975697
20
57.122368
11
232.376573
21
56.808490
0
LINE
8
Layer 1
10
232.376573
20
56.808490
11
233.959005
21
56.266639
0
LINE
8
Layer 1
10
233.959005
20
56.266639
11
234.675008
21
57.260409
0
LINE
8
Layer 1
10
234.675008
20
57.260409
11
235.753492
21
58.116645
0
LINE
8
Layer 1
10
235.753492
20
58.116645
11
237.002314
21
58.769113
0
LINE
8
Layer 1
10
237.002314
20
58.769113
11
238.229331
21
59.151580
0
LINE
8
Layer 1
10
238.229331
20
59.151580
11
239.242399
21
59.197812
0
LINE
8
Layer 1
10
239.242399
20
59.197812
11
239.608657
21
59.074142
0
LINE
8
Layer 1
10
239.608657
20
59.074142
11
239.849374
21
58.841576
0
LINE
8
Layer 1
10
239.849374
20
58.841576
11
239.940532
21
58.491835
0
LINE
8
Layer 1
10
239.940532
20
58.491835
11
239.858114
21
58.016640
0
LINE
8
Layer 1
10
239.858114
20
58.016640
11
239.076476
21
56.656769
0
LINE
8
Layer 1
10
239.076476
20
56.656769
11
237.872114
21
56.152602
0
LINE
8
Layer 1
10
237.872114
20
56.152602
11
236.694014
21
55.315007
0
LINE
8
Layer 1
10
236.694014
20
55.315007
11
235.658564
21
54.281695
0
LINE
8
Layer 1
10
235.658564
20
54.281695
11
234.882156
21
53.190379
0
LINE
8
Layer 1
10
234.882156
20
53.190379
11
234.481178
21
52.178771
0
LINE
8
Layer 1
10
234.481178
20
52.178771
11
234.457848
21
51.745892
0
LINE
8
Layer 1
10
234.457848
20
51.745892
11
234.572021
21
51.384582
0
LINE
8
Layer 1
10
234.572021
20
51.384582
11
234.838247
21
51.112055
0
LINE
8
Layer 1
10
234.838247
20
51.112055
11
235.271075
21
50.945525
0
LINE
8
Layer 1
10
235.271075
20
50.945525
11
236.694729
21
50.999311
0
LINE
8
Layer 1
10
236.694729
20
50.999311
11
237.414570
21
52.040826
0
LINE
8
Layer 1
10
237.414570
20
52.040826
11
238.544442
21
52.871163
0
LINE
8
Layer 1
10
238.544442
20
52.871163
11
239.867337
21
53.447392
0
LINE
8
Layer 1
10
239.867337
20
53.447392
11
241.166244
21
53.726581
0
LINE
8
Layer 1
10
241.166244
20
53.726581
11
242.224152
21
53.665798
0
LINE
8
Layer 1
10
242.224152
20
53.665798
11
242.594917
21
53.494500
0
LINE
8
Layer 1
10
242.594917
20
53.494500
11
242.824054
21
53.222110
0
LINE
8
Layer 1
10
242.824054
20
53.222110
11
242.884436
21
52.843261
0
LINE
8
Layer 1
10
242.884436
20
52.843261
11
242.748937
21
52.352587
0
LINE
8
Layer 1
10
242.748937
20
52.352587
11
241.781793
21
51.014297
0
LINE
8
Layer 1
10
241.781793
20
51.014297
11
240.515169
21
50.659209
0
LINE
8
Layer 1
10
240.515169
20
50.659209
11
239.514294
21
49.924497
0
LINE
8
Layer 1
10
239.514294
20
49.924497
11
238.815887
21
48.998048
0
LINE
8
Layer 1
10
238.815887
20
48.998048
11
238.456668
21
48.067748
0
LINE
8
Layer 1
10
238.456668
20
48.067748
11
238.473359
21
47.321486
0
LINE
8
Layer 1
10
238.473359
20
47.321486
11
238.634144
21
47.076082
0
LINE
8
Layer 1
10
238.634144
20
47.076082
11
238.902677
21
46.947146
0
LINE
8
Layer 1
10
238.902677
20
46.947146
11
239.781345
21
47.132617
0
LINE
8
Layer 1
10
239.781345
20
47.132617
11
241.146082
21
48.065786
0
LINE
8
Layer 1
10
241.146082
20
48.065786
11
241.416639
21
48.761845
0
LINE
8
Layer 1
10
241.416639
20
48.761845
11
241.798545
21
49.323040
0
LINE
8
Layer 1
10
241.798545
20
49.323040
11
242.797408
21
50.071535
0
LINE
8
Layer 1
10
242.797408
20
50.071535
11
243.944694
21
50.372677
0
LINE
8
Layer 1
10
243.944694
20
50.372677
11
245.042422
21
50.287873
0
LINE
8
Layer 1
10
245.042422
20
50.287873
11
245.892615
21
49.878528
0
LINE
8
Layer 1
10
245.892615
20
49.878528
11
246.163016
21
49.571342
0
LINE
8
Layer 1
10
246.163016
20
49.571342
11
246.297292
21
49.206048
0
LINE
8
Layer 1
10
246.297292
20
49.206048
11
246.270694
21
48.790322
0
LINE
8
Layer 1
10
246.270694
20
48.790322
11
246.058475
21
48.331839
0
LINE
8
Layer 1
10
246.058475
20
48.331839
11
244.978185
21
47.317307
0
LINE
8
Layer 1
10
244.978185
20
47.317307
11
243.349980
21
46.803965
0
LINE
8
Layer 1
10
243.349980
20
46.803965
11
242.821374
21
46.442501
0
LINE
8
Layer 1
10
242.821374
20
46.442501
11
242.463726
21
46.038145
0
LINE
8
Layer 1
10
242.463726
20
46.038145
11
242.203190
21
45.181665
0
LINE
8
Layer 1
10
242.203190
20
45.181665
11
242.452139
21
44.396344
0
LINE
8
Layer 1
10
242.452139
20
44.396344
11
243.094341
21
43.844001
0
LINE
8
Layer 1
10
243.094341
20
43.844001
11
244.013561
21
43.686454
0
LINE
8
Layer 1
10
244.013561
20
43.686454
11
245.093568
21
44.085523
0
LINE
8
Layer 1
10
245.093568
20
44.085523
11
245.657544
21
44.544356
0
LINE
8
Layer 1
10
245.657544
20
44.544356
11
246.218129
21
45.203025
0
LINE
8
Layer 1
10
246.218129
20
45.203025
11
247.607877
21
45.972967
0
LINE
8
Layer 1
10
247.607877
20
45.972967
11
248.747490
21
46.114379
0
LINE
8
Layer 1
10
248.747490
20
46.114379
11
249.586561
21
45.778575
0
LINE
8
Layer 1
10
249.586561
20
45.778575
11
250.074682
21
45.116870
0
LINE
8
Layer 1
10
250.074682
20
45.116870
11
250.161444
21
44.280576
0
LINE
8
Layer 1
10
250.161444
20
44.280576
11
249.796440
21
43.421009
0
LINE
8
Layer 1
10
249.796440
20
43.421009
11
248.929262
21
42.689481
0
LINE
8
Layer 1
10
248.929262
20
42.689481
11
247.509501
21
42.237307
0
LINE
8
Layer 1
10
247.509501
20
42.237307
11
247.476850
21
41.520047
0
LINE
8
Layer 1
10
247.476850
20
41.520047
11
247.636418
21
41.122055
0
LINE
8
Layer 1
10
247.636418
20
41.122055
11
247.959579
21
40.992954
0
LINE
8
Layer 1
10
247.959579
20
40.992954
11
248.417705
21
41.082368
0
LINE
8
Layer 1
10
248.417705
20
41.082368
11
249.624347
21
41.715232
0
LINE
8
Layer 1
10
249.624347
20
41.715232
11
251.027330
21
42.617631
0
LINE
8
Layer 1
10
251.027330
20
42.617631
11
252.397637
21
43.386550
0
LINE
8
Layer 1
10
252.397637
20
43.386550
11
252.998969
21
43.595012
0
LINE
8
Layer 1
10
252.998969
20
43.595012
11
253.506253
21
43.618974
0
LINE
8
Layer 1
10
253.506253
20
43.618974
11
253.890860
21
43.408057
0
LINE
8
Layer 1
10
253.890860
20
43.408057
11
254.124163
21
42.911886
0
LINE
8
Layer 1
10
254.124163
20
42.911886
11
254.177536
21
42.080084
0
LINE
8
Layer 1
10
254.177536
20
42.080084
11
254.022352
21
40.862273
0
LINE
8
Layer 1
10
254.022352
20
40.862273
11
253.067954
21
40.625133
0
LINE
8
Layer 1
10
253.067954
20
40.625133
11
252.391995
21
40.300991
0
LINE
8
Layer 1
10
252.391995
20
40.300991
11
251.968395
21
39.909565
0
LINE
8
Layer 1
10
251.968395
20
39.909565
11
251.771074
21
39.470576
0
LINE
8
Layer 1
10
251.771074
20
39.470576
11
251.773952
21
39.003740
0
LINE
8
Layer 1
10
251.773952
20
39.003740
11
251.950950
21
38.528778
0
LINE
8
Layer 1
10
251.950950
20
38.528778
11
252.722987
21
37.633348
0
LINE
8
Layer 1
10
252.722987
20
37.633348
11
253.878545
21
36.942037
0
LINE
8
Layer 1
10
253.878545
20
36.942037
11
255.208988
21
36.612597
0
LINE
8
Layer 1
10
255.208988
20
36.612597
11
255.874591
21
36.632875
0
LINE
8
Layer 1
10
255.874591
20
36.632875
11
256.505676
21
36.802777
0
LINE
8
Layer 1
10
256.505676
20
36.802777
11
257.076164
21
37.142021
0
LINE
8
Layer 1
10
257.076164
20
37.142021
11
257.559974
21
37.670328
0
LINE
8
Layer 1
10
257.559974
20
37.670328
11
258.127167
21
37.460429
0
LINE
8
Layer 1
10
258.127167
20
37.460429
11
258.478407
21
37.165204
0
LINE
8
Layer 1
10
258.478407
20
37.165204
11
258.645365
21
36.799477
0
LINE
8
Layer 1
10
258.645365
20
36.799477
11
258.659715
21
36.378072
0
LINE
8
Layer 1
10
258.659715
20
36.378072
11
258.357277
21
35.427525
0
LINE
8
Layer 1
10
258.357277
20
35.427525
11
257.824474
21
34.432157
0
LINE
8
Layer 1
10
257.824474
20
34.432157
11
257.314685
21
33.510561
0
LINE
8
Layer 1
10
257.314685
20
33.510561
11
257.081291
21
32.781329
0
LINE
8
Layer 1
10
257.081291
20
32.781329
11
257.147423
21
32.525911
0
LINE
8
Layer 1
10
257.147423
20
32.525911
11
257.377671
21
32.363056
0
LINE
8
Layer 1
10
257.377671
20
32.363056
11
258.457206
21
32.374335
0
LINE
8
Layer 1
10
258.457206
20
32.374335
11
259.189560
21
33.461125
0
LINE
8
Layer 1
10
259.189560
20
33.461125
11
260.279375
21
34.384090
0
LINE
8
Layer 1
10
260.279375
20
34.384090
11
261.545077
21
35.075495
0
LINE
8
Layer 1
10
261.545077
20
35.075495
11
262.805092
21
35.467605
0
LINE
8
Layer 1
10
262.805092
20
35.467605
11
263.877844
21
35.492686
0
LINE
8
Layer 1
10
263.877844
20
35.492686
11
264.287255
21
35.346424
0
LINE
8
Layer 1
10
264.287255
20
35.346424
11
264.581759
21
35.083004
0
LINE
8
Layer 1
10
264.581759
20
35.083004
11
264.738661
21
34.693959
0
LINE
8
Layer 1
10
264.738661
20
34.693959
11
264.735264
21
34.170822
0
LINE
8
Layer 1
10
264.735264
20
34.170822
11
264.156783
21
32.688409
0
LINE
8
Layer 1
10
264.156783
20
32.688409
11
263.348963
21
32.650270
0
LINE
8
Layer 1
10
263.348963
20
32.650270
11
262.671572
21
32.415685
0
LINE
8
Layer 1
10
262.671572
20
32.415685
11
262.119399
21
32.022841
0
LINE
8
Layer 1
10
262.119399
20
32.022841
11
261.687231
21
31.509926
0
LINE
8
Layer 1
10
261.687231
20
31.509926
11
261.162067
21
30.276641
0
LINE
8
Layer 1
10
261.162067
20
30.276641
11
261.054392
21
29.021336
0
LINE
8
Layer 1
10
261.054392
20
29.021336
11
261.322513
21
28.049520
0
LINE
8
Layer 1
10
261.322513
20
28.049520
11
261.584470
21
27.765392
0
LINE
8
Layer 1
10
261.584470
20
27.765392
11
261.924742
21
27.666701
0
LINE
8
Layer 1
10
261.924742
20
27.666701
11
262.338118
21
27.791636
0
LINE
8
Layer 1
10
262.338118
20
27.791636
11
262.819387
21
28.178387
0
LINE
8
Layer 1
10
262.819387
20
28.178387
11
263.964759
21
29.890085
0
LINE
8
Layer 1
10
263.964759
20
29.890085
11
265.714561
21
30.609539
0
LINE
8
Layer 1
10
265.714561
20
30.609539
11
267.109628
21
30.696088
0
LINE
8
Layer 1
10
267.109628
20
30.696088
11
268.095904
21
30.303130
0
LINE
8
Layer 1
10
268.095904
20
30.303130
11
268.619333
21
29.584063
0
LINE
8
Layer 1
10
268.619333
20
29.584063
11
268.625858
21
28.692282
0
LINE
8
Layer 1
10
268.625858
20
28.692282
11
268.061423
21
27.781186
0
LINE
8
Layer 1
10
268.061423
20
27.781186
11
266.871973
21
27.004172
0
LINE
8
Layer 1
10
266.871973
20
27.004172
11
265.003449
21
26.514637
0
LINE
8
Layer 1
10
265.003449
20
26.514637
11
263.990710
21
25.599466
0
LINE
8
Layer 1
10
263.990710
20
25.599466
11
263.704440
21
24.912135
0
LINE
8
Layer 1
10
263.704440
20
24.912135
11
263.994655
21
24.457923
0
LINE
8
Layer 1
10
263.994655
20
24.457923
11
264.711372
21
24.242108
0
LINE
8
Layer 1
10
264.711372
20
24.242108
11
265.704606
21
24.269971
0
LINE
8
Layer 1
10
265.704606
20
24.269971
11
266.824372
21
24.546791
0
LINE
8
Layer 1
10
266.824372
20
24.546791
11
267.920688
21
25.077847
0
LINE
8
Layer 1
10
267.920688
20
25.077847
11
268.843568
21
25.868418
0
LINE
8
Layer 1
10
268.843568
20
25.868418
11
269.502222
21
25.350809
0
LINE
8
Layer 1
10
269.502222
20
25.350809
11
269.838220
21
24.808598
0
LINE
8
Layer 1
10
269.838220
20
24.808598
11
269.902029
21
24.251777
0
LINE
8
Layer 1
10
269.902029
20
24.251777
11
269.744113
21
23.690334
0
LINE
8
Layer 1
10
269.744113
20
23.690334
11
268.964972
21
22.593548
0
LINE
8
Layer 1
10
268.964972
20
22.593548
11
267.904520
21
21.598164
0
LINE
8
Layer 1
10
267.904520
20
21.598164
11
266.966480
21
20.784102
0
LINE
8
Layer 1
10
266.966480
20
20.784102
11
266.554577
21
20.231286
0
LINE
8
Layer 1
10
266.554577
20
20.231286
11
266.672091
21
20.077821
0
LINE
8
Layer 1
10
266.672091
20
20.077821
11
267.072535
21
20.019639
0
LINE
8
Layer 1
10
267.072535
20
20.019639
11
268.924078
21
20.229082
0
LINE
8
Layer 1
10
268.924078
20
20.229082
11
270.736204
21
20.233567
0
LINE
8
Layer 1
10
270.736204
20
20.233567
11
271.845424
21
19.929767
0
LINE
8
Layer 1
10
271.845424
20
19.929767
11
272.335290
21
19.401971
0
LINE
8
Layer 1
10
272.335290
20
19.401971
11
272.289354
21
18.734469
0
LINE
8
Layer 1
10
272.289354
20
18.734469
11
271.791169
21
18.011550
0
LINE
8
Layer 1
10
271.791169
20
18.011550
11
270.924286
21
17.317506
0
LINE
8
Layer 1
10
270.924286
20
17.317506
11
269.772259
21
16.736626
0
LINE
8
Layer 1
10
269.772259
20
16.736626
11
268.418640
21
16.353200
0
LINE
8
Layer 1
10
268.418640
20
16.353200
11
267.518726
21
14.912034
0
LINE
8
Layer 1
10
267.518726
20
14.912034
11
267.525289
21
14.571541
0
LINE
8
Layer 1
10
267.525289
20
14.571541
11
267.776282
21
14.428867
0
LINE
8
Layer 1
10
267.776282
20
14.428867
11
268.831804
21
14.570252
0
LINE
8
Layer 1
10
268.831804
20
14.570252
11
270.325785
21
15.002741
0
LINE
8
Layer 1
10
270.325785
20
15.002741
11
271.898722
21
15.392887
0
LINE
8
Layer 1
10
271.898722
20
15.392887
11
273.191109
21
15.407243
0
LINE
8
Layer 1
10
273.191109
20
15.407243
11
273.619750
21
15.169298
0
LINE
8
Layer 1
10
273.619750
20
15.169298
11
273.843440
21
14.712361
0
LINE
8
Layer 1
10
273.843440
20
14.712361
11
273.817239
21
13.994754
0
LINE
8
Layer 1
10
273.817239
20
13.994754
11
273.496210
21
12.974794
0
LINE
8
Layer 1
10
273.496210
20
12.974794
11
272.738037
21
12.448903
0
LINE
8
Layer 1
10
272.738037
20
12.448903
11
271.781181
21
11.977468
0
LINE
8
Layer 1
10
271.781181
20
11.977468
11
269.812237
21
11.024010
0
LINE
8
Layer 1
10
269.812237
20
11.024010
11
269.070557
21
10.455006
0
LINE
8
Layer 1
10
269.070557
20
10.455006
11
268.671009
21
9.766498
0
LINE
8
Layer 1
10
268.671009
20
9.766498
11
268.748797
21
8.914996
0
LINE
8
Layer 1
10
268.748797
20
8.914996
11
269.439125
21
7.857010
0
LINE
8
Layer 1
10
269.439125
20
7.857010
11
270.513077
21
9.032441
0
LINE
8
Layer 1
10
270.513077
20
9.032441
11
271.392995
21
9.453641
0
LINE
8
Layer 1
10
271.392995
20
9.453641
11
272.045494
21
9.271563
0
LINE
8
Layer 1
10
272.045494
20
9.271563
11
272.437187
21
8.637159
0
LINE
8
Layer 1
10
272.437187
20
8.637159
11
272.534687
21
7.701382
0
LINE
8
Layer 1
10
272.534687
20
7.701382
11
272.304610
21
6.615182
0
LINE
8
Layer 1
10
272.304610
20
6.615182
11
271.713569
21
5.529513
0
LINE
8
Layer 1
10
271.713569
20
5.529513
11
270.728178
21
4.595326
0
LINE
8
Layer 1
10
270.728178
20
4.595326
11
270.246035
21
3.906029
0
LINE
8
Layer 1
10
270.246035
20
3.906029
11
269.850806
21
2.893781
0
LINE
8
Layer 1
10
269.850806
20
2.893781
11
269.384737
21
0.691485
0
LINE
8
Layer 1
10
269.384737
20
0.691485
11
269.345721
21
-0.103041
0
LINE
8
Layer 1
10
269.345721
20
-0.103041
11
269.457268
21
-0.429467
0
LINE
8
Layer 1
10
269.457268
20
-0.429467
11
269.735291
21
-0.090034
0
LINE
8
Layer 1
10
269.735291
20
-0.090034
11
270.195700
21
1.113022
0
LINE
8
Layer 1
10
270.195700
20
1.113022
11
272.044199
21
3.633340
0
LINE
8
Layer 1
10
272.044199
20
3.633340
11
273.145890
21
4.805135
0
LINE
8
Layer 1
10
273.145890
20
4.805135
11
274.366846
21
5.851536
0
LINE
8
Layer 1
10
274.366846
20
5.851536
11
275.707793
21
6.722681
0
LINE
8
Layer 1
10
275.707793
20
6.722681
11
277.169459
21
7.368707
0
LINE
8
Layer 1
10
277.169459
20
7.368707
11
278.752571
21
7.739751
0
LINE
8
Layer 1
10
278.752571
20
7.739751
11
280.457856
21
7.785949
0
LINE
8
Layer 1
10
280.457856
20
7.785949
11
282.306577
21
7.933645
0
LINE
8
Layer 1
10
282.306577
20
7.933645
11
284.154607
21
7.895360
0
LINE
8
Layer 1
10
284.154607
20
7.895360
11
285.976267
21
7.669490
0
LINE
8
Layer 1
10
285.976267
20
7.669490
11
287.745872
21
7.254432
0
LINE
8
Layer 1
10
287.745872
20
7.254432
11
289.437742
21
6.648581
0
LINE
8
Layer 1
10
289.437742
20
6.648581
11
291.026194
21
5.850333
0
LINE
8
Layer 1
10
291.026194
20
5.850333
11
292.485546
21
4.858085
0
LINE
8
Layer 1
10
292.485546
20
4.858085
11
293.790116
21
3.670232
0
LINE
8
Layer 1
10
293.790116
20
3.670232
11
294.475313
21
3.344507
0
LINE
8
Layer 1
10
294.475313
20
3.344507
11
295.194999
21
2.592459
0
LINE
8
Layer 1
10
295.194999
20
2.592459
11
296.611135
21
0.557054
0
LINE
8
Layer 1
10
296.611135
20
0.557054
11
297.244234
21
-0.352472
0
LINE
8
Layer 1
10
297.244234
20
-0.352472
11
297.785119
21
-0.940659
0
LINE
8
Layer 1
10
297.785119
20
-0.940659
11
298.202115
21
-1.020592
0
LINE
8
Layer 1
10
298.202115
20
-1.020592
11
298.463547
21
-0.405356
0
LINE
8
Layer 1
10
298.463547
20
-0.405356
11
298.463547
21
-0.405367
0
LINE
8
Layer 1
10
226.498305
20
-1.192457
11
227.070741
21
-0.816730
0
LINE
8
Layer 1
10
227.070741
20
-0.816730
11
227.628856
21
-0.660454
0
LINE
8
Layer 1
10
227.628856
20
-0.660454
11
228.171630
21
-0.402629
0
LINE
8
Layer 1
10
228.171630
20
-0.402629
11
228.587966
21
0.218362
0
LINE
8
Layer 1
10
228.587966
20
0.218362
11
228.777229
21
0.973795
0
LINE
8
Layer 1
10
228.777229
20
0.973795
11
228.638786
21
1.634944
0
LINE
8
Layer 1
10
228.638786
20
1.634944
11
228.410160
21
2.196306
0
LINE
8
Layer 1
10
228.410160
20
2.196306
11
228.325015
21
2.825751
0
LINE
8
Layer 1
10
228.325015
20
2.825751
11
228.386255
21
3.379555
0
LINE
8
Layer 1
10
228.386255
20
3.379555
11
228.596783
21
3.713991
0
LINE
8
Layer 1
10
228.596783
20
3.713991
11
228.877970
21
3.988519
0
LINE
8
Layer 1
10
228.877970
20
3.988519
11
228.796440
21
4.212800
0
LINE
8
Layer 1
10
228.796440
20
4.212800
11
228.382248
21
4.364065
0
LINE
8
Layer 1
10
228.382248
20
4.364065
11
227.665449
21
4.419546
0
LINE
8
Layer 1
10
227.665449
20
4.419546
11
226.715908
21
4.512014
0
LINE
8
Layer 1
10
226.715908
20
4.512014
11
226.137109
21
4.734331
0
LINE
8
Layer 1
10
226.137109
20
4.734331
11
225.492241
21
4.956651
0
LINE
8
Layer 1
10
225.492241
20
4.956651
11
224.383860
21
5.049119
0
LINE
8
Layer 1
10
224.383860
20
5.049119
11
223.322622
21
5.122456
0
LINE
8
Layer 1
10
223.322622
20
5.122456
11
222.791102
21
5.298776
0
LINE
8
Layer 1
10
222.791102
20
5.298776
11
222.496345
21
5.475098
0
LINE
8
Layer 1
10
222.496345
20
5.475098
11
222.004348
21
5.548435
0
LINE
8
Layer 1
10
222.004348
20
5.548435
11
221.103783
21
5.812587
0
LINE
8
Layer 1
10
221.103783
20
5.812587
11
220.417013
21
6.020496
0
LINE
8
Layer 1
10
220.417013
20
6.020496
11
219.142338
21
6.149422
0
LINE
8
Layer 1
10
219.142338
20
6.149422
11
217.166783
21
6.419429
0
LINE
8
Layer 1
10
217.166783
20
6.419429
11
215.544005
21
6.719629
0
LINE
8
Layer 1
10
215.544005
20
6.719629
11
214.447645
21
6.712154
0
LINE
8
Layer 1
10
214.447645
20
6.712154
11
214.253130
21
6.574188
0
LINE
8
Layer 1
10
214.253130
20
6.574188
11
214.203449
21
6.319596
0
LINE
8
Layer 1
10
214.203449
20
6.319596
11
213.995293
21
5.884860
0
LINE
8
Layer 1
10
213.995293
20
5.884860
11
213.492834
21
5.546511
0
LINE
8
Layer 1
10
213.492834
20
5.546511
11
212.914776
21
5.155322
0
LINE
8
Layer 1
10
212.914776
20
5.155322
11
212.522870
21
4.594200
0
LINE
8
Layer 1
10
212.522870
20
4.594200
11
212.169193
21
3.993009
0
LINE
8
Layer 1
10
212.169193
20
3.993009
11
211.683058
21
3.505491
0
LINE
8
Layer 1
10
211.683058
20
3.505491
11
211.307614
21
3.155702
0
LINE
8
Layer 1
10
211.307614
20
3.155702
11
211.343847
21
2.913162
0
LINE
8
Layer 1
10
211.343847
20
2.913162
11
211.799324
21
2.771966
0
LINE
8
Layer 1
10
211.799324
20
2.771966
11
212.681608
21
2.726213
0
LINE
8
Layer 1
10
212.681608
20
2.726213
11
213.584799
21
2.643310
0
LINE
8
Layer 1
10
213.584799
20
2.643310
11
214.062338
21
2.443991
0
LINE
8
Layer 1
10
214.062338
20
2.443991
11
214.382996
21
2.244671
0
LINE
8
Layer 1
10
214.382996
20
2.244671
11
214.909005
21
2.161769
0
LINE
8
Layer 1
10
214.909005
20
2.161769
11
215.435013
21
2.078866
0
LINE
8
Layer 1
10
215.435013
20
2.078866
11
215.755672
21
1.879546
0
LINE
8
Layer 1
10
215.755672
20
1.879546
11
216.120152
21
1.680227
0
LINE
8
Layer 1
10
216.120152
20
1.680227
11
216.751521
21
1.597324
0
LINE
8
Layer 1
10
216.751521
20
1.597324
11
217.626856
21
1.431519
0
LINE
8
Layer 1
10
217.626856
20
1.431519
11
218.577894
21
1.032880
0
LINE
8
Layer 1
10
218.577894
20
1.032880
11
219.523673
21
0.634241
0
LINE
8
Layer 1
10
219.523673
20
0.634241
11
220.386365
21
0.468435
0
LINE
8
Layer 1
10
220.386365
20
0.468435
11
221.060467
21
0.339977
0
LINE
8
Layer 1
10
221.060467
20
0.339977
11
221.552821
21
0.031132
0
LINE
8
Layer 1
10
221.552821
20
0.031132
11
223.122484
21
-0.955904
0
LINE
8
Layer 1
10
223.122484
20
-0.955904
11
224.511195
21
-1.800078
0
LINE
8
Layer 1
10
224.511195
20
-1.800078
11
224.816144
21
-1.961001
0
LINE
8
Layer 1
10
224.816144
20
-1.961001
11
225.313827
21
-1.893543
0
LINE
8
Layer 1
10
225.313827
20
-1.893543
11
225.906972
21
-1.627448
0
LINE
8
Layer 1
10
225.906972
20
-1.627448
11
226.498305
21
-1.192459
0
LINE
8
Layer 1
10
226.498305
20
-1.192459
11
226.498305
21
-1.192457
0
LINE
8
Layer 1
10
214.415116
20
48.909486
11
213.870439
21
49.400745
0
LINE
8
Layer 1
10
213.870439
20
49.400745
11
213.637596
21
50.052644
0
LINE
8
Layer 1
10
213.637596
20
50.052644
11
213.728954
21
50.747444
0
LINE
8
Layer 1
10
213.728954
20
50.747444
11
214.156883
21
51.367408
0
LINE
8
Layer 1
10
214.156883
20
51.367408
11
214.734880
21
51.694081
0
LINE
8
Layer 1
10
214.734880
20
51.694081
11
215.582850
21
51.383071
0
LINE
8
Layer 1
10
215.582850
20
51.383071
11
216.073191
21
51.105094
0
LINE
8
Layer 1
10
216.073191
20
51.105094
11
216.335339
21
50.817550
0
LINE
8
Layer 1
10
216.335339
20
50.817550
11
216.405528
21
49.758693
0
LINE
8
Layer 1
10
216.405528
20
49.758693
11
216.242853
21
48.961778
0
LINE
8
Layer 1
10
216.242853
20
48.961778
11
215.878863
21
48.563979
0
LINE
8
Layer 1
10
215.878863
20
48.563979
11
215.280602
21
48.551236
0
LINE
8
Layer 1
10
215.280602
20
48.551236
11
214.415116
21
48.909489
0
LINE
8
Layer 1
10
214.415116
20
48.909489
11
214.415116
21
48.909486
0
LINE
8
Layer 1
10
192.386661
20
48.923880
11
191.969893
21
49.180724
0
LINE
8
Layer 1
10
191.969893
20
49.180724
11
191.742433
21
49.465998
0
LINE
8
Layer 1
10
191.742433
20
49.465998
11
191.681106
21
50.514970
0
LINE
8
Layer 1
10
191.681106
20
50.514970
11
191.749246
21
51.179970
0
LINE
8
Layer 1
10
191.749246
20
51.179970
11
191.889995
21
51.531036
0
LINE
8
Layer 1
10
191.889995
20
51.531036
11
192.194663
21
51.668269
0
LINE
8
Layer 1
10
192.194663
20
51.668269
11
192.754560
21
51.691769
0
LINE
8
Layer 1
10
192.754560
20
51.691769
11
193.742338
21
51.691769
0
LINE
8
Layer 1
10
193.742338
20
51.691769
11
193.742338
21
50.163064
0
LINE
8
Layer 1
10
193.742338
20
50.163064
11
193.659435
21
49.065091
0
LINE
8
Layer 1
10
193.659435
20
49.065091
11
193.460116
21
48.571971
0
LINE
8
Layer 1
10
193.460116
20
48.571971
11
192.386661
21
48.923880
0
LINE
8
Layer 1
10
192.386661
20
48.923880
11
192.386661
21
48.923880
0
LINE
8
Layer 1
10
201.200628
20
47.239902
11
200.350569
21
48.619685
0
LINE
8
Layer 1
10
200.350569
20
48.619685
11
200.092338
21
50.003464
0
LINE
8
Layer 1
10
200.092338
20
50.003464
11
200.197560
21
50.700855
0
LINE
8
Layer 1
10
200.197560
20
50.700855
11
200.486928
21
51.133029
0
LINE
8
Layer 1
10
200.486928
20
51.133029
11
200.920999
21
51.269009
0
LINE
8
Layer 1
10
200.920999
20
51.269009
11
201.460329
21
51.077817
0
LINE
8
Layer 1
10
201.460329
20
51.077817
11
201.991721
21
50.558539
0
LINE
8
Layer 1
10
201.991721
20
50.558539
11
202.445727
21
49.824851
0
LINE
8
Layer 1
10
202.445727
20
49.824851
11
202.709416
21
49.105409
0
LINE
8
Layer 1
10
202.709416
20
49.105409
11
202.669857
21
48.628864
0
LINE
8
Layer 1
10
202.669857
20
48.628864
11
202.306603
21
47.621653
0
LINE
8
Layer 1
10
202.306603
20
47.621653
11
202.154516
21
47.105806
0
LINE
8
Layer 1
10
202.154516
20
47.105806
11
201.901669
21
46.864081
0
LINE
8
Layer 1
10
201.901669
20
46.864081
11
201.574795
21
46.905704
0
LINE
8
Layer 1
10
201.574795
20
46.905704
11
201.200628
21
47.239902
0
LINE
8
Layer 1
10
201.200628
20
47.239902
11
201.200628
21
47.239902
0
LINE
8
Layer 1
10
152.769203
20
35.393435
11
152.021526
21
36.524224
0
LINE
8
Layer 1
10
152.021526
20
36.524224
11
151.448155
21
37.161126
0
LINE
8
Layer 1
10
151.448155
20
37.161126
11
152.268309
21
38.017182
0
LINE
8
Layer 1
10
152.268309
20
38.017182
11
153.092036
21
38.695628
0
LINE
8
Layer 1
10
153.092036
20
38.695628
11
153.713364
21
38.807089
0
LINE
8
Layer 1
10
153.713364
20
38.807089
11
154.124704
21
38.354073
0
LINE
8
Layer 1
10
154.124704
20
38.354073
11
154.318468
21
37.339092
0
LINE
8
Layer 1
10
154.318468
20
37.339092
11
154.275040
21
36.159928
0
LINE
8
Layer 1
10
154.275040
20
36.159928
11
153.921948
21
35.434092
0
LINE
8
Layer 1
10
153.921948
20
35.434092
11
153.519376
21
35.057571
0
LINE
8
Layer 1
10
153.519376
20
35.057571
11
153.203972
21
34.925672
0
LINE
8
Layer 1
10
153.203972
20
34.925672
11
152.959370
21
35.037819
0
LINE
8
Layer 1
10
152.959370
20
35.037819
11
152.769203
21
35.393435
0
LINE
8
Layer 1
10
152.769203
20
35.393435
11
152.769203
21
35.393435
0
LINE
8
Layer 1
10
159.977796
20
28.055657
11
159.383500
21
28.878889
0
LINE
8
Layer 1
10
159.383500
20
28.878889
11
159.058943
21
29.601103
0
LINE
8
Layer 1
10
159.058943
20
29.601103
11
158.994565
21
30.256150
0
LINE
8
Layer 1
10
158.994565
20
30.256150
11
159.180809
21
30.877880
0
LINE
8
Layer 1
10
159.180809
20
30.877880
11
159.695187
21
31.783703
0
LINE
8
Layer 1
10
159.695187
20
31.783703
11
160.202720
21
32.320016
0
LINE
8
Layer 1
10
160.202720
20
32.320016
11
160.831625
21
32.576233
0
LINE
8
Layer 1
10
160.831625
20
32.576233
11
161.710116
21
32.641769
0
LINE
8
Layer 1
10
161.710116
20
32.641769
11
162.829670
21
32.518805
0
LINE
8
Layer 1
10
162.829670
20
32.518805
11
163.500819
21
32.125658
0
LINE
8
Layer 1
10
163.500819
20
32.125658
11
163.854704
21
31.508026
0
LINE
8
Layer 1
10
163.854704
20
31.508026
11
163.964415
21
30.821587
0
LINE
8
Layer 1
10
163.964415
20
30.821587
11
163.832846
21
30.234984
0
LINE
8
Layer 1
10
163.832846
20
30.234984
11
163.462894
21
29.916865
0
LINE
8
Layer 1
10
163.462894
20
29.916865
11
163.026597
21
29.647170
0
LINE
8
Layer 1
10
163.026597
20
29.647170
11
162.686783
21
29.184202
0
LINE
8
Layer 1
10
162.686783
20
29.184202
11
161.735668
21
28.216413
0
LINE
8
Layer 1
10
161.735668
20
28.216413
11
160.554413
21
27.582396
0
LINE
8
Layer 1
10
160.554413
20
27.582396
11
159.977796
21
28.055657
0
LINE
8
Layer 1
10
159.977796
20
28.055657
11
159.977796
21
28.055657
0
LINE
8
Layer 1
10
152.326227
20
25.772660
11
151.781629
21
26.260106
0
LINE
8
Layer 1
10
151.781629
20
26.260106
11
151.548378
21
26.910118
0
LINE
8
Layer 1
10
151.548378
20
26.910118
11
151.639051
21
27.604132
0
LINE
8
Layer 1
10
151.639051
20
27.604132
11
152.066227
21
28.223583
0
LINE
8
Layer 1
10
152.066227
20
28.223583
11
152.555072
21
28.562089
0
LINE
8
Layer 1
10
152.555072
20
28.562089
11
153.019961
21
28.666873
0
LINE
8
Layer 1
10
153.019961
20
28.666873
11
153.467742
21
28.537754
0
LINE
8
Layer 1
10
153.467742
20
28.537754
11
153.905263
21
28.174546
0
LINE
8
Layer 1
10
153.905263
20
28.174546
11
154.248205
21
27.593229
0
LINE
8
Layer 1
10
154.248205
20
27.593229
11
154.353049
21
26.935288
0
LINE
8
Layer 1
10
154.353049
20
26.935288
11
154.221741
21
26.296106
0
LINE
8
Layer 1
10
154.221741
20
26.296106
11
153.856227
21
25.771066
0
LINE
8
Layer 1
10
153.856227
20
25.771066
11
153.511049
21
25.470143
0
LINE
8
Layer 1
10
153.511049
20
25.470143
11
153.251628
21
25.369996
0
LINE
8
Layer 1
10
153.251628
20
25.369996
11
152.326227
21
25.772759
0
LINE
8
Layer 1
10
152.326227
20
25.772759
11
152.326227
21
25.772660
0
LINE
8
Layer 1
10
47.244745
20
25.688773
11
47.176131
21
26.765131
0
LINE
8
Layer 1
10
47.176131
20
26.765131
11
47.438304
21
27.296645
0
LINE
8
Layer 1
10
47.438304
20
27.296645
11
48.256783
21
27.420657
0
LINE
8
Layer 1
10
48.256783
20
27.420657
11
48.807998
21
27.398609
0
LINE
8
Layer 1
10
48.807998
20
27.398609
11
49.103449
21
27.279546
0
LINE
8
Layer 1
10
49.103449
20
27.279546
11
49.222512
21
26.984095
0
LINE
8
Layer 1
10
49.222512
20
26.984095
11
49.244560
21
26.432880
0
LINE
8
Layer 1
10
49.244560
20
26.432880
11
49.102023
21
25.584543
0
LINE
8
Layer 1
10
49.102023
20
25.584543
11
48.825691
21
25.431308
0
LINE
8
Layer 1
10
48.825691
20
25.431308
11
48.325397
21
25.356521
0
LINE
8
Layer 1
10
48.325397
20
25.356521
11
47.594536
21
25.394542
0
LINE
8
Layer 1
10
47.594536
20
25.394542
11
47.244745
21
25.688773
0
LINE
8
Layer 1
10
47.244745
20
25.688773
11
47.244745
21
25.688773
0
LINE
8
Layer 1
10
118.441806
20
21.015545
11
117.928735
21
21.649322
0
LINE
8
Layer 1
10
117.928735
20
21.649322
11
117.720602
21
22.186577
0
LINE
8
Layer 1
10
117.720602
20
22.186577
11
117.812509
21
22.670325
0
LINE
8
Layer 1
10
117.812509
20
22.670325
11
118.199560
21
23.143583
0
LINE
8
Layer 1
10
118.199560
20
23.143583
11
118.748160
21
23.512722
0
LINE
8
Layer 1
10
118.748160
20
23.512722
11
119.236170
21
23.566460
0
LINE
8
Layer 1
10
119.236170
20
23.566460
11
119.671402
21
23.303020
0
LINE
8
Layer 1
10
119.671402
20
23.303020
11
120.061668
21
22.720630
0
LINE
8
Layer 1
10
120.061668
20
22.720630
11
120.379631
21
22.001715
0
LINE
8
Layer 1
10
120.379631
20
22.001715
11
120.476004
21
21.491450
0
LINE
8
Layer 1
10
120.476004
20
21.491450
11
120.347182
21
21.088384
0
LINE
8
Layer 1
10
120.347182
20
21.088384
11
119.989560
21
20.691066
0
LINE
8
Layer 1
10
119.989560
20
20.691066
11
119.591820
21
20.356650
0
LINE
8
Layer 1
10
119.591820
20
20.356650
11
119.299716
21
20.278621
0
LINE
8
Layer 1
10
119.299716
20
20.278621
11
118.441806
21
21.015545
0
LINE
8
Layer 1
10
118.441806
20
21.015545
11
118.441806
21
21.015545
0
LINE
8
Layer 1
10
129.699080
20
19.907490
11
129.722279
21
20.346042
0
LINE
8
Layer 1
10
129.722279
20
20.346042
11
129.993240
21
21.052259
0
LINE
8
Layer 1
10
129.993240
20
21.052259
11
130.475992
21
21.726426
0
LINE
8
Layer 1
10
130.475992
20
21.726426
11
131.044160
21
21.862649
0
LINE
8
Layer 1
10
131.044160
20
21.862649
11
131.509153
21
21.654003
0
LINE
8
Layer 1
10
131.509153
20
21.654003
11
131.725939
21
21.251577
0
LINE
8
Layer 1
10
131.725939
20
21.251577
11
131.678852
21
20.739773
0
LINE
8
Layer 1
10
131.678852
20
20.739773
11
131.352225
21
20.202993
0
LINE
8
Layer 1
10
131.352225
20
20.202993
11
130.914835
21
19.857752
0
LINE
8
Layer 1
10
130.914835
20
19.857752
11
130.432522
21
19.682519
0
LINE
8
Layer 1
10
130.432522
20
19.682519
11
129.996775
21
19.693647
0
LINE
8
Layer 1
10
129.996775
20
19.693647
11
129.699080
21
19.907490
0
LINE
8
Layer 1
10
129.699080
20
19.907490
11
129.699080
21
19.907490
0
LINE
8
Layer 1
10
125.209376
20
19.847695
11
125.025259
21
20.224894
0
LINE
8
Layer 1
10
125.025259
20
20.224894
11
125.016297
21
20.752324
0
LINE
8
Layer 1
10
125.016297
20
20.752324
11
125.406414
21
22.010657
0
LINE
8
Layer 1
10
125.406414
20
22.010657
11
126.144863
21
23.128250
0
LINE
8
Layer 1
10
126.144863
20
23.128250
11
126.571318
21
23.479755
0
LINE
8
Layer 1
10
126.571318
20
23.479755
11
126.996783
21
23.610657
0
LINE
8
Layer 1
10
126.996783
20
23.610657
11
127.446886
21
23.499648
0
LINE
8
Layer 1
10
127.446886
20
23.499648
11
127.825266
21
23.198947
0
LINE
8
Layer 1
10
127.825266
20
23.198947
11
128.317027
21
22.222426
0
LINE
8
Layer 1
10
128.317027
20
22.222426
11
128.372416
21
21.069012
0
LINE
8
Layer 1
10
128.372416
20
21.069012
11
128.205330
21
20.547194
0
LINE
8
Layer 1
10
128.205330
20
20.547194
11
127.891783
21
20.126621
0
LINE
8
Layer 1
10
127.891783
20
20.126621
11
127.310300
21
19.837443
0
LINE
8
Layer 1
10
127.310300
20
19.837443
11
126.498338
21
19.676775
0
LINE
8
Layer 1
10
126.498338
20
19.676775
11
125.712497
21
19.671298
0
LINE
8
Layer 1
10
125.712497
20
19.671298
11
125.209376
21
19.847695
0
LINE
8
Layer 1
10
125.209376
20
19.847695
11
125.209376
21
19.847695
0
LINE
8
Layer 1
10
80.631637
20
19.834318
11
80.440778
21
20.281945
0
LINE
8
Layer 1
10
80.440778
20
20.281945
11
80.455430
21
20.910827
0
LINE
8
Layer 1
10
80.455430
20
20.910827
11
80.648916
21
21.557484
0
LINE
8
Layer 1
10
80.648916
20
21.557484
11
80.994558
21
22.058435
0
LINE
8
Layer 1
10
80.994558
20
22.058435
11
81.560892
21
22.426589
0
LINE
8
Layer 1
10
81.560892
20
22.426589
11
82.137140
21
22.046046
0
LINE
8
Layer 1
10
82.137140
20
22.046046
11
82.553301
21
21.440213
0
LINE
8
Layer 1
10
82.553301
20
21.440213
11
82.631029
21
20.661749
0
LINE
8
Layer 1
10
82.631029
20
20.661749
11
82.406087
21
19.942192
0
LINE
8
Layer 1
10
82.406087
20
19.942192
11
81.689970
21
19.716730
0
LINE
8
Layer 1
10
81.689970
20
19.716730
11
80.631637
21
19.834321
0
LINE
8
Layer 1
10
80.631637
20
19.834321
11
80.631637
21
19.834318
0
LINE
8
Layer 1
10
74.409373
20
17.025473
11
74.230844
21
17.459108
0
LINE
8
Layer 1
10
74.230844
20
17.459108
11
74.243376
21
18.079664
0
LINE
8
Layer 1
10
74.243376
20
18.079664
11
74.420897
21
18.714874
0
LINE
8
Layer 1
10
74.420897
20
18.714874
11
74.737335
21
19.192471
0
LINE
8
Layer 1
10
74.737335
20
19.192471
11
75.162735
21
19.537279
0
LINE
8
Layer 1
10
75.162735
20
19.537279
11
75.456251
21
19.602452
0
LINE
8
Layer 1
10
75.456251
20
19.602452
11
75.715125
21
19.356095
0
LINE
8
Layer 1
10
75.715125
20
19.356095
11
76.036599
21
18.766313
0
LINE
8
Layer 1
10
76.036599
20
18.766313
11
76.339740
21
17.931569
0
LINE
8
Layer 1
10
76.339740
20
17.931569
11
76.013541
21
17.355202
0
LINE
8
Layer 1
10
76.013541
20
17.355202
11
75.613745
21
17.034952
0
LINE
8
Layer 1
10
75.613745
20
17.034952
11
75.166658
21
16.863697
0
LINE
8
Layer 1
10
75.166658
20
16.863697
11
74.741974
21
16.855762
0
LINE
8
Layer 1
10
74.741974
20
16.855762
11
74.409387
21
17.025473
0
LINE
8
Layer 1
10
74.409387
20
17.025473
11
74.409373
21
17.025473
0
LINE
8
Layer 1
10
120.667969
20
15.391934
11
120.682318
21
15.814906
0
LINE
8
Layer 1
10
120.682318
20
15.814906
11
120.942227
21
16.480651
0
LINE
8
Layer 1
10
120.942227
20
16.480651
11
121.786822
21
17.693245
0
LINE
8
Layer 1
10
121.786822
20
17.693245
11
122.236271
21
17.876489
0
LINE
8
Layer 1
10
122.236271
20
17.876489
11
122.768744
21
17.538088
0
LINE
8
Layer 1
10
122.768744
20
17.538088
11
123.164113
21
17.055853
0
LINE
8
Layer 1
10
123.164113
20
17.055853
11
123.303271
21
16.565193
0
LINE
8
Layer 1
10
123.303271
20
16.565193
11
123.185925
21
16.079225
0
LINE
8
Layer 1
10
123.185925
20
16.079225
11
122.811783
21
15.611066
0
LINE
8
Layer 1
10
122.811783
20
15.611066
11
122.281354
21
15.309099
0
LINE
8
Layer 1
10
122.281354
20
15.309099
11
121.630144
21
15.159953
0
LINE
8
Layer 1
10
121.630144
20
15.159953
11
121.033799
21
15.181580
0
LINE
8
Layer 1
10
121.033799
20
15.181580
11
120.667969
21
15.391934
0
LINE
8
Layer 1
10
120.667969
20
15.391934
11
120.667969
21
15.391934
0
LINE
8
Layer 1
10
81.691429
20
14.875820
11
81.796320
21
15.360378
0
LINE
8
Layer 1
10
81.796320
20
15.360378
11
82.366155
21
16.081400
0
LINE
8
Layer 1
10
82.366155
20
16.081400
11
83.030021
21
16.606754
0
LINE
8
Layer 1
10
83.030021
20
16.606754
11
83.500785
21
16.683968
0
LINE
8
Layer 1
10
83.500785
20
16.683968
11
83.754767
21
16.322336
0
LINE
8
Layer 1
10
83.754767
20
16.322336
11
83.768288
21
15.531149
0
LINE
8
Layer 1
10
83.768288
20
15.531149
11
83.527357
21
14.855202
0
LINE
8
Layer 1
10
83.527357
20
14.855202
11
82.784933
21
14.634196
0
LINE
8
Layer 1
10
82.784933
20
14.634196
11
82.096288
21
14.669508
0
LINE
8
Layer 1
10
82.096288
20
14.669508
11
81.691429
21
14.875820
0
LINE
8
Layer 1
10
81.691429
20
14.875820
11
81.691429
21
14.875820
0
LINE
8
Layer 1
10
131.119251
20
13.981681
11
130.727414
21
14.598452
0
LINE
8
Layer 1
10
130.727414
20
14.598452
11
130.724645
21
15.102515
0
LINE
8
Layer 1
10
130.724645
20
15.102515
11
131.088974
21
15.442572
0
LINE
8
Layer 1
10
131.088974
20
15.442572
11
131.798427
21
15.567324
0
LINE
8
Layer 1
10
131.798427
20
15.567324
11
132.347174
21
15.545171
0
LINE
8
Layer 1
10
132.347174
20
15.545171
11
132.641504
21
15.425935
0
LINE
8
Layer 1
10
132.641504
20
15.425935
11
132.760273
21
15.130449
0
LINE
8
Layer 1
10
132.760273
20
15.130449
11
132.782338
21
14.579546
0
LINE
8
Layer 1
10
132.782338
20
14.579546
11
132.664426
21
13.775707
0
LINE
8
Layer 1
10
132.664426
20
13.775707
11
132.202324
21
13.508790
0
LINE
8
Layer 1
10
132.202324
20
13.508790
11
131.644914
21
13.613473
0
LINE
8
Layer 1
10
131.644914
20
13.613473
11
131.119251
21
13.981681
0
LINE
8
Layer 1
10
131.119251
20
13.981681
11
131.119251
21
13.981681
0
LINE
8
Layer 1
10
142.023696
20
17.966213
11
143.120564
21
18.707326
0
LINE
8
Layer 1
10
143.120564
20
18.707326
11
144.547119
21
19.772723
0
LINE
8
Layer 1
10
144.547119
20
19.772723
11
145.011378
21
20.171840
0
LINE
8
Layer 1
10
145.011378
20
20.171840
11
145.277538
21
20.698106
0
LINE
8
Layer 1
10
145.277538
20
20.698106
11
145.290408
21
21.156720
0
LINE
8
Layer 1
10
145.290408
20
21.156720
11
144.994799
21
21.352880
0
LINE
8
Layer 1
10
144.994799
20
21.352880
11
144.398599
21
21.684491
0
LINE
8
Layer 1
10
144.398599
20
21.684491
11
143.506783
21
22.481769
0
LINE
8
Layer 1
10
143.506783
20
22.481769
11
142.638341
21
23.279046
0
LINE
8
Layer 1
10
142.638341
20
23.279046
11
142.098341
21
23.610657
0
LINE
8
Layer 1
10
142.098341
20
23.610657
11
141.473870
21
24.025171
0
LINE
8
Layer 1
10
141.473870
20
24.025171
11
140.402338
21
25.021769
0
LINE
8
Layer 1
10
140.402338
20
25.021769
11
139.329492
21
26.018366
0
LINE
8
Layer 1
10
139.329492
20
26.018366
11
138.701859
21
26.432880
0
LINE
8
Layer 1
10
138.701859
20
26.432880
11
138.272828
21
26.658903
0
LINE
8
Layer 1
10
138.272828
20
26.658903
11
137.686774
21
27.204999
0
LINE
8
Layer 1
10
137.686774
20
27.204999
11
136.788835
21
28.465554
0
LINE
8
Layer 1
10
136.788835
20
28.465554
11
136.292675
21
28.976696
0
LINE
8
Layer 1
10
136.292675
20
28.976696
11
135.336353
21
29.530940
0
LINE
8
Layer 1
10
135.336353
20
29.530940
11
134.429518
21
30.022280
0
LINE
8
Layer 1
10
134.429518
20
30.022280
11
134.052338
21
30.382187
0
LINE
8
Layer 1
10
134.052338
20
30.382187
11
133.923039
21
30.520652
0
LINE
8
Layer 1
10
133.923039
20
30.520652
11
133.612168
21
30.479588
0
LINE
8
Layer 1
10
133.612168
20
30.479588
11
133.242604
21
30.502803
0
LINE
8
Layer 1
10
133.242604
20
30.502803
11
133.014807
21
30.911780
0
LINE
8
Layer 1
10
133.014807
20
30.911780
11
132.799258
21
31.336306
0
LINE
8
Layer 1
10
132.799258
20
31.336306
11
132.501756
21
31.512880
0
LINE
8
Layer 1
10
132.501756
20
31.512880
11
132.140058
21
31.645871
0
LINE
8
Layer 1
10
132.140058
20
31.645871
11
131.770160
21
31.965615
0
LINE
8
Layer 1
10
131.770160
20
31.965615
11
130.747826
21
32.664183
0
LINE
8
Layer 1
10
130.747826
20
32.664183
11
130.291165
21
32.964213
0
LINE
8
Layer 1
10
130.291165
20
32.964213
11
130.101227
21
33.340339
0
LINE
8
Layer 1
10
130.101227
20
33.340339
11
129.916421
21
33.673766
0
LINE
8
Layer 1
10
129.916421
20
33.673766
11
129.391982
21
33.748431
0
LINE
8
Layer 1
10
129.391982
20
33.748431
11
128.572881
21
33.567881
0
LINE
8
Layer 1
10
128.572881
20
33.567881
11
127.504088
21
33.135657
0
LINE
8
Layer 1
10
127.504088
20
33.135657
11
126.237379
21
32.385898
0
LINE
8
Layer 1
10
126.237379
20
32.385898
11
126.273613
21
32.168366
0
LINE
8
Layer 1
10
126.273613
20
32.168366
11
126.714560
21
31.995550
0
LINE
8
Layer 1
10
126.714560
20
31.995550
11
127.139814
21
31.703841
0
LINE
8
Layer 1
10
127.139814
20
31.703841
11
127.279005
21
31.115968
0
LINE
8
Layer 1
10
127.279005
20
31.115968
11
127.387035
21
30.587387
0
LINE
8
Layer 1
10
127.387035
20
30.587387
11
127.667783
21
30.383991
0
LINE
8
Layer 1
10
127.667783
20
30.383991
11
128.052728
21
30.251000
0
LINE
8
Layer 1
10
128.052728
20
30.251000
11
128.432295
21
29.931256
0
LINE
8
Layer 1
10
128.432295
20
29.931256
11
129.454628
21
29.232688
0
LINE
8
Layer 1
10
129.454628
20
29.232688
11
129.911289
21
28.932658
0
LINE
8
Layer 1
10
129.911289
20
28.932658
11
130.101227
21
28.556531
0
LINE
8
Layer 1
10
130.101227
20
28.556531
11
130.233343
21
28.252619
0
LINE
8
Layer 1
10
130.233343
20
28.252619
11
130.550982
21
28.126213
0
LINE
8
Layer 1
10
130.550982
20
28.126213
11
130.911980
21
27.960407
0
LINE
8
Layer 1
10
130.911980
20
27.960407
11
131.148342
21
27.561769
0
LINE
8
Layer 1
10
131.148342
20
27.561769
11
131.369326
21
27.163130
0
LINE
8
Layer 1
10
131.369326
20
27.163130
11
131.693350
21
26.997324
0
LINE
8
Layer 1
10
131.693350
20
26.997324
11
132.047063
21
26.810793
0
LINE
8
Layer 1
10
132.047063
20
26.810793
11
132.339424
21
26.362324
0
LINE
8
Layer 1
10
132.339424
20
26.362324
11
132.862266
21
25.582244
0
LINE
8
Layer 1
10
132.862266
20
25.582244
11
133.770116
21
24.598435
0
LINE
8
Layer 1
10
133.770116
20
24.598435
11
134.675406
21
23.621360
0
LINE
8
Layer 1
10
134.675406
20
23.621360
11
135.192093
21
22.857471
0
LINE
8
Layer 1
10
135.192093
20
22.857471
11
135.594156
21
22.314463
0
LINE
8
Layer 1
10
135.594156
20
22.314463
11
136.223860
21
21.868443
0
LINE
8
Layer 1
10
136.223860
20
21.868443
11
136.864912
21
21.416055
0
LINE
8
Layer 1
10
136.864912
20
21.416055
11
137.294262
21
20.857741
0
LINE
8
Layer 1
10
137.294262
20
20.857741
11
137.580201
21
20.410154
0
LINE
8
Layer 1
10
137.580201
20
20.410154
11
137.876461
21
20.223991
0
LINE
8
Layer 1
10
137.876461
20
20.223991
11
138.304856
21
19.996373
0
LINE
8
Layer 1
10
138.304856
20
19.996373
11
138.890067
21
19.445936
0
LINE
8
Layer 1
10
138.890067
20
19.445936
11
139.790266
21
18.171101
0
LINE
8
Layer 1
10
139.790266
20
18.171101
11
140.115548
21
17.713324
0
LINE
8
Layer 1
10
140.115548
20
17.713324
11
140.614223
21
17.423143
0
LINE
8
Layer 1
10
140.614223
20
17.423143
11
141.122027
21
17.358474
0
LINE
8
Layer 1
10
141.122027
20
17.358474
11
141.474695
21
17.577229
0
LINE
8
Layer 1
10
141.474695
20
17.577229
11
141.729062
21
17.851949
0
LINE
8
Layer 1
10
141.729062
20
17.851949
11
142.023696
21
17.966213
0
LINE
8
Layer 1
10
142.023696
20
17.966213
11
142.023696
21
17.966213
0
LINE
8
Layer 1
10
140.221064
20
13.944546
11
139.058070
21
15.236957
0
LINE
8
Layer 1
10
139.058070
20
15.236957
11
138.473242
21
16.065449
0
LINE
8
Layer 1
10
138.473242
20
16.065449
11
138.162331
21
16.491526
0
LINE
8
Layer 1
10
138.162331
20
16.491526
11
137.657905
21
16.816431
0
LINE
8
Layer 1
10
137.657905
20
16.816431
11
136.751194
21
17.458361
0
LINE
8
Layer 1
10
136.751194
20
17.458361
11
135.473090
21
18.646642
0
LINE
8
Layer 1
10
135.473090
20
18.646642
11
134.275130
21
19.760644
0
LINE
8
Layer 1
10
134.275130
20
19.760644
11
133.561105
21
20.223991
0
LINE
8
Layer 1
10
133.561105
20
20.223991
11
133.228000
21
20.413929
0
LINE
8
Layer 1
10
133.228000
20
20.413929
11
132.945863
21
20.870590
0
LINE
8
Layer 1
10
132.945863
20
20.870590
11
132.247296
21
21.892923
0
LINE
8
Layer 1
10
132.247296
20
21.892923
11
131.794560
21
22.595033
0
LINE
8
Layer 1
10
131.794560
20
22.595033
11
131.236674
21
23.433488
0
LINE
8
Layer 1
10
131.236674
20
23.433488
11
129.954086
21
24.719822
0
LINE
8
Layer 1
10
129.954086
20
24.719822
11
128.533402
21
25.915454
0
LINE
8
Layer 1
10
128.533402
20
25.915454
11
127.561227
21
26.481800
0
LINE
8
Layer 1
10
127.561227
20
26.481800
11
126.996425
21
26.715460
0
LINE
8
Layer 1
10
126.996425
20
26.715460
11
126.760376
21
27.279546
0
LINE
8
Layer 1
10
126.760376
20
27.279546
11
126.535600
21
27.928491
0
LINE
8
Layer 1
10
126.535600
20
27.928491
11
126.104825
21
28.569781
0
LINE
8
Layer 1
10
126.104825
20
28.569781
11
125.588271
21
29.059843
0
LINE
8
Layer 1
10
125.588271
20
29.059843
11
125.106159
21
29.255102
0
LINE
8
Layer 1
10
125.106159
20
29.255102
11
124.765652
21
29.441633
0
LINE
8
Layer 1
10
124.765652
20
29.441633
11
124.482185
21
29.890102
0
LINE
8
Layer 1
10
124.482185
20
29.890102
11
123.640407
21
31.064629
0
LINE
8
Layer 1
10
123.640407
20
31.064629
11
122.639472
21
32.409994
0
LINE
8
Layer 1
10
122.639472
20
32.409994
11
122.381074
21
33.201388
0
LINE
8
Layer 1
10
122.381074
20
33.201388
11
122.614862
21
33.943276
0
LINE
8
Layer 1
10
122.614862
20
33.943276
11
123.024904
21
34.479424
0
LINE
8
Layer 1
10
123.024904
20
34.479424
11
123.619731
21
34.968999
0
LINE
8
Layer 1
10
123.619731
20
34.968999
11
124.272433
21
35.325891
0
LINE
8
Layer 1
10
124.272433
20
35.325891
11
124.856102
21
35.463991
0
LINE
8
Layer 1
10
124.856102
20
35.463991
11
125.968498
21
35.830603
0
LINE
8
Layer 1
10
125.968498
20
35.830603
11
126.712351
21
36.381213
0
LINE
8
Layer 1
10
126.712351
20
36.381213
11
126.432330
21
36.592880
0
LINE
8
Layer 1
10
126.432330
20
36.592880
11
126.233010
21
36.758685
0
LINE
8
Layer 1
10
126.233010
20
36.758685
11
126.150108
21
37.157324
0
LINE
8
Layer 1
10
126.150108
20
37.157324
11
126.261288
21
37.517752
0
LINE
8
Layer 1
10
126.261288
20
37.517752
11
126.528904
21
37.703767
0
LINE
8
Layer 1
10
126.528904
20
37.703767
11
126.854066
21
37.687117
0
LINE
8
Layer 1
10
126.854066
20
37.687117
11
127.137885
21
37.439546
0
LINE
8
Layer 1
10
127.137885
20
37.439546
11
127.492150
21
37.240227
0
LINE
8
Layer 1
10
127.492150
20
37.240227
11
128.098959
21
37.157324
0
LINE
8
Layer 1
10
128.098959
20
37.157324
11
128.931820
21
37.028036
0
LINE
8
Layer 1
10
128.931820
20
37.028036
11
129.766145
21
36.705001
0
LINE
8
Layer 1
10
129.766145
20
36.705001
11
130.408553
21
36.285459
0
LINE
8
Layer 1
10
130.408553
20
36.285459
11
130.665663
21
35.866654
0
LINE
8
Layer 1
10
130.665663
20
35.866654
11
130.852184
21
35.577474
0
LINE
8
Layer 1
10
130.852184
20
35.577474
11
131.327477
21
35.463991
0
LINE
8
Layer 1
10
131.327477
20
35.463991
11
131.944936
21
35.298185
0
LINE
8
Layer 1
10
131.944936
20
35.298185
11
132.500108
21
34.899546
0
LINE
8
Layer 1
10
132.500108
20
34.899546
11
133.333239
21
34.335102
0
LINE
8
Layer 1
10
133.333239
20
34.335102
11
133.884685
21
34.003491
0
LINE
8
Layer 1
10
133.884685
20
34.003491
11
134.757885
21
33.206213
0
LINE
8
Layer 1
10
134.757885
20
33.206213
11
135.745104
21
32.381205
0
LINE
8
Layer 1
10
135.745104
20
32.381205
11
136.534917
21
32.077324
0
LINE
8
Layer 1
10
136.534917
20
32.077324
11
137.074197
21
31.932307
0
LINE
8
Layer 1
10
137.074197
20
31.932307
11
137.357223
21
31.512880
0
LINE
8
Layer 1
10
137.357223
20
31.512880
11
137.583916
21
31.114241
0
LINE
8
Layer 1
10
137.583916
20
31.114241
11
137.921667
21
30.948435
0
LINE
8
Layer 1
10
137.921667
20
30.948435
11
138.259418
21
30.782630
0
LINE
8
Layer 1
10
138.259418
20
30.782630
11
138.486111
21
30.383991
0
LINE
8
Layer 1
10
138.486111
20
30.383991
11
138.687783
21
29.985352
0
LINE
8
Layer 1
10
138.687783
20
29.985352
11
138.965373
21
29.819546
0
LINE
8
Layer 1
10
138.965373
20
29.819546
11
139.569204
21
29.440542
0
LINE
8
Layer 1
10
139.569204
20
29.440542
11
140.555235
21
28.529320
0
LINE
8
Layer 1
10
140.555235
20
28.529320
11
141.775454
21
27.464899
0
LINE
8
Layer 1
10
141.775454
20
27.464899
11
142.942330
21
26.717563
0
LINE
8
Layer 1
10
142.942330
20
26.717563
11
143.988316
21
26.085515
0
LINE
8
Layer 1
10
143.988316
20
26.085515
11
144.917885
21
25.298276
0
LINE
8
Layer 1
10
144.917885
20
25.298276
11
145.702375
21
24.591726
0
LINE
8
Layer 1
10
145.702375
20
24.591726
11
146.399552
21
24.153684
0
LINE
8
Layer 1
10
146.399552
20
24.153684
11
146.876677
21
23.791065
0
LINE
8
Layer 1
10
146.876677
20
23.791065
11
147.034552
21
23.194309
0
LINE
8
Layer 1
10
147.034552
20
23.194309
11
147.141355
21
22.689663
0
LINE
8
Layer 1
10
147.141355
20
22.689663
11
147.400608
21
22.481769
0
LINE
8
Layer 1
10
147.400608
20
22.481769
11
147.961145
21
22.170883
0
LINE
8
Layer 1
10
147.961145
20
22.170883
11
148.794778
21
21.423435
0
LINE
8
Layer 1
10
148.794778
20
21.423435
11
149.634258
21
20.323077
0
LINE
8
Layer 1
10
149.634258
20
20.323077
11
149.910388
21
19.097210
0
LINE
8
Layer 1
10
149.910388
20
19.097210
11
150.125615
21
17.995813
0
LINE
8
Layer 1
10
150.125615
20
17.995813
11
150.374769
21
17.696476
0
LINE
8
Layer 1
10
150.374769
20
17.696476
11
150.773996
21
17.459031
0
LINE
8
Layer 1
10
150.773996
20
17.459031
11
151.376845
21
16.995600
0
LINE
8
Layer 1
10
151.376845
20
16.995600
11
151.550108
21
16.301220
0
LINE
8
Layer 1
10
151.550108
20
16.301220
11
151.401698
21
15.550059
0
LINE
8
Layer 1
10
151.401698
20
15.550059
11
150.957731
21
15.011806
0
LINE
8
Layer 1
10
150.957731
20
15.011806
11
150.220098
21
14.687841
0
LINE
8
Layer 1
10
150.220098
20
14.687841
11
149.190693
21
14.579546
0
LINE
8
Layer 1
10
149.190693
20
14.579546
11
148.272206
21
14.674371
0
LINE
8
Layer 1
10
148.272206
20
14.674371
11
147.742035
21
14.956101
0
LINE
8
Layer 1
10
147.742035
20
14.956101
11
147.603870
21
15.420616
0
LINE
8
Layer 1
10
147.603870
20
15.420616
11
147.861398
21
16.063798
0
LINE
8
Layer 1
10
147.861398
20
16.063798
11
148.064791
21
16.597429
0
LINE
8
Layer 1
10
148.064791
20
16.597429
11
147.800585
21
17.038913
0
LINE
8
Layer 1
10
147.800585
20
17.038913
11
147.341092
21
17.307054
0
LINE
8
Layer 1
10
147.341092
20
17.307054
11
146.717529
21
17.074027
0
LINE
8
Layer 1
10
146.717529
20
17.074027
11
145.731990
21
16.386618
0
LINE
8
Layer 1
10
145.731990
20
16.386618
11
144.758509
21
15.479487
0
LINE
8
Layer 1
10
144.758509
20
15.479487
11
143.919601
21
14.481423
0
LINE
8
Layer 1
10
143.919601
20
14.481423
11
143.337782
21
13.521213
0
LINE
8
Layer 1
10
143.337782
20
13.521213
11
142.801770
21
12.641442
0
LINE
8
Layer 1
10
142.801770
20
12.641442
11
142.291441
21
12.321769
0
LINE
8
Layer 1
10
142.291441
20
12.321769
11
141.478802
21
12.798460
0
LINE
8
Layer 1
10
141.478802
20
12.798460
11
140.221056
21
13.944546
0
LINE
8
Layer 1
10
140.221056
20
13.944546
11
140.221064
21
13.944546
0
LINE
8
Layer 1
10
252.162338
20
-2.353787
11
254.081384
21
-1.790089
0
LINE
8
Layer 1
10
254.081384
20
-1.790089
11
255.766408
21
-0.830420
0
LINE
8
Layer 1
10
255.766408
20
-0.830420
11
257.304697
21
0.381844
0
LINE
8
Layer 1
10
257.304697
20
0.381844
11
258.783537
21
1.703324
0
LINE
8
Layer 1
10
258.783537
20
1.703324
11
260.290213
21
2.990643
0
LINE
8
Layer 1
10
260.290213
20
2.990643
11
261.912011
21
4.100423
0
LINE
8
Layer 1
10
261.912011
20
4.100423
11
263.736217
21
4.889286
0
LINE
8
Layer 1
10
263.736217
20
4.889286
11
264.751499
21
5.118569
0
LINE
8
Layer 1
10
264.751499
20
5.118569
11
265.850116
21
5.213855
0
LINE
8
Layer 1
10
265.850116
20
5.213855
11
264.139259
21
6.023123
0
LINE
8
Layer 1
10
264.139259
20
6.023123
11
262.237210
21
6.737832
0
LINE
8
Layer 1
10
262.237210
20
6.737832
11
260.336328
21
7.459365
0
LINE
8
Layer 1
10
260.336328
20
7.459365
11
258.628968
21
8.289100
0
LINE
8
Layer 1
10
258.628968
20
8.289100
11
257.307488
21
9.328419
0
LINE
8
Layer 1
10
257.307488
20
9.328419
11
256.851565
21
9.958354
0
LINE
8
Layer 1
10
256.851565
20
9.958354
11
256.564246
21
10.678702
0
LINE
8
Layer 1
10
256.564246
20
10.678702
11
256.469576
21
11.502137
0
LINE
8
Layer 1
10
256.469576
20
11.502137
11
256.591600
21
12.441330
0
LINE
8
Layer 1
10
256.591600
20
12.441330
11
256.954361
21
13.508955
0
LINE
8
Layer 1
10
256.954361
20
13.508955
11
257.581905
21
14.717683
0
LINE
8
Layer 1
10
257.581905
20
14.717683
11
257.924994
21
15.793358
0
LINE
8
Layer 1
10
257.924994
20
15.793358
11
258.026624
21
16.721636
0
LINE
8
Layer 1
10
258.026624
20
16.721636
11
257.916790
21
17.522574
0
LINE
8
Layer 1
10
257.916790
20
17.522574
11
257.625484
21
18.216226
0
LINE
8
Layer 1
10
257.625484
20
18.216226
11
256.618426
21
19.361900
0
LINE
8
Layer 1
10
256.618426
20
19.361900
11
255.245393
21
20.319105
0
LINE
8
Layer 1
10
255.245393
20
20.319105
11
253.746325
21
21.248288
0
LINE
8
Layer 1
10
253.746325
20
21.248288
11
252.361166
21
22.309898
0
LINE
8
Layer 1
10
252.361166
20
22.309898
11
251.786283
21
22.940503
0
LINE
8
Layer 1
10
251.786283
20
22.940503
11
251.329856
21
23.664382
0
LINE
8
Layer 1
10
251.329856
20
23.664382
11
251.021877
21
24.501591
0
LINE
8
Layer 1
10
251.021877
20
24.501591
11
250.892338
21
25.472187
0
LINE
8
Layer 1
10
250.892338
20
25.472187
11
250.882799
21
26.723204
0
LINE
8
Layer 1
10
250.882799
20
26.723204
11
250.712156
21
27.846253
0
LINE
8
Layer 1
10
250.712156
20
27.846253
11
250.395026
21
28.852645
0
LINE
8
Layer 1
10
250.395026
20
28.852645
11
249.946024
21
29.753689
0
LINE
8
Layer 1
10
249.946024
20
29.753689
11
248.710862
21
31.284971
0
LINE
8
Layer 1
10
248.710862
20
31.284971
11
247.123592
21
32.530575
0
LINE
8
Layer 1
10
247.123592
20
32.530575
11
245.301136
21
33.580977
0
LINE
8
Layer 1
10
245.301136
20
33.580977
11
243.360413
21
34.526655
0
LINE
8
Layer 1
10
243.360413
20
34.526655
11
241.418346
21
35.458083
0
LINE
8
Layer 1
10
241.418346
20
35.458083
11
239.591856
21
36.465739
0
LINE
8
Layer 1
10
239.591856
20
36.465739
11
237.968280
21
37.398574
0
LINE
8
Layer 1
10
237.968280
20
37.398574
11
236.624918
21
38.580487
0
LINE
8
Layer 1
10
236.624918
20
38.580487
11
235.485923
21
39.947454
0
LINE
8
Layer 1
10
235.485923
20
39.947454
11
234.475447
21
41.435454
0
LINE
8
Layer 1
10
234.475447
20
41.435454
11
232.536668
21
44.518461
0
LINE
8
Layer 1
10
232.536668
20
44.518461
11
231.456670
21
45.985422
0
LINE
8
Layer 1
10
231.456670
20
45.985422
11
230.201806
21
47.317324
0
LINE
8
Layer 1
10
230.201806
20
47.317324
11
228.071113
21
48.709035
0
LINE
8
Layer 1
10
228.071113
20
48.709035
11
225.792409
21
49.723086
0
LINE
8
Layer 1
10
225.792409
20
49.723086
11
223.415314
21
50.486538
0
LINE
8
Layer 1
10
223.415314
20
50.486538
11
220.989452
21
51.126449
0
LINE
8
Layer 1
10
220.989452
20
51.126449
11
218.564444
21
51.769882
0
LINE
8
Layer 1
10
218.564444
20
51.769882
11
216.189912
21
52.543896
0
LINE
8
Layer 1
10
216.189912
20
52.543896
11
213.915479
21
53.575553
0
LINE
8
Layer 1
10
213.915479
20
53.575553
11
211.790765
21
54.991912
0
LINE
8
Layer 1
10
211.790765
20
54.991912
11
207.181928
21
54.930332
0
LINE
8
Layer 1
10
207.181928
20
54.930332
11
202.409697
21
55.146909
0
LINE
8
Layer 1
10
202.409697
20
55.146909
11
197.710389
21
55.640391
0
LINE
8
Layer 1
10
197.710389
20
55.640391
11
193.320320
21
56.409525
0
LINE
8
Layer 1
10
193.320320
20
56.409525
11
192.626735
21
56.999845
0
LINE
8
Layer 1
10
192.626735
20
56.999845
11
191.868095
21
57.379403
0
LINE
8
Layer 1
10
191.868095
20
57.379403
11
191.057983
21
57.569744
0
LINE
8
Layer 1
10
191.057983
20
57.569744
11
190.209977
21
57.592409
0
LINE
8
Layer 1
10
190.209977
20
57.592409
11
188.454612
21
57.220884
0
LINE
8
Layer 1
10
188.454612
20
57.220884
11
186.710645
21
56.437173
0
LINE
8
Layer 1
10
186.710645
20
56.437173
11
185.086723
21
55.413616
0
LINE
8
Layer 1
10
185.086723
20
55.413616
11
183.691492
21
54.322557
0
LINE
8
Layer 1
10
183.691492
20
54.322557
11
182.021686
21
52.627301
0
LINE
8
Layer 1
10
182.021686
20
52.627301
11
182.601853
21
51.523488
0
LINE
8
Layer 1
10
182.601853
20
51.523488
11
182.865567
21
50.622411
0
LINE
8
Layer 1
10
182.865567
20
50.622411
11
182.858787
21
49.912259
0
LINE
8
Layer 1
10
182.858787
20
49.912259
11
182.627471
21
49.381219
0
LINE
8
Layer 1
10
182.627471
20
49.381219
11
182.217577
21
49.017477
0
LINE
8
Layer 1
10
182.217577
20
49.017477
11
181.675065
21
48.809221
0
LINE
8
Layer 1
10
181.675065
20
48.809221
11
180.376019
21
48.811915
0
LINE
8
Layer 1
10
180.376019
20
48.811915
11
179.097999
21
49.294798
0
LINE
8
Layer 1
10
179.097999
20
49.294798
11
178.581771
21
49.686777
0
LINE
8
Layer 1
10
178.581771
20
49.686777
11
178.208675
21
50.163366
0
LINE
8
Layer 1
10
178.208675
20
50.163366
11
178.024669
21
50.712750
0
LINE
8
Layer 1
10
178.024669
20
50.712750
11
178.075713
21
51.323116
0
LINE
8
Layer 1
10
178.075713
20
51.323116
11
178.407765
21
51.982653
0
LINE
8
Layer 1
10
178.407765
20
51.982653
11
179.066783
21
52.679546
0
LINE
8
Layer 1
10
179.066783
20
52.679546
11
178.153340
21
52.088741
0
LINE
8
Layer 1
10
178.153340
20
52.088741
11
177.097492
21
51.685225
0
LINE
8
Layer 1
10
177.097492
20
51.685225
11
175.927260
21
51.439911
0
LINE
8
Layer 1
10
175.927260
20
51.439911
11
174.670665
21
51.323713
0
LINE
8
Layer 1
10
174.670665
20
51.323713
11
172.010470
21
51.362320
0
LINE
8
Layer 1
10
172.010470
20
51.362320
11
169.341072
21
51.568354
0
LINE
8
Layer 1
10
169.341072
20
51.568354
11
166.886638
21
51.709121
0
LINE
8
Layer 1
10
166.886638
20
51.709121
11
164.871334
21
51.551929
0
LINE
8
Layer 1
10
164.871334
20
51.551929
11
164.098408
21
51.288883
0
LINE
8
Layer 1
10
164.098408
20
51.288883
11
163.519327
21
50.864088
0
LINE
8
Layer 1
10
163.519327
20
50.864088
11
163.162112
21
50.248456
0
LINE
8
Layer 1
10
163.162112
20
50.248456
11
163.054784
21
49.412903
0
LINE
8
Layer 1
10
163.054784
20
49.412903
11
168.173180
21
48.115733
0
LINE
8
Layer 1
10
168.173180
20
48.115733
11
173.128626
21
46.462484
0
LINE
8
Layer 1
10
173.128626
20
46.462484
11
177.967373
21
44.490550
0
LINE
8
Layer 1
10
177.967373
20
44.490550
11
182.735672
21
42.237324
0
LINE
8
Layer 1
10
182.735672
20
42.237324
11
183.462432
21
41.151828
0
LINE
8
Layer 1
10
183.462432
20
41.151828
11
183.754516
21
40.103194
0
LINE
8
Layer 1
10
183.754516
20
40.103194
11
183.657828
21
39.104231
0
LINE
8
Layer 1
10
183.657828
20
39.104231
11
183.218269
21
38.167743
0
LINE
8
Layer 1
10
183.218269
20
38.167743
11
182.481743
21
37.306538
0
LINE
8
Layer 1
10
182.481743
20
37.306538
11
181.494153
21
36.533423
0
LINE
8
Layer 1
10
181.494153
20
36.533423
11
180.301401
21
35.861203
0
LINE
8
Layer 1
10
180.301401
20
35.861203
11
178.949391
21
35.302686
0
LINE
8
Layer 1
10
178.949391
20
35.302686
11
177.484025
21
34.870677
0
LINE
8
Layer 1
10
177.484025
20
34.870677
11
175.951206
21
34.577984
0
LINE
8
Layer 1
10
175.951206
20
34.577984
11
174.396837
21
34.437412
0
LINE
8
Layer 1
10
174.396837
20
34.437412
11
172.866821
21
34.461769
0
LINE
8
Layer 1
10
172.866821
20
34.461769
11
171.407061
21
34.663861
0
LINE
8
Layer 1
10
171.407061
20
34.663861
11
170.063460
21
35.056495
0
LINE
8
Layer 1
10
170.063460
20
35.056495
11
168.881921
21
35.652476
0
LINE
8
Layer 1
10
168.881921
20
35.652476
11
167.908345
21
36.464613
0
LINE
8
Layer 1
10
167.908345
20
36.464613
11
163.573056
21
38.034359
0
LINE
8
Layer 1
10
163.573056
20
38.034359
11
159.206868
21
39.945107
0
LINE
8
Layer 1
10
159.206868
20
39.945107
11
155.259367
21
42.061052
0
LINE
8
Layer 1
10
155.259367
20
42.061052
11
153.583119
21
43.153536
0
LINE
8
Layer 1
10
153.583119
20
43.153536
11
152.180138
21
44.246394
0
LINE
8
Layer 1
10
152.180138
20
44.246394
11
150.989008
21
44.057312
0
LINE
8
Layer 1
10
150.989008
20
44.057312
11
149.793728
21
43.685347
0
LINE
8
Layer 1
10
149.793728
20
43.685347
11
147.402012
21
42.545811
0
LINE
8
Layer 1
10
147.402012
20
42.545811
11
142.693035
21
39.755606
0
LINE
8
Layer 1
10
142.693035
20
39.755606
11
140.420962
21
38.717107
0
LINE
8
Layer 1
10
140.420962
20
38.717107
11
139.315414
21
38.420919
0
LINE
8
Layer 1
10
139.315414
20
38.420919
11
138.233958
21
38.324455
0
LINE
8
Layer 1
10
138.233958
20
38.324455
11
137.179418
21
38.465973
0
LINE
8
Layer 1
10
137.179418
20
38.465973
11
136.154618
21
38.883735
0
LINE
8
Layer 1
10
136.154618
20
38.883735
11
135.162382
21
39.616000
0
LINE
8
Layer 1
10
135.162382
20
39.616000
11
134.205534
21
40.701031
0
LINE
8
Layer 1
10
134.205534
20
40.701031
11
132.530718
21
41.589144
0
LINE
8
Layer 1
10
132.530718
20
41.589144
11
130.473294
21
42.143672
0
LINE
8
Layer 1
10
130.473294
20
42.143672
11
128.177806
21
42.447810
0
LINE
8
Layer 1
10
128.177806
20
42.447810
11
125.788800
21
42.584755
0
LINE
8
Layer 1
10
125.788800
20
42.584755
11
121.308417
21
42.689848
0
LINE
8
Layer 1
10
121.308417
20
42.689848
11
119.506131
21
42.824389
0
LINE
8
Layer 1
10
119.506131
20
42.824389
11
118.188509
21
43.124521
0
LINE
8
Layer 1
10
118.188509
20
43.124521
11
119.395972
21
41.202048
0
LINE
8
Layer 1
10
119.395972
20
41.202048
11
120.244684
21
39.166684
0
LINE
8
Layer 1
10
120.244684
20
39.166684
11
120.736829
21
37.064921
0
LINE
8
Layer 1
10
120.736829
20
37.064921
11
120.874589
21
34.943247
0
LINE
8
Layer 1
10
120.874589
20
34.943247
11
120.660148
21
32.848154
0
LINE
8
Layer 1
10
120.660148
20
32.848154
11
120.095689
21
30.826132
0
LINE
8
Layer 1
10
120.095689
20
30.826132
11
119.183395
21
28.923671
0
LINE
8
Layer 1
10
119.183395
20
28.923671
11
117.925449
21
27.187263
0
LINE
8
Layer 1
10
117.925449
20
27.187263
11
116.318987
21
25.862869
0
LINE
8
Layer 1
10
116.318987
20
25.862869
11
114.546346
21
24.702910
0
LINE
8
Layer 1
10
114.546346
20
24.702910
11
112.639256
21
23.701628
0
LINE
8
Layer 1
10
112.639256
20
23.701628
11
110.629445
21
22.853266
0
LINE
8
Layer 1
10
110.629445
20
22.853266
11
108.548641
21
22.152066
0
LINE
8
Layer 1
10
108.548641
20
22.152066
11
106.428572
21
21.592271
0
LINE
8
Layer 1
10
106.428572
20
21.592271
11
102.197555
21
20.873864
0
LINE
8
Layer 1
10
102.197555
20
20.873864
11
100.873320
21
21.508876
0
LINE
8
Layer 1
10
100.873320
20
21.508876
11
99.691347
21
21.661030
0
LINE
8
Layer 1
10
99.691347
20
21.661030
11
98.626499
21
21.419890
0
LINE
8
Layer 1
10
98.626499
20
21.419890
11
97.653641
21
20.875018
0
LINE
8
Layer 1
10
97.653641
20
20.875018
11
95.883354
21
19.232329
0
LINE
8
Layer 1
10
95.883354
20
19.232329
11
94.179401
21
17.449470
0
LINE
8
Layer 1
10
94.179401
20
17.449470
11
92.347698
21
17.177673
0
LINE
8
Layer 1
10
92.347698
20
17.177673
11
90.697370
21
17.384369
0
LINE
8
Layer 1
10
90.697370
20
17.384369
11
89.266691
21
17.980642
0
LINE
8
Layer 1
10
89.266691
20
17.980642
11
88.093935
21
18.877580
0
LINE
8
Layer 1
10
88.093935
20
18.877580
11
87.217375
21
19.986268
0
LINE
8
Layer 1
10
87.217375
20
19.986268
11
86.675284
21
21.217793
0
LINE
8
Layer 1
10
86.675284
20
21.217793
11
86.505937
21
22.483241
0
LINE
8
Layer 1
10
86.505937
20
22.483241
11
86.747607
21
23.693699
0
LINE
8
Layer 1
10
86.747607
20
23.693699
11
84.295248
21
23.641425
0
LINE
8
Layer 1
10
84.295248
20
23.641425
11
81.873368
21
23.266371
0
LINE
8
Layer 1
10
81.873368
20
23.266371
11
77.103853
21
21.986574
0
LINE
8
Layer 1
10
77.103853
20
21.986574
11
72.404680
21
20.731610
0
LINE
8
Layer 1
10
72.404680
20
20.731610
11
70.070729
21
20.387598
0
LINE
8
Layer 1
10
70.070729
20
20.387598
11
67.741470
21
20.378784
0
LINE
8
Layer 1
10
67.741470
20
20.378784
11
66.939629
21
19.770413
0
LINE
8
Layer 1
10
66.939629
20
19.770413
11
66.094436
21
19.363330
0
LINE
8
Layer 1
10
66.094436
20
19.363330
11
65.215391
21
19.139663
0
LINE
8
Layer 1
10
65.215391
20
19.139663
11
64.311994
21
19.081537
0
LINE
8
Layer 1
10
64.311994
20
19.081537
11
62.470151
21
19.390416
0
LINE
8
Layer 1
10
62.470151
20
19.390416
11
60.644911
21
20.146977
0
LINE
8
Layer 1
10
60.644911
20
20.146977
11
58.912281
21
21.208233
0
LINE
8
Layer 1
10
58.912281
20
21.208233
11
57.348268
21
22.431193
0
LINE
8
Layer 1
10
57.348268
20
22.431193
11
56.028878
21
23.672869
0
LINE
8
Layer 1
10
56.028878
20
23.672869
11
55.030116
21
24.790273
0
LINE
8
Layer 1
10
55.030116
20
24.790273
11
56.638279
21
26.739010
0
LINE
8
Layer 1
10
56.638279
20
26.739010
11
58.253101
21
28.732042
0
LINE
8
Layer 1
10
58.253101
20
28.732042
11
58.590139
21
29.482120
0
LINE
8
Layer 1
10
58.590139
20
29.482120
11
58.558312
21
29.749517
0
LINE
8
Layer 1
10
58.558312
20
29.749517
11
58.361397
21
29.927616
0
LINE
8
Layer 1
10
58.361397
20
29.927616
11
57.377727
21
29.963309
0
LINE
8
Layer 1
10
57.377727
20
29.963309
11
55.449981
21
29.483981
0
LINE
8
Layer 1
10
55.449981
20
29.483981
11
50.135287
21
28.738103
0
LINE
8
Layer 1
10
50.135287
20
28.738103
11
47.434519
21
28.273151
0
LINE
8
Layer 1
10
47.434519
20
28.273151
11
44.789259
21
27.639535
0
LINE
8
Layer 1
10
44.789259
20
27.639535
11
42.262850
21
26.756765
0
LINE
8
Layer 1
10
42.262850
20
26.756765
11
39.918632
21
25.544349
0
LINE
8
Layer 1
10
39.918632
20
25.544349
11
37.819948
21
23.921797
0
LINE
8
Layer 1
10
37.819948
20
23.921797
11
36.882476
21
22.931567
0
LINE
8
Layer 1
10
36.882476
20
22.931567
11
36.030140
21
21.808618
0
LINE
8
Layer 1
10
36.030140
20
21.808618
11
36.643358
21
20.930171
0
LINE
8
Layer 1
10
36.643358
20
20.930171
11
37.429386
21
20.315450
0
LINE
8
Layer 1
10
37.429386
20
20.315450
11
38.368356
21
19.929707
0
LINE
8
Layer 1
10
38.368356
20
19.929707
11
39.440402
21
19.738193
0
LINE
8
Layer 1
10
39.440402
20
19.738193
11
41.904257
21
19.798864
0
LINE
8
Layer 1
10
41.904257
20
19.798864
11
44.662016
21
20.219481
0
LINE
8
Layer 1
10
44.662016
20
20.219481
11
47.554747
21
20.722062
0
LINE
8
Layer 1
10
47.554747
20
20.722062
11
50.423518
21
21.028625
0
LINE
8
Layer 1
10
50.423518
20
21.028625
11
51.799252
21
21.021530
0
LINE
8
Layer 1
10
51.799252
20
21.021530
11
53.109396
21
20.861188
0
LINE
8
Layer 1
10
53.109396
20
20.861188
11
54.334083
21
20.512850
0
LINE
8
Layer 1
10
54.334083
20
20.512850
11
55.453447
21
19.941769
0
LINE
8
Layer 1
10
55.453447
20
19.941769
11
57.709981
21
18.705492
0
LINE
8
Layer 1
10
57.709981
20
18.705492
11
60.084898
21
17.721349
0
LINE
8
Layer 1
10
60.084898
20
17.721349
11
62.554462
21
16.944128
0
LINE
8
Layer 1
10
62.554462
20
16.944128
11
65.094937
21
16.328621
0
LINE
8
Layer 1
10
65.094937
20
16.328621
11
70.293675
21
15.401912
0
LINE
8
Layer 1
10
70.293675
20
15.401912
11
75.491224
21
14.579546
0
LINE
8
Layer 1
10
75.491224
20
14.579546
11
77.879904
21
14.050677
0
LINE
8
Layer 1
10
77.879904
20
14.050677
11
80.275401
21
13.729090
0
LINE
8
Layer 1
10
80.275401
20
13.729090
11
85.061177
21
13.408331
0
LINE
8
Layer 1
10
85.061177
20
13.408331
11
89.797216
21
13.018402
0
LINE
8
Layer 1
10
89.797216
20
13.018402
11
92.130542
21
12.610354
0
LINE
8
Layer 1
10
92.130542
20
12.610354
11
94.432182
21
11.960439
0
LINE
8
Layer 1
10
94.432182
20
11.960439
11
98.094944
21
13.448885
0
LINE
8
Layer 1
10
98.094944
20
13.448885
11
101.950942
21
15.246444
0
LINE
8
Layer 1
10
101.950942
20
15.246444
11
105.702600
21
17.420637
0
LINE
8
Layer 1
10
105.702600
20
17.420637
11
107.446308
21
18.670072
0
LINE
8
Layer 1
10
107.446308
20
18.670072
11
109.052340
21
20.038986
0
LINE
8
Layer 1
10
109.052340
20
20.038986
11
110.215248
21
20.245436
0
LINE
8
Layer 1
10
110.215248
20
20.245436
11
111.327029
21
20.184416
0
LINE
8
Layer 1
10
111.327029
20
20.184416
11
112.371045
21
19.889537
0
LINE
8
Layer 1
10
112.371045
20
19.889537
11
113.330657
21
19.394412
0
LINE
8
Layer 1
10
113.330657
20
19.394412
11
114.189226
21
18.732651
0
LINE
8
Layer 1
10
114.189226
20
18.732651
11
114.930112
21
17.937867
0
LINE
8
Layer 1
10
114.930112
20
17.937867
11
115.536678
21
17.043670
0
LINE
8
Layer 1
10
115.536678
20
17.043670
11
115.992283
21
16.083673
0
LINE
8
Layer 1
10
115.992283
20
16.083673
11
116.280289
21
15.091488
0
LINE
8
Layer 1
10
116.280289
20
15.091488
11
116.384057
21
14.100725
0
LINE
8
Layer 1
10
116.384057
20
14.100725
11
116.286948
21
13.144996
0
LINE
8
Layer 1
10
116.286948
20
13.144996
11
115.972323
21
12.257914
0
LINE
8
Layer 1
10
115.972323
20
12.257914
11
115.423544
21
11.473089
0
LINE
8
Layer 1
10
115.423544
20
11.473089
11
114.623970
21
10.824133
0
LINE
8
Layer 1
10
114.623970
20
10.824133
11
113.556964
21
10.344658
0
LINE
8
Layer 1
10
113.556964
20
10.344658
11
112.205886
21
10.068275
0
LINE
8
Layer 1
10
112.205886
20
10.068275
11
112.337079
21
9.245070
0
LINE
8
Layer 1
10
112.337079
20
9.245070
11
112.706507
21
8.540215
0
LINE
8
Layer 1
10
112.706507
20
8.540215
11
113.285231
21
7.951754
0
LINE
8
Layer 1
10
113.285231
20
7.951754
11
114.044312
21
7.477732
0
LINE
8
Layer 1
10
114.044312
20
7.477732
11
115.987790
21
6.865178
0
LINE
8
Layer 1
10
115.987790
20
6.865178
11
118.305428
21
6.686905
0
LINE
8
Layer 1
10
118.305428
20
6.686905
11
120.765713
21
6.927264
0
LINE
8
Layer 1
10
120.765713
20
6.927264
11
123.137134
21
7.570607
0
LINE
8
Layer 1
10
123.137134
20
7.570607
11
125.188178
21
8.601285
0
LINE
8
Layer 1
10
125.188178
20
8.601285
11
126.021210
21
9.256984
0
LINE
8
Layer 1
10
126.021210
20
9.256984
11
126.687332
21
10.003649
0
LINE
8
Layer 1
10
126.687332
20
10.003649
11
127.981865
21
10.770825
0
LINE
8
Layer 1
10
127.981865
20
10.770825
11
129.183746
21
11.191830
0
LINE
8
Layer 1
10
129.183746
20
11.191830
11
130.303994
21
11.308380
0
LINE
8
Layer 1
10
130.303994
20
11.308380
11
131.353624
21
11.162192
0
LINE
8
Layer 1
10
131.353624
20
11.162192
11
132.343654
21
10.794983
0
LINE
8
Layer 1
10
132.343654
20
10.794983
11
133.285103
21
10.248469
0
LINE
8
Layer 1
10
133.285103
20
10.248469
11
135.066323
21
8.784395
0
LINE
8
Layer 1
10
135.066323
20
8.784395
11
136.785423
21
7.103702
0
LINE
8
Layer 1
10
136.785423
20
7.103702
11
138.530542
21
5.540124
0
LINE
8
Layer 1
10
138.530542
20
5.540124
11
139.440402
21
4.906544
0
LINE
8
Layer 1
10
139.440402
20
4.906544
11
140.389819
21
4.427394
0
LINE
8
Layer 1
10
140.389819
20
4.427394
11
141.389810
21
4.144389
0
LINE
8
Layer 1
10
141.389810
20
4.144389
11
142.451393
21
4.099247
0
LINE
8
Layer 1
10
142.451393
20
4.099247
11
143.324030
21
5.128888
0
LINE
8
Layer 1
10
143.324030
20
5.128888
11
144.183104
21
5.905071
0
LINE
8
Layer 1
10
144.183104
20
5.905071
11
145.029873
21
6.450747
0
LINE
8
Layer 1
10
145.029873
20
6.450747
11
145.865600
21
6.788866
0
LINE
8
Layer 1
10
145.865600
20
6.788866
11
146.691545
21
6.942377
0
LINE
8
Layer 1
10
146.691545
20
6.942377
11
147.508969
21
6.934231
0
LINE
8
Layer 1
10
147.508969
20
6.934231
11
149.123298
21
6.524769
0
LINE
8
Layer 1
10
149.123298
20
6.524769
11
150.718675
21
5.744080
0
LINE
8
Layer 1
10
150.718675
20
5.744080
11
152.305186
21
4.775767
0
LINE
8
Layer 1
10
152.305186
20
4.775767
11
153.892920
21
3.803430
0
LINE
8
Layer 1
10
153.892920
20
3.803430
11
155.491962
21
3.010670
0
LINE
8
Layer 1
10
155.491962
20
3.010670
11
156.520874
21
5.093853
0
LINE
8
Layer 1
10
156.520874
20
5.093853
11
157.789781
21
7.028410
0
LINE
8
Layer 1
10
157.789781
20
7.028410
11
159.262617
21
8.821239
0
LINE
8
Layer 1
10
159.262617
20
8.821239
11
160.903319
21
10.479235
0
LINE
8
Layer 1
10
160.903319
20
10.479235
11
162.675822
21
12.009294
0
LINE
8
Layer 1
10
162.675822
20
12.009294
11
164.544063
21
13.418313
0
LINE
8
Layer 1
10
164.544063
20
13.418313
11
168.423497
21
15.900815
0
LINE
8
Layer 1
10
168.423497
20
15.900815
11
165.970300
21
16.922587
0
LINE
8
Layer 1
10
165.970300
20
16.922587
11
164.713406
21
17.348871
0
LINE
8
Layer 1
10
164.713406
20
17.348871
11
163.588626
21
17.561287
0
LINE
8
Layer 1
10
163.588626
20
17.561287
11
162.710191
21
17.441735
0
LINE
8
Layer 1
10
162.710191
20
17.441735
11
162.399051
21
17.220564
0
LINE
8
Layer 1
10
162.399051
20
17.220564
11
162.192334
21
16.872114
0
LINE
8
Layer 1
10
162.192334
20
16.872114
11
162.149289
21
15.734323
0
LINE
8
Layer 1
10
162.149289
20
15.734323
11
162.695286
21
13.910262
0
LINE
8
Layer 1
10
162.695286
20
13.910262
11
161.134969
21
13.529335
0
LINE
8
Layer 1
10
161.134969
20
13.529335
11
160.665475
21
13.614686
0
LINE
8
Layer 1
10
160.665475
20
13.614686
11
160.367861
21
13.857343
0
LINE
8
Layer 1
10
160.367861
20
13.857343
11
160.215707
21
14.237376
0
LINE
8
Layer 1
10
160.215707
20
14.237376
11
160.182593
21
14.734855
0
LINE
8
Layer 1
10
160.182593
20
14.734855
11
160.367800
21
16.002436
0
LINE
8
Layer 1
10
160.367800
20
16.002436
11
161.004169
21
19.070076
0
LINE
8
Layer 1
10
161.004169
20
19.070076
11
161.032598
21
20.551268
0
LINE
8
Layer 1
10
161.032598
20
20.551268
11
160.881900
21
21.208956
0
LINE
8
Layer 1
10
160.881900
20
21.208956
11
160.586033
21
21.784798
0
LINE
8
Layer 1
10
160.586033
20
21.784798
11
160.839516
21
23.539850
0
LINE
8
Layer 1
10
160.839516
20
23.539850
11
161.297882
21
24.884961
0
LINE
8
Layer 1
10
161.297882
20
24.884961
11
161.940084
21
25.866184
0
LINE
8
Layer 1
10
161.940084
20
25.866184
11
162.745075
21
26.529571
0
LINE
8
Layer 1
10
162.745075
20
26.529571
11
163.691807
21
26.921175
0
LINE
8
Layer 1
10
163.691807
20
26.921175
11
164.759233
21
27.087047
0
LINE
8
Layer 1
10
164.759233
20
27.087047
11
167.171980
21
26.925806
0
LINE
8
Layer 1
10
167.171980
20
26.925806
11
172.519719
21
25.920843
0
LINE
8
Layer 1
10
172.519719
20
25.920843
11
173.842680
21
25.796056
0
LINE
8
Layer 1
10
173.842680
20
25.796056
11
175.117956
21
25.813956
0
LINE
8
Layer 1
10
175.117956
20
25.813956
11
176.324500
21
26.020594
0
LINE
8
Layer 1
10
176.324500
20
26.020594
11
177.441265
21
26.462022
0
LINE
8
Layer 1
10
177.441265
20
26.462022
11
178.542482
21
28.830168
0
LINE
8
Layer 1
10
178.542482
20
28.830168
11
179.879338
21
31.109146
0
LINE
8
Layer 1
10
179.879338
20
31.109146
11
181.442589
21
33.246618
0
LINE
8
Layer 1
10
181.442589
20
33.246618
11
183.222991
21
35.190245
0
LINE
8
Layer 1
10
183.222991
20
35.190245
11
185.211300
21
36.887690
0
LINE
8
Layer 1
10
185.211300
20
36.887690
11
187.398272
21
38.286613
0
LINE
8
Layer 1
10
187.398272
20
38.286613
11
189.774662
21
39.334678
0
LINE
8
Layer 1
10
189.774662
20
39.334678
11
192.331227
21
39.979546
0
LINE
8
Layer 1
10
192.331227
20
39.979546
11
194.943197
21
40.268399
0
LINE
8
Layer 1
10
194.943197
20
40.268399
11
197.330590
21
40.998240
0
LINE
8
Layer 1
10
197.330590
20
40.998240
11
199.560386
21
41.983264
0
LINE
8
Layer 1
10
199.560386
20
41.983264
11
201.699569
21
43.037667
0
LINE
8
Layer 1
10
201.699569
20
43.037667
11
203.815118
21
43.975645
0
LINE
8
Layer 1
10
203.815118
20
43.975645
11
205.974016
21
44.611394
0
LINE
8
Layer 1
10
205.974016
20
44.611394
11
207.090652
21
44.757868
0
LINE
8
Layer 1
10
207.090652
20
44.757868
11
208.243244
21
44.759108
0
LINE
8
Layer 1
10
208.243244
20
44.759108
11
209.440163
21
44.591889
0
LINE
8
Layer 1
10
209.440163
20
44.591889
11
210.689783
21
44.232985
0
LINE
8
Layer 1
10
210.689783
20
44.232985
11
213.562996
21
44.197570
0
LINE
8
Layer 1
10
213.562996
20
44.197570
11
216.394818
21
43.980624
0
LINE
8
Layer 1
10
216.394818
20
43.980624
11
219.186193
21
43.589541
0
LINE
8
Layer 1
10
219.186193
20
43.589541
11
221.938064
21
43.031712
0
LINE
8
Layer 1
10
221.938064
20
43.031712
11
224.651374
21
42.314532
0
LINE
8
Layer 1
10
224.651374
20
42.314532
11
227.327066
21
41.445392
0
LINE
8
Layer 1
10
227.327066
20
41.445392
11
232.569371
21
39.280806
0
LINE
8
Layer 1
10
232.569371
20
39.280806
11
234.120138
21
38.589774
0
LINE
8
Layer 1
10
234.120138
20
38.589774
11
235.561369
21
37.685972
0
LINE
8
Layer 1
10
235.561369
20
37.685972
11
238.209933
21
35.454009
0
LINE
8
Layer 1
10
238.209933
20
35.454009
11
240.704478
21
33.012818
0
LINE
8
Layer 1
10
240.704478
20
33.012818
11
243.234419
21
30.790295
0
LINE
8
Layer 1
10
243.234419
20
30.790295
11
244.491206
21
29.275942
0
LINE
8
Layer 1
10
244.491206
20
29.275942
11
245.539814
21
27.529373
0
LINE
8
Layer 1
10
245.539814
20
27.529373
11
246.342134
21
25.612857
0
LINE
8
Layer 1
10
246.342134
20
25.612857
11
246.860057
21
23.588661
0
LINE
8
Layer 1
10
246.860057
20
23.588661
11
247.055472
21
21.519053
0
LINE
8
Layer 1
10
247.055472
20
21.519053
11
246.890271
21
19.466301
0
LINE
8
Layer 1
10
246.890271
20
19.466301
11
246.326344
21
17.492672
0
LINE
8
Layer 1
10
246.326344
20
17.492672
11
245.325581
21
15.660435
0
LINE
8
Layer 1
10
245.325581
20
15.660435
11
241.941595
21
13.105246
0
LINE
8
Layer 1
10
241.941595
20
13.105246
11
238.293746
21
10.703266
0
LINE
8
Layer 1
10
238.293746
20
10.703266
11
236.378582
21
9.704791
0
LINE
8
Layer 1
10
236.378582
20
9.704791
11
234.406701
21
8.918689
0
LINE
8
Layer 1
10
234.406701
20
8.918689
11
232.381189
21
8.402986
0
LINE
8
Layer 1
10
232.381189
20
8.402986
11
230.305127
21
8.215706
0
LINE
8
Layer 1
10
230.305127
20
8.215706
11
230.092897
21
7.641430
0
LINE
8
Layer 1
10
230.092897
20
7.641430
11
230.140853
21
7.224952
0
LINE
8
Layer 1
10
230.140853
20
7.224952
11
230.419937
21
6.952592
0
LINE
8
Layer 1
10
230.419937
20
6.952592
11
230.901093
21
6.810672
0
LINE
8
Layer 1
10
230.901093
20
6.810672
11
232.353388
21
6.863428
0
LINE
8
Layer 1
10
232.353388
20
6.863428
11
234.265281
21
7.273785
0
LINE
8
Layer 1
10
234.265281
20
7.273785
11
238.538023
21
8.729551
0
LINE
8
Layer 1
10
238.538023
20
8.729551
11
241.859649
21
10.302474
0
LINE
8
Layer 1
10
241.859649
20
10.302474
11
242.902119
21
10.915309
0
LINE
8
Layer 1
10
242.902119
20
10.915309
11
243.958118
21
11.235296
0
LINE
8
Layer 1
10
243.958118
20
11.235296
11
245.003784
21
11.294148
0
LINE
8
Layer 1
10
245.003784
20
11.294148
11
246.015255
21
11.123581
0
LINE
8
Layer 1
10
246.015255
20
11.123581
11
246.968670
21
10.755309
0
LINE
8
Layer 1
10
246.968670
20
10.755309
11
247.840168
21
10.221046
0
LINE
8
Layer 1
10
247.840168
20
10.221046
11
248.605886
21
9.552507
0
LINE
8
Layer 1
10
248.605886
20
9.552507
11
249.241963
21
8.781405
0
LINE
8
Layer 1
10
249.241963
20
8.781405
11
249.724538
21
7.939456
0
LINE
8
Layer 1
10
249.724538
20
7.939456
11
250.029749
21
7.058374
0
LINE
8
Layer 1
10
250.029749
20
7.058374
11
250.133734
21
6.169873
0
LINE
8
Layer 1
10
250.133734
20
6.169873
11
250.012631
21
5.305667
0
LINE
8
Layer 1
10
250.012631
20
5.305667
11
249.642580
21
4.497472
0
LINE
8
Layer 1
10
249.642580
20
4.497472
11
248.999718
21
3.777000
0
LINE
8
Layer 1
10
248.999718
20
3.777000
11
248.060184
21
3.175968
0
LINE
8
Layer 1
10
248.060184
20
3.175968
11
246.800116
21
2.726089
0
LINE
8
Layer 1
10
246.800116
20
2.726089
11
245.492415
21
2.270053
0
LINE
8
Layer 1
10
245.492415
20
2.270053
11
244.328088
21
1.690748
0
LINE
8
Layer 1
10
244.328088
20
1.690748
11
243.407316
21
1.050869
0
LINE
8
Layer 1
10
243.407316
20
1.050869
11
242.830284
21
0.413113
0
LINE
8
Layer 1
10
242.830284
20
0.413113
11
242.697175
21
-0.159823
0
LINE
8
Layer 1
10
242.697175
20
-0.159823
11
243.108173
21
-0.605243
0
LINE
8
Layer 1
10
243.108173
20
-0.605243
11
244.163460
21
-0.860451
0
LINE
8
Layer 1
10
244.163460
20
-0.860451
11
245.963220
21
-0.862751
0
LINE
8
Layer 1
10
245.963220
20
-0.862751
11
247.299728
21
-2.081097
0
LINE
8
Layer 1
10
247.299728
20
-2.081097
11
248.796230
21
-2.800506
0
LINE
8
Layer 1
10
248.796230
20
-2.800506
11
249.596130
21
-2.942739
0
LINE
8
Layer 1
10
249.596130
20
-2.942739
11
250.426007
21
-2.923796
0
LINE
8
Layer 1
10
250.426007
20
-2.923796
11
251.282524
21
-2.731528
0
LINE
8
Layer 1
10
251.282524
20
-2.731528
11
252.162338
21
-2.353787
0
LINE
8
Layer 1
10
252.162338
20
-2.353787
11
252.162338
21
-2.353787
0
LINE
8
Layer 1
10
77.058712
20
-1.073404
11
77.487148
21
-0.540125
0
LINE
8
Layer 1
10
77.487148
20
-0.540125
11
77.666462
21
-0.078753
0
LINE
8
Layer 1
10
77.666462
20
-0.078753
11
77.633500
21
0.313210
0
LINE
8
Layer 1
10
77.633500
20
0.313210
11
77.425111
21
0.638262
0
LINE
8
Layer 1
10
77.425111
20
0.638262
11
76.629442
21
1.097626
0
LINE
8
Layer 1
10
76.629442
20
1.097626
11
75.574234
21
1.319327
0
LINE
8
Layer 1
10
75.574234
20
1.319327
11
74.635403
21
1.688063
0
LINE
8
Layer 1
10
74.635403
20
1.688063
11
73.661239
21
1.938290
0
LINE
8
Layer 1
10
73.661239
20
1.938290
11
72.683304
21
2.209788
0
LINE
8
Layer 1
10
72.683304
20
2.209788
11
71.733159
21
2.642342
0
LINE
8
Layer 1
10
71.733159
20
2.642342
11
71.484948
21
2.444312
0
LINE
8
Layer 1
10
71.484948
20
2.444312
11
71.512786
21
2.198811
0
LINE
8
Layer 1
10
71.512786
20
2.198811
11
72.010637
21
1.599082
0
LINE
8
Layer 1
10
72.010637
20
1.599082
11
72.454770
21
0.910517
0
LINE
8
Layer 1
10
72.454770
20
0.910517
11
72.415460
21
0.553971
0
LINE
8
Layer 1
10
72.415460
20
0.553971
11
72.073242
21
0.200477
0
LINE
8
Layer 1
10
72.073242
20
0.200477
11
72.408609
21
-0.427954
0
LINE
8
Layer 1
10
72.408609
20
-0.427954
11
72.414056
21
-1.055414
0
LINE
8
Layer 1
10
72.414056
20
-1.055414
11
72.063336
21
-2.286618
0
LINE
8
Layer 1
10
72.063336
20
-2.286618
11
73.113428
21
-2.477440
0
LINE
8
Layer 1
10
73.113428
20
-2.477440
11
74.158618
21
-2.801887
0
LINE
8
Layer 1
10
74.158618
20
-2.801887
11
75.207964
21
-3.011094
0
LINE
8
Layer 1
10
75.207964
20
-3.011094
11
76.270527
21
-2.856193
0
LINE
8
Layer 1
10
76.270527
20
-2.856193
11
76.569398
21
-1.922643
0
LINE
8
Layer 1
10
76.569398
20
-1.922643
11
77.058709
21
-1.073404
0
LINE
8
Layer 1
10
77.058709
20
-1.073404
11
77.058712
21
-1.073404
0
LINE
8
Layer 1
10
83.816780
20
-3.787981
11
83.967415
21
-2.693166
0
LINE
8
Layer 1
10
83.967415
20
-2.693166
11
83.756845
21
-1.745876
0
LINE
8
Layer 1
10
83.756845
20
-1.745876
11
83.146485
21
-1.013377
0
LINE
8
Layer 1
10
83.146485
20
-1.013377
11
82.097750
21
-0.562935
0
LINE
8
Layer 1
10
82.097750
20
-0.562935
11
80.395113
21
-0.041319
0
LINE
8
Layer 1
10
80.395113
20
-0.041319
11
79.592584
21
0.131798
0
LINE
8
Layer 1
10
79.592584
20
0.131798
11
79.388982
21
0.133397
0
LINE
8
Layer 1
10
79.388982
20
0.133397
11
79.387807
21
0.054342
0
LINE
8
Layer 1
10
79.387807
20
0.054342
11
80.044172
21
-0.721984
0
LINE
8
Layer 1
10
80.044172
20
-0.721984
11
80.308926
21
-1.623083
0
LINE
8
Layer 1
10
80.308926
20
-1.623083
11
80.286578
21
-2.573392
0
LINE
8
Layer 1
10
80.286578
20
-2.573392
11
80.081642
21
-3.497351
0
LINE
8
Layer 1
10
80.081642
20
-3.497351
11
80.294500
21
-3.989185
0
LINE
8
Layer 1
10
80.294500
20
-3.989185
11
80.637467
21
-4.353236
0
LINE
8
Layer 1
10
80.637467
20
-4.353236
11
81.586957
21
-4.782849
0
LINE
8
Layer 1
10
81.586957
20
-4.782849
11
83.652749
21
-5.042112
0
LINE
8
Layer 1
10
83.652749
20
-5.042112
11
83.806066
21
-4.429677
0
LINE
8
Layer 1
10
83.806066
20
-4.429677
11
83.816780
21
-3.787981
0
LINE
8
Layer 1
10
83.816780
20
-3.787981
11
83.816780
21
-3.787981
0
LINE
8
Layer 1
10
237.473123
20
-11.689221
11
249.681826
21
-11.324807
0
LINE
8
Layer 1
10
249.681826
20
-11.324807
11
255.687995
21
-10.997088
0
LINE
8
Layer 1
10
255.687995
20
-10.997088
11
261.608711
21
-10.255998
0
LINE
8
Layer 1
10
261.608711
20
-10.255998
11
263.201691
21
-10.686870
0
LINE
8
Layer 1
10
263.201691
20
-10.686870
11
264.521753
21
-10.678169
0
LINE
8
Layer 1
10
264.521753
20
-10.678169
11
265.581123
21
-10.293619
0
LINE
8
Layer 1
10
265.581123
20
-10.293619
11
266.392029
21
-9.596946
0
LINE
8
Layer 1
10
266.392029
20
-9.596946
11
266.966696
21
-8.651871
0
LINE
8
Layer 1
10
266.966696
20
-8.651871
11
267.317352
21
-7.522120
0
LINE
8
Layer 1
10
267.317352
20
-7.522120
11
267.456223
21
-6.271417
0
LINE
8
Layer 1
10
267.456223
20
-6.271417
11
267.395536
21
-4.963486
0
LINE
8
Layer 1
10
267.395536
20
-4.963486
11
267.147519
21
-3.662050
0
LINE
8
Layer 1
10
267.147519
20
-3.662050
11
266.724397
21
-2.430833
0
LINE
8
Layer 1
10
266.724397
20
-2.430833
11
266.138398
21
-1.333561
0
LINE
8
Layer 1
10
266.138398
20
-1.333561
11
265.401748
21
-0.433956
0
LINE
8
Layer 1
10
265.401748
20
-0.433956
11
264.526675
21
0.204258
0
LINE
8
Layer 1
10
264.526675
20
0.204258
11
263.525404
21
0.517355
0
LINE
8
Layer 1
10
263.525404
20
0.517355
11
262.410163
21
0.441613
0
LINE
8
Layer 1
10
262.410163
20
0.441613
11
261.193178
21
-0.086693
0
LINE
8
Layer 1
10
261.193178
20
-0.086693
11
259.814797
21
-2.106093
0
LINE
8
Layer 1
10
259.814797
20
-2.106093
11
257.969772
21
-3.899744
0
LINE
8
Layer 1
10
257.969772
20
-3.899744
11
255.792965
21
-5.367452
0
LINE
8
Layer 1
10
255.792965
20
-5.367452
11
253.419239
21
-6.409024
0
LINE
8
Layer 1
10
253.419239
20
-6.409024
11
250.983459
21
-6.924265
0
LINE
8
Layer 1
10
250.983459
20
-6.924265
11
249.784442
21
-6.953202
0
LINE
8
Layer 1
10
249.784442
20
-6.953202
11
248.620486
21
-6.812983
0
LINE
8
Layer 1
10
248.620486
20
-6.812983
11
247.508447
21
-6.491086
0
LINE
8
Layer 1
10
247.508447
20
-6.491086
11
246.465184
21
-5.974984
0
LINE
8
Layer 1
10
246.465184
20
-5.974984
11
245.507554
21
-5.252156
0
LINE
8
Layer 1
10
245.507554
20
-5.252156
11
244.652416
21
-4.310075
0
LINE
8
Layer 1
10
244.652416
20
-4.310075
11
243.334047
21
-4.532805
0
LINE
8
Layer 1
10
243.334047
20
-4.532805
11
242.051565
21
-4.567609
0
LINE
8
Layer 1
10
242.051565
20
-4.567609
11
239.589410
21
-4.216309
0
LINE
8
Layer 1
10
239.589410
20
-4.216309
11
237.256251
21
-3.541921
0
LINE
8
Layer 1
10
237.256251
20
-3.541921
11
235.042387
21
-2.830189
0
LINE
8
Layer 1
10
235.042387
20
-2.830189
11
232.938120
21
-2.366859
0
LINE
8
Layer 1
10
232.938120
20
-2.366859
11
231.924053
21
-2.317640
0
LINE
8
Layer 1
10
231.924053
20
-2.317640
11
230.933748
21
-2.437676
0
LINE
8
Layer 1
10
230.933748
20
-2.437676
11
229.965992
21
-2.762686
0
LINE
8
Layer 1
10
229.965992
20
-2.762686
11
229.019572
21
-3.328386
0
LINE
8
Layer 1
10
229.019572
20
-3.328386
11
228.093276
21
-4.170495
0
LINE
8
Layer 1
10
228.093276
20
-4.170495
11
227.185892
21
-5.324732
0
LINE
8
Layer 1
10
227.185892
20
-5.324732
11
224.702789
21
-5.032881
0
LINE
8
Layer 1
10
224.702789
20
-5.032881
11
222.035884
21
-4.372433
0
LINE
8
Layer 1
10
222.035884
20
-4.372433
11
216.306605
21
-2.395116
0
LINE
8
Layer 1
10
216.306605
20
-2.395116
11
210.309930
21
-0.291531
0
LINE
8
Layer 1
10
210.309930
20
-0.291531
11
207.308781
21
0.526753
0
LINE
8
Layer 1
10
207.308781
20
0.526753
11
204.357735
21
1.039574
0
LINE
8
Layer 1
10
204.357735
20
1.039574
11
202.158523
21
-0.129863
0
LINE
8
Layer 1
10
202.158523
20
-0.129863
11
199.803160
21
-0.963075
0
LINE
8
Layer 1
10
199.803160
20
-0.963075
11
197.365975
21
-1.420914
0
LINE
8
Layer 1
10
197.365975
20
-1.420914
11
194.921298
21
-1.464232
0
LINE
8
Layer 1
10
194.921298
20
-1.464232
11
192.543458
21
-1.053882
0
LINE
8
Layer 1
10
192.543458
20
-1.053882
11
190.306785
21
-0.150716
0
LINE
8
Layer 1
10
190.306785
20
-0.150716
11
189.264614
21
0.497907
0
LINE
8
Layer 1
10
189.264614
20
0.497907
11
188.285608
21
1.284415
0
LINE
8
Layer 1
10
188.285608
20
1.284415
11
187.379059
21
2.213700
0
LINE
8
Layer 1
10
187.379059
20
2.213700
11
186.554257
21
3.290657
0
LINE
8
Layer 1
10
186.554257
20
3.290657
11
184.968636
21
4.082743
0
LINE
8
Layer 1
10
184.968636
20
4.082743
11
183.371995
21
4.571992
0
LINE
8
Layer 1
10
183.371995
20
4.571992
11
181.768117
21
4.797920
0
LINE
8
Layer 1
10
181.768117
20
4.797920
11
180.160787
21
4.800042
0
LINE
8
Layer 1
10
180.160787
20
4.800042
11
178.553789
21
4.617873
0
LINE
8
Layer 1
10
178.553789
20
4.617873
11
176.950907
21
4.290927
0
LINE
8
Layer 1
10
176.950907
20
4.290927
11
173.772628
21
3.360769
0
LINE
8
Layer 1
10
173.772628
20
3.360769
11
170.656223
21
2.325687
0
LINE
8
Layer 1
10
170.656223
20
2.325687
11
167.631965
21
1.501805
0
LINE
8
Layer 1
10
167.631965
20
1.501805
11
166.163851
21
1.267850
0
LINE
8
Layer 1
10
166.163851
20
1.267850
11
164.730127
21
1.205241
0
LINE
8
Layer 1
10
164.730127
20
1.205241
11
163.334575
21
1.353492
0
LINE
8
Layer 1
10
163.334575
20
1.353492
11
161.980982
21
1.752117
0
LINE
8
Layer 1
10
161.980982
20
1.752117
11
161.282790
21
1.756458
0
LINE
8
Layer 1
10
161.282790
20
1.756458
11
160.583432
21
1.614593
0
LINE
8
Layer 1
10
160.583432
20
1.614593
11
159.183472
21
1.017351
0
LINE
8
Layer 1
10
159.183472
20
1.017351
11
156.394363
21
-0.555472
0
LINE
8
Layer 1
10
156.394363
20
-0.555472
11
155.014234
21
-1.030645
0
LINE
8
Layer 1
10
155.014234
20
-1.030645
11
154.329749
21
-1.080958
0
LINE
8
Layer 1
10
154.329749
20
-1.080958
11
153.649736
21
-0.964721
0
LINE
8
Layer 1
10
153.649736
20
-0.964721
11
152.974757
21
-0.650658
0
LINE
8
Layer 1
10
152.974757
20
-0.650658
11
152.305378
21
-0.107495
0
LINE
8
Layer 1
10
152.305378
20
-0.107495
11
151.642162
21
0.696045
0
LINE
8
Layer 1
10
151.642162
20
0.696045
11
150.985672
21
1.791236
0
LINE
8
Layer 1
10
150.985672
20
1.791236
11
150.110582
21
2.226230
0
LINE
8
Layer 1
10
150.110582
20
2.226230
11
149.210813
21
2.426182
0
LINE
8
Layer 1
10
149.210813
20
2.426182
11
148.289964
21
2.431995
0
LINE
8
Layer 1
10
148.289964
20
2.431995
11
147.351639
21
2.284573
0
LINE
8
Layer 1
10
147.351639
20
2.284573
11
145.436961
21
1.693639
0
LINE
8
Layer 1
10
145.436961
20
1.693639
11
143.495589
21
0.980607
0
LINE
8
Layer 1
10
143.495589
20
0.980607
11
141.556334
21
0.472707
0
LINE
8
Layer 1
10
141.556334
20
0.472707
11
140.596503
21
0.397941
0
LINE
8
Layer 1
10
140.596503
20
0.397941
11
139.648006
21
0.497168
0
LINE
8
Layer 1
10
139.648006
20
0.497168
11
138.714443
21
0.811293
0
LINE
8
Layer 1
10
138.714443
20
0.811293
11
137.799416
21
1.381218
0
LINE
8
Layer 1
10
137.799416
20
1.381218
11
136.906526
21
2.247848
0
LINE
8
Layer 1
10
136.906526
20
2.247848
11
136.039375
21
3.452086
0
LINE
8
Layer 1
10
136.039375
20
3.452086
11
135.148013
21
4.996169
0
LINE
8
Layer 1
10
135.148013
20
4.996169
11
134.211914
21
6.062991
0
LINE
8
Layer 1
10
134.211914
20
6.062991
11
133.233546
21
6.710056
0
LINE
8
Layer 1
10
133.233546
20
6.710056
11
132.215376
21
6.994870
0
LINE
8
Layer 1
10
132.215376
20
6.994870
11
131.159873
21
6.974936
0
LINE
8
Layer 1
10
131.159873
20
6.974936
11
130.069505
21
6.707761
0
LINE
8
Layer 1
10
130.069505
20
6.707761
11
127.794045
21
5.661706
0
LINE
8
Layer 1
10
127.794045
20
5.661706
11
125.408740
21
4.316744
0
LINE
8
Layer 1
10
125.408740
20
4.316744
11
122.933337
21
3.132915
0
LINE
8
Layer 1
10
122.933337
20
3.132915
11
121.668018
21
2.745189
0
LINE
8
Layer 1
10
121.668018
20
2.745189
11
120.387579
21
2.570261
0
LINE
8
Layer 1
10
120.387579
20
2.570261
11
119.094487
21
2.665637
0
LINE
8
Layer 1
10
119.094487
20
2.665637
11
117.791210
21
3.088821
0
LINE
8
Layer 1
10
117.791210
20
3.088821
11
115.258113
21
4.507957
0
LINE
8
Layer 1
10
115.258113
20
4.507957
11
112.737834
21
5.533234
0
LINE
8
Layer 1
10
112.737834
20
5.533234
11
110.228453
21
6.165939
0
LINE
8
Layer 1
10
110.228453
20
6.165939
11
107.728048
21
6.407358
0
LINE
8
Layer 1
10
107.728048
20
6.407358
11
105.234699
21
6.258776
0
LINE
8
Layer 1
10
105.234699
20
6.258776
11
102.746484
21
5.721479
0
LINE
8
Layer 1
10
102.746484
20
5.721479
11
100.261483
21
4.796755
0
LINE
8
Layer 1
10
100.261483
20
4.796755
11
97.777774
21
3.485888
0
LINE
8
Layer 1
10
97.777774
20
3.485888
11
97.199017
21
4.826423
0
LINE
8
Layer 1
10
97.199017
20
4.826423
11
96.488413
21
5.940756
0
LINE
8
Layer 1
10
96.488413
20
5.940756
11
95.658755
21
6.850120
0
LINE
8
Layer 1
10
95.658755
20
6.850120
11
94.722836
21
7.575748
0
LINE
8
Layer 1
10
94.722836
20
7.575748
11
93.693450
21
8.138874
0
LINE
8
Layer 1
10
93.693450
20
8.138874
11
92.583389
21
8.560732
0
LINE
8
Layer 1
10
92.583389
20
8.560732
11
90.172419
21
9.065579
0
LINE
8
Layer 1
10
90.172419
20
9.065579
11
87.592272
21
9.260159
0
LINE
8
Layer 1
10
87.592272
20
9.260159
11
84.945295
21
9.314343
0
LINE
8
Layer 1
10
84.945295
20
9.314343
11
82.333833
21
9.398000
0
LINE
8
Layer 1
10
82.333833
20
9.398000
11
79.860233
21
9.681001
0
LINE
8
Layer 1
10
79.860233
20
9.681001
11
74.040447
21
10.743661
0
LINE
8
Layer 1
10
74.040447
20
10.743661
11
68.160186
21
11.672381
0
LINE
8
Layer 1
10
68.160186
20
11.672381
11
65.255586
21
12.263976
0
LINE
8
Layer 1
10
65.255586
20
12.263976
11
62.405715
21
13.035041
0
LINE
8
Layer 1
10
62.405715
20
13.035041
11
59.633859
21
14.056563
0
LINE
8
Layer 1
10
59.633859
20
14.056563
11
56.963299
21
15.399526
0
LINE
8
Layer 1
10
56.963299
20
15.399526
11
55.648854
21
16.222167
0
LINE
8
Layer 1
10
55.648854
20
16.222167
11
54.274792
21
16.758178
0
LINE
8
Layer 1
10
54.274792
20
16.758178
11
52.851507
21
17.049007
0
LINE
8
Layer 1
10
52.851507
20
17.049007
11
51.389392
21
17.136102
0
LINE
8
Layer 1
10
51.389392
20
17.136102
11
48.390245
21
16.864888
0
LINE
8
Layer 1
10
48.390245
20
16.864888
11
45.360497
21
16.276125
0
LINE
8
Layer 1
10
45.360497
20
16.276125
11
42.383292
21
15.701402
0
LINE
8
Layer 1
10
42.383292
20
15.701402
11
39.541779
21
15.472309
0
LINE
8
Layer 1
10
39.541779
20
15.472309
11
38.197889
21
15.590995
0
LINE
8
Layer 1
10
38.197889
20
15.590995
11
36.919102
21
15.920434
0
LINE
8
Layer 1
10
36.919102
20
15.920434
11
35.715810
21
16.502076
0
LINE
8
Layer 1
10
35.715810
20
16.502076
11
34.598407
21
17.377368
0
LINE
8
Layer 1
10
34.598407
20
17.377368
11
33.881256
21
17.982803
0
LINE
8
Layer 1
10
33.881256
20
17.982803
11
33.372601
21
18.668445
0
LINE
8
Layer 1
10
33.372601
20
18.668445
11
33.047699
21
19.416989
0
LINE
8
Layer 1
10
33.047699
20
19.416989
11
32.881805
21
20.211126
0
LINE
8
Layer 1
10
32.881805
20
20.211126
11
32.928065
21
21.866953
0
LINE
8
Layer 1
10
32.928065
20
21.866953
11
33.313425
21
23.497472
0
LINE
8
Layer 1
10
33.313425
20
23.497472
11
34.309629
21
26.128754
0
LINE
8
Layer 1
10
34.309629
20
26.128754
11
34.524565
21
26.852606
0
LINE
8
Layer 1
10
34.524565
20
26.852606
11
34.474636
21
27.006011
0
LINE
8
Layer 1
10
34.474636
20
27.006011
11
34.286783
21
26.997324
0
LINE
8
Layer 1
10
34.286783
20
26.997324
11
25.408044
21
23.096750
0
LINE
8
Layer 1
10
25.408044
20
23.096750
11
20.894689
21
21.281468
0
LINE
8
Layer 1
10
20.894689
20
21.281468
11
16.275601
21
19.773829
0
LINE
8
Layer 1
10
16.275601
20
19.773829
11
14.767101
21
19.988128
0
LINE
8
Layer 1
10
14.767101
20
19.988128
11
13.531720
21
20.008993
0
LINE
8
Layer 1
10
13.531720
20
20.008993
11
12.555832
21
19.863883
0
LINE
8
Layer 1
10
12.555832
20
19.863883
11
11.825809
21
19.580258
0
LINE
8
Layer 1
10
11.825809
20
19.580258
11
11.328025
21
19.185575
0
LINE
8
Layer 1
10
11.328025
20
19.185575
11
11.048852
21
18.707294
0
LINE
8
Layer 1
10
11.048852
20
18.707294
11
10.974665
21
18.172874
0
LINE
8
Layer 1
10
10.974665
20
18.172874
11
11.091836
21
17.609773
0
LINE
8
Layer 1
10
11.091836
20
17.609773
11
11.386738
21
17.045451
0
LINE
8
Layer 1
10
11.386738
20
17.045451
11
11.845746
21
16.507367
0
LINE
8
Layer 1
10
11.845746
20
16.507367
11
13.201568
21
15.619746
0
LINE
8
Layer 1
10
13.201568
20
15.619746
11
14.071130
21
15.325127
0
LINE
8
Layer 1
10
14.071130
20
15.325127
11
15.050289
21
15.166581
0
LINE
8
Layer 1
10
15.050289
20
15.166581
11
16.125419
21
15.171568
0
LINE
8
Layer 1
10
16.125419
20
15.171568
11
17.282893
21
15.367545
0
LINE
8
Layer 1
10
17.282893
20
15.367545
11
18.830224
21
15.688096
0
LINE
8
Layer 1
10
18.830224
20
15.688096
11
20.360726
21
15.837932
0
LINE
8
Layer 1
10
20.360726
20
15.837932
11
23.377652
21
15.708576
0
LINE
8
Layer 1
10
23.377652
20
15.708576
11
26.346491
21
15.145711
0
LINE
8
Layer 1
10
26.346491
20
15.145711
11
29.280060
21
14.315568
0
LINE
8
Layer 1
10
29.280060
20
14.315568
11
35.092666
21
12.518381
0
LINE
8
Layer 1
10
35.092666
20
12.518381
11
37.997339
21
11.883802
0
LINE
8
Layer 1
10
37.997339
20
11.883802
11
40.918017
21
11.646876
0
LINE
8
Layer 1
10
40.918017
20
11.646876
11
58.152185
21
9.017463
0
LINE
8
Layer 1
10
58.152185
20
9.017463
11
66.736544
21
7.394459
0
LINE
8
Layer 1
10
66.736544
20
7.394459
11
70.980607
21
6.365084
0
LINE
8
Layer 1
10
70.980607
20
6.365084
11
75.177376
21
5.136823
0
LINE
8
Layer 1
10
75.177376
20
5.136823
11
80.050101
21
3.805557
0
LINE
8
Layer 1
10
80.050101
20
3.805557
11
84.918095
21
2.365848
0
LINE
8
Layer 1
10
84.918095
20
2.365848
11
87.368573
21
1.743879
0
LINE
8
Layer 1
10
87.368573
20
1.743879
11
89.839773
21
1.261061
0
LINE
8
Layer 1
10
89.839773
20
1.261061
11
92.338998
21
0.972814
0
LINE
8
Layer 1
10
92.338998
20
0.972814
11
94.873549
21
0.934559
0
LINE
8
Layer 1
10
94.873549
20
0.934559
11
100.006077
21
1.184239
0
LINE
8
Layer 1
10
100.006077
20
1.184239
11
105.214789
21
1.280949
0
LINE
8
Layer 1
10
105.214789
20
1.280949
11
110.505560
21
1.144225
0
LINE
8
Layer 1
10
110.505560
20
1.144225
11
115.884263
21
0.693603
0
LINE
8
Layer 1
10
115.884263
20
0.693603
11
119.755487
21
-0.157918
0
LINE
8
Layer 1
10
119.755487
20
-0.157918
11
123.535948
21
-1.371900
0
LINE
8
Layer 1
10
123.535948
20
-1.371900
11
130.978720
21
-4.256572
0
LINE
8
Layer 1
10
130.978720
20
-4.256572
11
134.718101
21
-5.611926
0
LINE
8
Layer 1
10
134.718101
20
-5.611926
11
138.520858
21
-6.699069
0
LINE
8
Layer 1
10
138.520858
20
-6.699069
11
142.425526
21
-7.360331
0
LINE
8
Layer 1
10
142.425526
20
-7.360331
11
144.428119
21
-7.481986
0
LINE
8
Layer 1
10
144.428119
20
-7.481986
11
146.470641
21
-7.438046
0
LINE
8
Layer 1
10
146.470641
20
-7.438046
11
148.929404
21
-7.391949
0
LINE
8
Layer 1
10
148.929404
20
-7.391949
11
151.361267
21
-7.169890
0
LINE
8
Layer 1
10
151.361267
20
-7.169890
11
156.193164
21
-6.423825
0
LINE
8
Layer 1
10
156.193164
20
-6.423825
11
161.064077
21
-5.651738
0
LINE
8
Layer 1
10
161.064077
20
-5.651738
11
163.544709
21
-5.397151
0
LINE
8
Layer 1
10
163.544709
20
-5.397151
11
166.071748
21
-5.305515
0
LINE
8
Layer 1
10
166.071748
20
-5.305515
11
174.985307
21
-5.123973
0
LINE
8
Layer 1
10
174.985307
20
-5.123973
11
179.435983
21
-5.226576
0
LINE
8
Layer 1
10
179.435983
20
-5.226576
11
183.864279
21
-5.520521
0
LINE
8
Layer 1
10
183.864279
20
-5.520521
11
188.256465
21
-6.052632
0
LINE
8
Layer 1
10
188.256465
20
-6.052632
11
192.598809
21
-6.869729
0
LINE
8
Layer 1
10
192.598809
20
-6.869729
11
196.877579
21
-8.018633
0
LINE
8
Layer 1
10
196.877579
20
-8.018633
11
201.079044
21
-9.546167
0
LINE
8
Layer 1
10
201.079044
20
-9.546167
11
203.484688
21
-10.227522
0
LINE
8
Layer 1
10
203.484688
20
-10.227522
11
205.881204
21
-10.673750
0
LINE
8
Layer 1
10
205.881204
20
-10.673750
11
210.651726
21
-11.072736
0
LINE
8
Layer 1
10
210.651726
20
-11.072736
11
215.400356
21
-11.166950
0
LINE
8
Layer 1
10
215.400356
20
-11.166950
11
220.136841
21
-11.380216
0
LINE
8
Layer 1
10
220.136841
20
-11.380216
11
222.276150
21
-11.188913
0
LINE
8
Layer 1
10
222.276150
20
-11.188913
11
224.434617
21
-11.157392
0
LINE
8
Layer 1
10
224.434617
20
-11.157392
11
228.786550
21
-11.385518
0
LINE
8
Layer 1
10
228.786550
20
-11.385518
11
233.147700
21
-11.688245
0
LINE
8
Layer 1
10
233.147700
20
-11.688245
11
237.473123
21
-11.689221
0
LINE
8
Layer 1
10
237.473123
20
-11.689221
11
237.473123
21
-11.689221
0
LINE
8
Layer 1
10
202.350116
20
-17.932454
11
201.953845
21
-17.122412
0
LINE
8
Layer 1
10
201.953845
20
-17.122412
11
202.005594
21
-16.314291
0
LINE
8
Layer 1
10
202.005594
20
-16.314291
11
202.322414
21
-15.537648
0
LINE
8
Layer 1
10
202.322414
20
-15.537648
11
202.721357
21
-14.822041
0
LINE
8
Layer 1
10
202.721357
20
-14.822041
11
203.019476
21
-14.197028
0
LINE
8
Layer 1
10
203.019476
20
-14.197028
11
203.033820
21
-13.692167
0
LINE
8
Layer 1
10
203.033820
20
-13.692167
11
202.581444
21
-13.337017
0
LINE
8
Layer 1
10
202.581444
20
-13.337017
11
201.479398
21
-13.161134
0
LINE
8
Layer 1
10
201.479398
20
-13.161134
11
198.865231
21
-12.584802
0
LINE
8
Layer 1
10
198.865231
20
-12.584802
11
196.324566
21
-11.784628
0
LINE
8
Layer 1
10
196.324566
20
-11.784628
11
193.801822
21
-10.951993
0
LINE
8
Layer 1
10
193.801822
20
-10.951993
11
191.241420
21
-10.278279
0
LINE
8
Layer 1
10
191.241420
20
-10.278279
11
186.253568
21
-9.422263
0
LINE
8
Layer 1
10
186.253568
20
-9.422263
11
183.781765
21
-9.141887
0
LINE
8
Layer 1
10
183.781765
20
-9.141887
11
181.173368
21
-9.054315
0
LINE
8
Layer 1
10
181.173368
20
-9.054315
11
178.447934
21
-8.769531
0
LINE
8
Layer 1
10
178.447934
20
-8.769531
11
175.813018
21
-8.731478
0
LINE
8
Layer 1
10
175.813018
20
-8.731478
11
173.171767
21
-8.728640
0
LINE
8
Layer 1
10
173.171767
20
-8.728640
11
170.427331
21
-8.549499
0
LINE
8
Layer 1
10
170.427331
20
-8.549499
11
168.860027
21
-8.542506
0
LINE
8
Layer 1
10
168.860027
20
-8.542506
11
167.316825
21
-8.676891
0
LINE
8
Layer 1
10
167.316825
20
-8.676891
11
164.269013
21
-9.174131
0
LINE
8
Layer 1
10
164.269013
20
-9.174131
11
161.216468
21
-9.649883
0
LINE
8
Layer 1
10
161.216468
20
-9.649883
11
159.667350
21
-9.757408
0
LINE
8
Layer 1
10
159.667350
20
-9.757408
11
158.091762
21
-9.712810
0
LINE
8
Layer 1
10
158.091762
20
-9.712810
11
151.897190
21
-10.494595
0
LINE
8
Layer 1
10
151.897190
20
-10.494595
11
148.781533
21
-10.756708
0
LINE
8
Layer 1
10
148.781533
20
-10.756708
11
145.641723
21
-10.792217
0
LINE
8
Layer 1
10
145.641723
20
-10.792217
11
142.827957
21
-10.825349
0
LINE
8
Layer 1
10
142.827957
20
-10.825349
11
140.060875
21
-10.570521
0
LINE
8
Layer 1
10
140.060875
20
-10.570521
11
137.328169
21
-10.099792
0
LINE
8
Layer 1
10
137.328169
20
-10.099792
11
134.617528
21
-9.485221
0
LINE
8
Layer 1
10
134.617528
20
-9.485221
11
129.627675
21
-7.772646
0
LINE
8
Layer 1
10
129.627675
20
-7.772646
11
124.716673
21
-5.740454
0
LINE
8
Layer 1
10
124.716673
20
-5.740454
11
122.611163
21
-4.709930
0
LINE
8
Layer 1
10
122.611163
20
-4.709930
11
120.391517
21
-4.011767
0
LINE
8
Layer 1
10
120.391517
20
-4.011767
11
118.061120
21
-3.534712
0
LINE
8
Layer 1
10
118.061120
20
-3.534712
11
115.623360
21
-3.167513
0
LINE
8
Layer 1
10
115.623360
20
-3.167513
11
113.196203
21
-2.703861
0
LINE
8
Layer 1
10
113.196203
20
-2.703861
11
110.591490
21
-2.492427
0
LINE
8
Layer 1
10
110.591490
20
-2.492427
11
105.270862
21
-2.348089
0
LINE
8
Layer 1
10
105.270862
20
-2.348089
11
100.088574
21
-2.508736
0
LINE
8
Layer 1
10
100.088574
20
-2.508736
11
97.605609
21
-2.736147
0
LINE
8
Layer 1
10
97.605609
20
-2.736147
11
95.151324
21
-3.310890
0
LINE
8
Layer 1
10
95.151324
20
-3.310890
11
93.235448
21
-2.708482
0
LINE
8
Layer 1
10
93.235448
20
-2.708482
11
91.253749
21
-2.421509
0
LINE
8
Layer 1
10
91.253749
20
-2.421509
11
87.203447
21
-2.353787
0
LINE
8
Layer 1
10
87.203447
20
-2.353787
11
87.032068
21
-3.264322
0
LINE
8
Layer 1
10
87.032068
20
-3.264322
11
87.103636
21
-4.268503
0
LINE
8
Layer 1
10
87.103636
20
-4.268503
11
87.374070
21
-5.247965
0
LINE
8
Layer 1
10
87.374070
20
-5.247965
11
87.799289
21
-6.084342
0
LINE
8
Layer 1
10
87.799289
20
-6.084342
11
88.335213
21
-6.659270
0
LINE
8
Layer 1
10
88.335213
20
-6.659270
11
88.937761
21
-6.854383
0
LINE
8
Layer 1
10
88.937761
20
-6.854383
11
89.562853
21
-6.551316
0
LINE
8
Layer 1
10
89.562853
20
-6.551316
11
90.166407
21
-5.631702
0
LINE
8
Layer 1
10
90.166407
20
-5.631702
11
90.629156
21
-4.616651
0
LINE
8
Layer 1
10
90.629156
20
-4.616651
11
91.187363
21
-4.207626
0
LINE
8
Layer 1
10
91.187363
20
-4.207626
11
91.792757
21
-4.280608
0
LINE
8
Layer 1
10
91.792757
20
-4.280608
11
92.397066
21
-4.711578
0
LINE
8
Layer 1
10
92.397066
20
-4.711578
11
92.952018
21
-5.376518
0
LINE
8
Layer 1
10
92.952018
20
-5.376518
11
93.409341
21
-6.151409
0
LINE
8
Layer 1
10
93.409341
20
-6.151409
11
93.838011
21
-7.534969
0
LINE
8
Layer 1
10
93.838011
20
-7.534969
11
94.767965
21
-7.968718
0
LINE
8
Layer 1
10
94.767965
20
-7.968718
11
95.689760
21
-7.953655
0
LINE
8
Layer 1
10
95.689760
20
-7.953655
11
97.465383
21
-7.305317
0
LINE
8
Layer 1
10
97.465383
20
-7.305317
11
98.297464
21
-7.036152
0
LINE
8
Layer 1
10
98.297464
20
-7.036152
11
99.077893
21
-7.046396
0
LINE
8
Layer 1
10
99.077893
20
-7.046396
11
99.795798
21
-7.518106
0
LINE
8
Layer 1
10
99.795798
20
-7.518106
11
100.440304
21
-8.633336
0
LINE
8
Layer 1
10
100.440304
20
-8.633336
11
101.127133
21
-9.706812
0
LINE
8
Layer 1
10
101.127133
20
-9.706812
11
101.438413
21
-9.936304
0
LINE
8
Layer 1
10
101.438413
20
-9.936304
11
101.734228
21
-10.000206
0
LINE
8
Layer 1
10
101.734228
20
-10.000206
11
102.297346
21
-9.748968
0
LINE
8
Layer 1
10
102.297346
20
-9.748968
11
102.852244
21
-9.188542
0
LINE
8
Layer 1
10
102.852244
20
-9.188542
11
103.434677
21
-8.554379
0
LINE
8
Layer 1
10
103.434677
20
-8.554379
11
104.080404
21
-8.081924
0
LINE
8
Layer 1
10
104.080404
20
-8.081924
11
104.825179
21
-8.006626
0
LINE
8
Layer 1
10
104.825179
20
-8.006626
11
105.704761
21
-8.563932
0
LINE
8
Layer 1
10
105.704761
20
-8.563932
11
105.642062
21
-9.623137
0
LINE
8
Layer 1
10
105.642062
20
-9.623137
11
106.011629
21
-10.554047
0
LINE
8
Layer 1
10
106.011629
20
-10.554047
11
106.670998
21
-11.291051
0
LINE
8
Layer 1
10
106.670998
20
-11.291051
11
107.477703
21
-11.768541
0
LINE
8
Layer 1
10
107.477703
20
-11.768541
11
108.289281
21
-11.920907
0
LINE
8
Layer 1
10
108.289281
20
-11.920907
11
108.963266
21
-11.682541
0
LINE
8
Layer 1
10
108.963266
20
-11.682541
11
109.357195
21
-10.987832
0
LINE
8
Layer 1
10
109.357195
20
-10.987832
11
109.328602
21
-9.771171
0
LINE
8
Layer 1
10
109.328602
20
-9.771171
11
109.908692
21
-9.230507
0
LINE
8
Layer 1
10
109.908692
20
-9.230507
11
110.579775
21
-9.124610
0
LINE
8
Layer 1
10
110.579775
20
-9.124610
11
111.293899
21
-9.369292
0
LINE
8
Layer 1
10
111.293899
20
-9.369292
11
112.003110
21
-9.880363
0
LINE
8
Layer 1
10
112.003110
20
-9.880363
11
113.214982
21
-11.364909
0
LINE
8
Layer 1
10
113.214982
20
-11.364909
11
113.621736
21
-12.170005
0
LINE
8
Layer 1
10
113.621736
20
-12.170005
11
113.831765
21
-12.904730
0
LINE
8
Layer 1
10
113.831765
20
-12.904730
11
114.756697
21
-13.529539
0
LINE
8
Layer 1
10
114.756697
20
-13.529539
11
115.445835
21
-13.734654
0
LINE
8
Layer 1
10
115.445835
20
-13.734654
11
115.924972
21
-13.592001
0
LINE
8
Layer 1
10
115.924972
20
-13.592001
11
116.219899
21
-13.173513
0
LINE
8
Layer 1
10
116.219899
20
-13.173513
11
116.356408
21
-12.551117
0
LINE
8
Layer 1
10
116.356408
20
-12.551117
11
116.360290
21
-11.796745
0
LINE
8
Layer 1
10
116.360290
20
-11.796745
11
116.073343
21
-10.179787
0
LINE
8
Layer 1
10
116.073343
20
-10.179787
11
116.363314
21
-9.483515
0
LINE
8
Layer 1
10
116.363314
20
-9.483515
11
116.946601
21
-9.132003
0
LINE
8
Layer 1
10
116.946601
20
-9.132003
11
117.704192
21
-9.088522
0
LINE
8
Layer 1
10
117.704192
20
-9.088522
11
118.517072
21
-9.316340
0
LINE
8
Layer 1
10
118.517072
20
-9.316340
11
119.266229
21
-9.778730
0
LINE
8
Layer 1
10
119.266229
20
-9.778730
11
119.832649
21
-10.438962
0
LINE
8
Layer 1
10
119.832649
20
-10.438962
11
120.097319
21
-11.260306
0
LINE
8
Layer 1
10
120.097319
20
-11.260306
11
119.941227
21
-12.206032
0
LINE
8
Layer 1
10
119.941227
20
-12.206032
11
120.038612
21
-12.757379
0
LINE
8
Layer 1
10
120.038612
20
-12.757379
11
120.263950
21
-13.230064
0
LINE
8
Layer 1
10
120.263950
20
-13.230064
11
121.017124
21
-13.937972
0
LINE
8
Layer 1
10
121.017124
20
-13.937972
11
122.038028
21
-14.326806
0
LINE
8
Layer 1
10
122.038028
20
-14.326806
11
123.163937
21
-14.393611
0
LINE
8
Layer 1
10
123.163937
20
-14.393611
11
124.232130
21
-14.135435
0
LINE
8
Layer 1
10
124.232130
20
-14.135435
11
125.079882
21
-13.549326
0
LINE
8
Layer 1
10
125.079882
20
-13.549326
11
125.544471
21
-12.632330
0
LINE
8
Layer 1
10
125.544471
20
-12.632330
11
125.582228
21
-12.048827
0
LINE
8
Layer 1
10
125.582228
20
-12.048827
11
125.463173
21
-11.381494
0
LINE
8
Layer 1
10
125.463173
20
-11.381494
11
126.658614
21
-10.756324
0
LINE
8
Layer 1
10
126.658614
20
-10.756324
11
127.078645
21
-10.716201
0
LINE
8
Layer 1
10
127.078645
20
-10.716201
11
127.401705
21
-10.824962
0
LINE
8
Layer 1
10
127.401705
20
-10.824962
11
127.821373
21
-11.390864
0
LINE
8
Layer 1
10
127.821373
20
-11.390864
11
128.046547
21
-12.257489
0
LINE
8
Layer 1
10
128.046547
20
-12.257489
11
128.429117
21
-14.106739
0
LINE
8
Layer 1
10
128.429117
20
-14.106739
11
128.844369
21
-14.696280
0
LINE
8
Layer 1
10
128.844369
20
-14.696280
11
129.164392
21
-14.821292
0
LINE
8
Layer 1
10
129.164392
20
-14.821292
11
129.580835
21
-14.800374
0
LINE
8
Layer 1
10
129.580835
20
-14.800374
11
130.523226
21
-15.019224
0
LINE
8
Layer 1
10
130.523226
20
-15.019224
11
131.344745
21
-15.030274
0
LINE
8
Layer 1
10
131.344745
20
-15.030274
11
132.050173
21
-14.853774
0
LINE
8
Layer 1
10
132.050173
20
-14.853774
11
132.644288
21
-14.509970
0
LINE
8
Layer 1
10
132.644288
20
-14.509970
11
133.131872
21
-14.019112
0
LINE
8
Layer 1
10
133.131872
20
-14.019112
11
133.517704
21
-13.401448
0
LINE
8
Layer 1
10
133.517704
20
-13.401448
11
134.003234
21
-11.866697
0
LINE
8
Layer 1
10
134.003234
20
-11.866697
11
135.001355
21
-11.357772
0
LINE
8
Layer 1
10
135.001355
20
-11.357772
11
135.795303
21
-11.315862
0
LINE
8
Layer 1
10
135.795303
20
-11.315862
11
136.402961
21
-11.640775
0
LINE
8
Layer 1
10
136.402961
20
-11.640775
11
136.842209
21
-12.232323
0
LINE
8
Layer 1
10
136.842209
20
-12.232323
11
137.130929
21
-12.990313
0
LINE
8
Layer 1
10
137.130929
20
-12.990313
11
137.287001
21
-13.814557
0
LINE
8
Layer 1
10
137.287001
20
-13.814557
11
137.272728
21
-15.261045
0
LINE
8
Layer 1
10
137.272728
20
-15.261045
11
138.345891
21
-15.391416
0
LINE
8
Layer 1
10
138.345891
20
-15.391416
11
139.224736
21
-15.268097
0
LINE
8
Layer 1
10
139.224736
20
-15.268097
11
139.939670
21
-14.932268
0
LINE
8
Layer 1
10
139.939670
20
-14.932268
11
140.521102
21
-14.425110
0
LINE
8
Layer 1
10
140.521102
20
-14.425110
11
141.405093
21
-13.061532
0
LINE
8
Layer 1
10
141.405093
20
-13.061532
11
142.119977
21
-11.506807
0
LINE
8
Layer 1
10
142.119977
20
-11.506807
11
143.079172
21
-11.305413
0
LINE
8
Layer 1
10
143.079172
20
-11.305413
11
143.856115
21
-11.396738
0
LINE
8
Layer 1
10
143.856115
20
-11.396738
11
144.454777
21
-11.728398
0
LINE
8
Layer 1
10
144.454777
20
-11.728398
11
144.879128
21
-12.248008
0
LINE
8
Layer 1
10
144.879128
20
-12.248008
11
145.133141
21
-12.903183
0
LINE
8
Layer 1
10
145.133141
20
-12.903183
11
145.220787
21
-13.641537
0
LINE
8
Layer 1
10
145.220787
20
-13.641537
11
145.146036
21
-14.410688
0
LINE
8
Layer 1
10
145.146036
20
-14.410688
11
144.912862
21
-15.158249
0
LINE
8
Layer 1
10
144.912862
20
-15.158249
11
146.387082
21
-15.133633
0
LINE
8
Layer 1
10
146.387082
20
-15.133633
11
147.797472
21
-15.153887
0
LINE
8
Layer 1
10
147.797472
20
-15.153887
11
148.377531
21
-14.993018
0
LINE
8
Layer 1
10
148.377531
20
-14.993018
11
148.820192
21
-14.617979
0
LINE
8
Layer 1
10
148.820192
20
-14.617979
11
149.084976
21
-13.953642
0
LINE
8
Layer 1
10
149.084976
20
-13.953642
11
149.131404
21
-12.924877
0
LINE
8
Layer 1
10
149.131404
20
-12.924877
11
149.830717
21
-11.957379
0
LINE
8
Layer 1
10
149.830717
20
-11.957379
11
150.630847
21
-11.581861
0
LINE
8
Layer 1
10
150.630847
20
-11.581861
11
151.437641
21
-11.690547
0
LINE
8
Layer 1
10
151.437641
20
-11.690547
11
152.156947
21
-12.175661
0
LINE
8
Layer 1
10
152.156947
20
-12.175661
11
152.694609
21
-12.929426
0
LINE
8
Layer 1
10
152.694609
20
-12.929426
11
152.956476
21
-13.844067
0
LINE
8
Layer 1
10
152.956476
20
-13.844067
11
152.848394
21
-14.811807
0
LINE
8
Layer 1
10
152.848394
20
-14.811807
11
152.276209
21
-15.724869
0
LINE
8
Layer 1
10
152.276209
20
-15.724869
11
153.898400
21
-16.117812
0
LINE
8
Layer 1
10
153.898400
20
-16.117812
11
154.608288
21
-16.157113
0
LINE
8
Layer 1
10
154.608288
20
-16.157113
11
155.230333
21
-16.051982
0
LINE
8
Layer 1
10
155.230333
20
-16.051982
11
155.749256
21
-15.772683
0
LINE
8
Layer 1
10
155.749256
20
-15.772683
11
156.149778
21
-15.289478
0
LINE
8
Layer 1
10
156.149778
20
-15.289478
11
156.416620
21
-14.572629
0
LINE
8
Layer 1
10
156.416620
20
-14.572629
11
156.534505
21
-13.592398
0
LINE
8
Layer 1
10
156.534505
20
-13.592398
11
157.207288
21
-12.280589
0
LINE
8
Layer 1
10
157.207288
20
-12.280589
11
157.593432
21
-11.907668
0
LINE
8
Layer 1
10
157.593432
20
-11.907668
11
157.995944
21
-11.701490
0
LINE
8
Layer 1
10
157.995944
20
-11.701490
11
158.799678
21
-11.723631
0
LINE
8
Layer 1
10
158.799678
20
-11.723631
11
159.517694
21
-12.215542
0
LINE
8
Layer 1
10
159.517694
20
-12.215542
11
160.049198
21
-13.045753
0
LINE
8
Layer 1
10
160.049198
20
-13.045753
11
160.293397
21
-14.082794
0
LINE
8
Layer 1
10
160.293397
20
-14.082794
11
160.149494
21
-15.195195
0
LINE
8
Layer 1
10
160.149494
20
-15.195195
11
159.516696
21
-16.251487
0
LINE
8
Layer 1
10
159.516696
20
-16.251487
11
160.525512
21
-16.990225
0
LINE
8
Layer 1
10
160.525512
20
-16.990225
11
161.244500
21
-17.220837
0
LINE
8
Layer 1
10
161.244500
20
-17.220837
11
161.736396
21
-17.045232
0
LINE
8
Layer 1
10
161.736396
20
-17.045232
11
162.063932
21
-16.565318
0
LINE
8
Layer 1
10
162.063932
20
-16.565318
11
162.476866
21
-15.100200
0
LINE
8
Layer 1
10
162.476866
20
-15.100200
11
162.985176
21
-13.640751
0
LINE
8
Layer 1
10
162.985176
20
-13.640751
11
164.023931
21
-12.472810
0
LINE
8
Layer 1
10
164.023931
20
-12.472810
11
164.502931
21
-12.187115
0
LINE
8
Layer 1
10
164.502931
20
-12.187115
11
164.948625
21
-12.074607
0
LINE
8
Layer 1
10
164.948625
20
-12.074607
11
165.720931
21
-12.292166
0
LINE
8
Layer 1
10
165.720931
20
-12.292166
11
166.302517
21
-12.971507
0
LINE
8
Layer 1
10
166.302517
20
-12.971507
11
166.655055
21
-13.958653
0
LINE
8
Layer 1
10
166.655055
20
-13.958653
11
166.740216
21
-15.099626
0
LINE
8
Layer 1
10
166.740216
20
-15.099626
11
166.519670
21
-16.240448
0
LINE
8
Layer 1
10
166.519670
20
-16.240448
11
165.955088
21
-17.227141
0
LINE
8
Layer 1
10
165.955088
20
-17.227141
11
167.339544
21
-17.490694
0
LINE
8
Layer 1
10
167.339544
20
-17.490694
11
168.926254
21
-17.679929
0
LINE
8
Layer 1
10
168.926254
20
-17.679929
11
169.597824
21
-17.599469
0
LINE
8
Layer 1
10
169.597824
20
-17.599469
11
170.082804
21
-17.323778
0
LINE
8
Layer 1
10
170.082804
20
-17.323778
11
170.302140
21
-16.793975
0
LINE
8
Layer 1
10
170.302140
20
-16.793975
11
170.176783
21
-15.951175
0
LINE
8
Layer 1
10
170.176783
20
-15.951175
11
170.175805
21
-14.734963
0
LINE
8
Layer 1
10
170.175805
20
-14.734963
11
170.542976
21
-13.723953
0
LINE
8
Layer 1
10
170.542976
20
-13.723953
11
171.164372
21
-12.973148
0
LINE
8
Layer 1
10
171.164372
20
-12.973148
11
171.926067
21
-12.537548
0
LINE
8
Layer 1
10
171.926067
20
-12.537548
11
172.714135
21
-12.472156
0
LINE
8
Layer 1
10
172.714135
20
-12.472156
11
173.414650
21
-12.831973
0
LINE
8
Layer 1
10
173.414650
20
-12.831973
11
173.913688
21
-13.672001
0
LINE
8
Layer 1
10
173.913688
20
-13.672001
11
174.097323
21
-15.047242
0
LINE
8
Layer 1
10
174.097323
20
-15.047242
11
173.724003
21
-15.676597
0
LINE
8
Layer 1
10
173.724003
20
-15.676597
11
173.555977
21
-16.223880
0
LINE
8
Layer 1
10
173.555977
20
-16.223880
11
173.565054
21
-16.688381
0
LINE
8
Layer 1
10
173.565054
20
-16.688381
11
173.723040
21
-17.069391
0
LINE
8
Layer 1
10
173.723040
20
-17.069391
11
174.372972
21
-17.578098
0
LINE
8
Layer 1
10
174.372972
20
-17.578098
11
175.280231
21
-17.744325
0
LINE
8
Layer 1
10
175.280231
20
-17.744325
11
176.219277
21
-17.562397
0
LINE
8
Layer 1
10
176.219277
20
-17.562397
11
176.964570
21
-17.026637
0
LINE
8
Layer 1
10
176.964570
20
-17.026637
11
177.194077
21
-16.624296
0
LINE
8
Layer 1
10
177.194077
20
-16.624296
11
177.290568
21
-16.131368
0
LINE
8
Layer 1
10
177.290568
20
-16.131368
11
177.225850
21
-15.547145
0
LINE
8
Layer 1
10
177.225850
20
-15.547145
11
176.971731
21
-14.870915
0
LINE
8
Layer 1
10
176.971731
20
-14.870915
11
177.286365
21
-14.211906
0
LINE
8
Layer 1
10
177.286365
20
-14.211906
11
177.643694
21
-13.851523
0
LINE
8
Layer 1
10
177.643694
20
-13.851523
11
178.036800
21
-13.748020
0
LINE
8
Layer 1
10
178.036800
20
-13.748020
11
178.458762
21
-13.859648
0
LINE
8
Layer 1
10
178.458762
20
-13.859648
11
179.361577
21
-14.561311
0
LINE
8
Layer 1
10
179.361577
20
-14.561311
11
180.296782
21
-15.622535
0
LINE
8
Layer 1
10
180.296782
20
-15.622535
11
181.209017
21
-16.709341
0
LINE
8
Layer 1
10
181.209017
20
-16.709341
11
182.042924
21
-17.487753
0
LINE
8
Layer 1
10
182.042924
20
-17.487753
11
182.413206
21
-17.656942
0
LINE
8
Layer 1
10
182.413206
20
-17.656942
11
182.743147
21
-17.623791
0
LINE
8
Layer 1
10
182.743147
20
-17.623791
11
183.025826
21
-17.346553
0
LINE
8
Layer 1
10
183.025826
20
-17.346553
11
183.254325
21
-16.783479
0
LINE
8
Layer 1
10
183.254325
20
-16.783479
11
182.620636
21
-15.721034
0
LINE
8
Layer 1
10
182.620636
20
-15.721034
11
182.567960
21
-14.780638
0
LINE
8
Layer 1
10
182.567960
20
-14.780638
11
182.945011
21
-14.024914
0
LINE
8
Layer 1
10
182.945011
20
-14.024914
11
183.600506
21
-13.516484
0
LINE
8
Layer 1
10
183.600506
20
-13.516484
11
184.383159
21
-13.317969
0
LINE
8
Layer 1
10
184.383159
20
-13.317969
11
185.141688
21
-13.491992
0
LINE
8
Layer 1
10
185.141688
20
-13.491992
11
185.724806
21
-14.101175
0
LINE
8
Layer 1
10
185.724806
20
-14.101175
11
185.981230
21
-15.208140
0
LINE
8
Layer 1
10
185.981230
20
-15.208140
11
186.177481
21
-16.153715
0
LINE
8
Layer 1
10
186.177481
20
-16.153715
11
186.714816
21
-16.875466
0
LINE
8
Layer 1
10
186.714816
20
-16.875466
11
187.457234
21
-17.342684
0
LINE
8
Layer 1
10
187.457234
20
-17.342684
11
188.268736
21
-17.524661
0
LINE
8
Layer 1
10
188.268736
20
-17.524661
11
189.013322
21
-17.390688
0
LINE
8
Layer 1
10
189.013322
20
-17.390688
11
189.554992
21
-16.910059
0
LINE
8
Layer 1
10
189.554992
20
-16.910059
11
189.757747
21
-16.052064
0
LINE
8
Layer 1
10
189.757747
20
-16.052064
11
189.485586
21
-14.785995
0
LINE
8
Layer 1
10
189.485586
20
-14.785995
11
189.952620
21
-14.149988
0
LINE
8
Layer 1
10
189.952620
20
-14.149988
11
190.390247
21
-13.816828
0
LINE
8
Layer 1
10
190.390247
20
-13.816828
11
190.802302
21
-13.743528
0
LINE
8
Layer 1
10
190.802302
20
-13.743528
11
191.192620
21
-13.887100
0
LINE
8
Layer 1
10
191.192620
20
-13.887100
11
191.923385
21
-14.652907
0
LINE
8
Layer 1
10
191.923385
20
-14.652907
11
192.613219
21
-15.770346
0
LINE
8
Layer 1
10
192.613219
20
-15.770346
11
193.292799
21
-16.895514
0
LINE
8
Layer 1
10
193.292799
20
-16.895514
11
193.992803
21
-17.684507
0
LINE
8
Layer 1
10
193.992803
20
-17.684507
11
194.360052
21
-17.845469
0
LINE
8
Layer 1
10
194.360052
20
-17.845469
11
194.743910
21
-17.793424
0
LINE
8
Layer 1
10
194.743910
20
-17.793424
11
195.148214
21
-17.485383
0
LINE
8
Layer 1
10
195.148214
20
-17.485383
11
195.576797
21
-16.878359
0
LINE
8
Layer 1
10
195.576797
20
-16.878359
11
195.535986
21
-15.616026
0
LINE
8
Layer 1
10
195.535986
20
-15.616026
11
195.933317
21
-14.880370
0
LINE
8
Layer 1
10
195.933317
20
-14.880370
11
196.606490
21
-14.598153
0
LINE
8
Layer 1
10
196.606490
20
-14.598153
11
197.393204
21
-14.696135
0
LINE
8
Layer 1
10
197.393204
20
-14.696135
11
198.131161
21
-15.101078
0
LINE
8
Layer 1
10
198.131161
20
-15.101078
11
198.658061
21
-15.739742
0
LINE
8
Layer 1
10
198.658061
20
-15.739742
11
198.811604
21
-16.538890
0
LINE
8
Layer 1
10
198.811604
20
-16.538890
11
198.429491
21
-17.425281
0
LINE
8
Layer 1
10
198.429491
20
-17.425281
11
199.225802
21
-17.979138
0
LINE
8
Layer 1
10
199.225802
20
-17.979138
11
200.269384
21
-18.177400
0
LINE
8
Layer 1
10
200.269384
20
-18.177400
11
201.373176
21
-18.126396
0
LINE
8
Layer 1
10
201.373176
20
-18.126396
11
202.350116
21
-17.932454
0
LINE
8
Layer 1
10
202.350116
20
-17.932454
11
202.350116
21
-17.932454
0
LINE
8
Layer 1
10
231.136783
20
-23.335601
11
231.062738
21
-22.513496
0
LINE
8
Layer 1
10
231.062738
20
-22.513496
11
230.600473
21
-22.789436
0
LINE
8
Layer 1
10
230.600473
20
-22.789436
11
229.921339
21
-23.820953
0
LINE
8
Layer 1
10
229.921339
20
-23.820953
11
229.947760
21
-24.254662
0
LINE
8
Layer 1
10
229.947760
20
-24.254662
11
230.457649
21
-24.367120
0
LINE
8
Layer 1
10
230.457649
20
-24.367120
11
230.814142
21
-24.332710
0
LINE
8
Layer 1
10
230.814142
20
-24.332710
11
231.019775
21
-24.189400
0
LINE
8
Layer 1
10
231.019775
20
-24.189400
11
231.136783
21
-23.335601
0
LINE
8
Layer 1
10
231.136783
20
-23.335601
11
231.136783
21
-23.335601
0
LINE
8
Layer 1
10
290.591607
20
-5.552305
11
290.448056
21
-5.284335
0
LINE
8
Layer 1
10
290.448056
20
-5.284335
11
290.438027
21
-4.944054
0
LINE
8
Layer 1
10
290.438027
20
-4.944054
11
290.719605
21
-4.205770
0
LINE
8
Layer 1
10
290.719605
20
-4.205770
11
291.238477
21
-3.655877
0
LINE
8
Layer 1
10
291.238477
20
-3.655877
11
291.525067
21
-3.551084
0
LINE
8
Layer 1
10
291.525067
20
-3.551084
11
291.796780
21
-3.612797
0
LINE
8
Layer 1
10
291.796780
20
-3.612797
11
292.039701
21
-3.921108
0
LINE
8
Layer 1
10
292.039701
20
-3.921108
11
292.077267
21
-4.357460
0
LINE
8
Layer 1
10
292.077267
20
-4.357460
11
291.920566
21
-4.836626
0
LINE
8
Layer 1
10
291.920566
20
-4.836626
11
291.580683
21
-5.273379
0
LINE
8
Layer 1
10
291.580683
20
-5.273379
11
290.976173
21
-5.710370
0
LINE
8
Layer 1
10
290.976173
20
-5.710370
11
290.591607
21
-5.552305
0
LINE
8
Layer 1
10
290.591607
20
-5.552305
11
290.591607
21
-5.552305
0
LINE
8
Layer 1
10
237.345672
20
-24.141343
11
237.116369
21
-23.120779
0
LINE
8
Layer 1
10
237.116369
20
-23.120779
11
237.247542
21
-22.129001
0
LINE
8
Layer 1
10
237.247542
20
-22.129001
11
237.654134
21
-21.165396
0
LINE
8
Layer 1
10
237.654134
20
-21.165396
11
238.251088
21
-20.229352
0
LINE
8
Layer 1
10
238.251088
20
-20.229352
11
239.675864
21
-18.437505
0
LINE
8
Layer 1
10
239.675864
20
-18.437505
11
240.841423
21
-16.748571
0
LINE
8
Layer 1
10
240.841423
20
-16.748571
11
242.080251
21
-17.218383
0
LINE
8
Layer 1
10
242.080251
20
-17.218383
11
242.751416
21
-17.997569
0
LINE
8
Layer 1
10
242.751416
20
-17.997569
11
242.952381
21
-19.002505
0
LINE
8
Layer 1
10
242.952381
20
-19.002505
11
242.780607
21
-20.149570
0
LINE
8
Layer 1
10
242.780607
20
-20.149570
11
242.333558
21
-21.355141
0
LINE
8
Layer 1
10
242.333558
20
-21.355141
11
241.708694
21
-22.535595
0
LINE
8
Layer 1
10
241.708694
20
-22.535595
11
240.315375
21
-24.486667
0
LINE
8
Layer 1
10
240.315375
20
-24.486667
11
241.185598
21
-24.701327
0
LINE
8
Layer 1
10
241.185598
20
-24.701327
11
241.892095
21
-24.421228
0
LINE
8
Layer 1
10
241.892095
20
-24.421228
11
242.480472
21
-23.767967
0
LINE
8
Layer 1
10
242.480472
20
-23.767967
11
242.996334
21
-22.863141
0
LINE
8
Layer 1
10
242.996334
20
-22.863141
11
243.992935
21
-20.785183
0
LINE
8
Layer 1
10
243.992935
20
-20.785183
11
244.564885
21
-19.855244
0
LINE
8
Layer 1
10
244.564885
20
-19.855244
11
245.246742
21
-19.160129
0
LINE
8
Layer 1
10
245.246742
20
-19.160129
11
245.816748
21
-18.409627
0
LINE
8
Layer 1
10
245.816748
20
-18.409627
11
246.547067
21
-17.710579
0
LINE
8
Layer 1
10
246.547067
20
-17.710579
11
247.366479
21
-17.138693
0
LINE
8
Layer 1
10
247.366479
20
-17.138693
11
248.203764
21
-16.769682
0
LINE
8
Layer 1
10
248.203764
20
-16.769682
11
248.987705
21
-16.679255
0
LINE
8
Layer 1
10
248.987705
20
-16.679255
11
249.647082
21
-16.943122
0
LINE
8
Layer 1
10
249.647082
20
-16.943122
11
250.110675
21
-17.636995
0
LINE
8
Layer 1
10
250.110675
20
-17.636995
11
250.307266
21
-18.836584
0
LINE
8
Layer 1
10
250.307266
20
-18.836584
11
250.181484
21
-19.709905
0
LINE
8
Layer 1
10
250.181484
20
-19.709905
11
249.656390
21
-20.522948
0
LINE
8
Layer 1
10
249.656390
20
-20.522948
11
248.044227
21
-21.983916
0
LINE
8
Layer 1
10
248.044227
20
-21.983916
11
247.275140
21
-22.639701
0
LINE
8
Layer 1
10
247.275140
20
-22.639701
11
246.742703
21
-23.250926
0
LINE
8
Layer 1
10
246.742703
20
-23.250926
11
246.605907
21
-23.821522
0
LINE
8
Layer 1
10
246.605907
20
-23.821522
11
247.023743
21
-24.355419
0
LINE
8
Layer 1
10
247.023743
20
-24.355419
11
248.378415
21
-24.596228
0
LINE
8
Layer 1
10
248.378415
20
-24.596228
11
249.410648
21
-24.344956
0
LINE
8
Layer 1
10
249.410648
20
-24.344956
11
250.205324
21
-23.718828
0
LINE
8
Layer 1
10
250.205324
20
-23.718828
11
250.847323
21
-22.835068
0
LINE
8
Layer 1
10
250.847323
20
-22.835068
11
252.012815
21
-20.763551
0
LINE
8
Layer 1
10
252.012815
20
-20.763551
11
252.706069
21
-19.810242
0
LINE
8
Layer 1
10
252.706069
20
-19.810242
11
253.586169
21
-19.068201
0
LINE
8
Layer 1
10
253.586169
20
-19.068201
11
253.643114
21
-18.511496
0
LINE
8
Layer 1
10
253.643114
20
-18.511496
11
254.001280
21
-18.078823
0
LINE
8
Layer 1
10
254.001280
20
-18.078823
11
254.563054
21
-17.777508
0
LINE
8
Layer 1
10
254.563054
20
-17.777508
11
255.230821
21
-17.614878
0
LINE
8
Layer 1
10
255.230821
20
-17.614878
11
255.906968
21
-17.598259
0
LINE
8
Layer 1
10
255.906968
20
-17.598259
11
256.493881
21
-17.734979
0
LINE
8
Layer 1
10
256.493881
20
-17.734979
11
256.893945
21
-18.032363
0
LINE
8
Layer 1
10
256.893945
20
-18.032363
11
257.009547
21
-18.497739
0
LINE
8
Layer 1
10
257.009547
20
-18.497739
11
257.242567
21
-19.321630
0
LINE
8
Layer 1
10
257.242567
20
-19.321630
11
257.117104
21
-20.107195
0
LINE
8
Layer 1
10
257.117104
20
-20.107195
11
256.748947
21
-20.849769
0
LINE
8
Layer 1
10
256.748947
20
-20.849769
11
256.253882
21
-21.544684
0
LINE
8
Layer 1
10
256.253882
20
-21.544684
11
255.346181
21
-22.772869
0
LINE
8
Layer 1
10
255.346181
20
-22.772869
11
255.165119
21
-23.296807
0
LINE
8
Layer 1
10
255.165119
20
-23.296807
11
255.320300
21
-23.754419
0
LINE
8
Layer 1
10
255.320300
20
-23.754419
11
256.292627
21
-23.379975
0
LINE
8
Layer 1
10
256.292627
20
-23.379975
11
257.175696
21
-22.669392
0
LINE
8
Layer 1
10
257.175696
20
-22.669392
11
258.808502
21
-20.862270
0
LINE
8
Layer 1
10
258.808502
20
-20.862270
11
259.625458
21
-20.076962
0
LINE
8
Layer 1
10
259.625458
20
-20.076962
11
260.487598
21
-19.577978
0
LINE
8
Layer 1
10
260.487598
20
-19.577978
11
261.428530
21
-19.520931
0
LINE
8
Layer 1
10
261.428530
20
-19.520931
11
262.481864
21
-20.061439
0
LINE
8
Layer 1
10
262.481864
20
-20.061439
11
262.786262
21
-20.831247
0
LINE
8
Layer 1
10
262.786262
20
-20.831247
11
262.703113
21
-21.583420
0
LINE
8
Layer 1
10
262.703113
20
-21.583420
11
262.015363
21
-22.933440
0
LINE
8
Layer 1
10
262.015363
20
-22.933440
11
261.731355
21
-23.480575
0
LINE
8
Layer 1
10
261.731355
20
-23.480575
11
261.700989
21
-23.908651
0
LINE
8
Layer 1
10
261.700989
20
-23.908651
11
262.084560
21
-24.192313
0
LINE
8
Layer 1
10
262.084560
20
-24.192313
11
263.042366
21
-24.306205
0
LINE
8
Layer 1
10
263.042366
20
-24.306205
11
263.893413
21
-22.689771
0
LINE
8
Layer 1
10
263.893413
20
-22.689771
11
264.922024
21
-21.275551
0
LINE
8
Layer 1
10
264.922024
20
-21.275551
11
265.548840
21
-20.761051
0
LINE
8
Layer 1
10
265.548840
20
-20.761051
11
266.275155
21
-20.437241
0
LINE
8
Layer 1
10
266.275155
20
-20.437241
11
267.119338
21
-20.350831
0
LINE
8
Layer 1
10
267.119338
20
-20.350831
11
268.099760
21
-20.548535
0
LINE
8
Layer 1
10
268.099760
20
-20.548535
11
268.277664
21
-21.235585
0
LINE
8
Layer 1
10
268.277664
20
-21.235585
11
268.238083
21
-22.016069
0
LINE
8
Layer 1
10
268.238083
20
-22.016069
11
267.981528
21
-23.544009
0
LINE
8
Layer 1
10
267.981528
20
-23.544009
11
268.002082
21
-24.134801
0
LINE
8
Layer 1
10
268.002082
20
-24.134801
11
268.280208
21
-24.505697
0
LINE
8
Layer 1
10
268.280208
20
-24.505697
11
268.934672
21
-24.578365
0
LINE
8
Layer 1
10
268.934672
20
-24.578365
11
270.084237
21
-24.274472
0
LINE
8
Layer 1
10
270.084237
20
-24.274472
11
270.874274
21
-23.936103
0
LINE
8
Layer 1
10
270.874274
20
-23.936103
11
271.621972
21
-23.233467
0
LINE
8
Layer 1
10
271.621972
20
-23.233467
11
273.026700
21
-21.495673
0
LINE
8
Layer 1
10
273.026700
20
-21.495673
11
273.701902
21
-20.840656
0
LINE
8
Layer 1
10
273.701902
20
-20.840656
11
274.371111
21
-20.581654
0
LINE
8
Layer 1
10
274.371111
20
-20.581654
11
274.706307
21
-20.660055
0
LINE
8
Layer 1
10
274.706307
20
-20.660055
11
275.043413
21
-20.908736
0
LINE
8
Layer 1
10
275.043413
20
-20.908736
11
275.727897
21
-22.011973
0
LINE
8
Layer 1
10
275.727897
20
-22.011973
11
276.275157
21
-22.451217
0
LINE
8
Layer 1
10
276.275157
20
-22.451217
11
276.916519
21
-22.543310
0
LINE
8
Layer 1
10
276.916519
20
-22.543310
11
277.591941
21
-22.344501
0
LINE
8
Layer 1
10
277.591941
20
-22.344501
11
278.241383
21
-21.911038
0
LINE
8
Layer 1
10
278.241383
20
-21.911038
11
278.804802
21
-21.299171
0
LINE
8
Layer 1
10
278.804802
20
-21.299171
11
279.222157
21
-20.565147
0
LINE
8
Layer 1
10
279.222157
20
-20.565147
11
279.433406
21
-19.765217
0
LINE
8
Layer 1
10
279.433406
20
-19.765217
11
279.378509
21
-18.955628
0
LINE
8
Layer 1
10
279.378509
20
-18.955628
11
279.746185
21
-18.120163
0
LINE
8
Layer 1
10
279.746185
20
-18.120163
11
280.201792
21
-17.750787
0
LINE
8
Layer 1
10
280.201792
20
-17.750787
11
280.701790
21
-17.764637
0
LINE
8
Layer 1
10
280.701790
20
-17.764637
11
281.202645
21
-18.078848
0
LINE
8
Layer 1
10
281.202645
20
-18.078848
11
281.660819
21
-18.610553
0
LINE
8
Layer 1
10
281.660819
20
-18.610553
11
282.032776
21
-19.276889
0
LINE
8
Layer 1
10
282.032776
20
-19.276889
11
282.274978
21
-19.994990
0
LINE
8
Layer 1
10
282.274978
20
-19.994990
11
282.343888
21
-20.681992
0
LINE
8
Layer 1
10
282.343888
20
-20.681992
11
283.316105
21
-20.820326
0
LINE
8
Layer 1
10
283.316105
20
-20.820326
11
284.129020
21
-20.678404
0
LINE
8
Layer 1
10
284.129020
20
-20.678404
11
284.809646
21
-20.306090
0
LINE
8
Layer 1
10
284.809646
20
-20.306090
11
285.384998
21
-19.753245
0
LINE
8
Layer 1
10
285.384998
20
-19.753245
11
286.327938
21
-18.305408
0
LINE
8
Layer 1
10
286.327938
20
-18.305408
11
287.173952
21
-16.733791
0
LINE
8
Layer 1
10
287.173952
20
-16.733791
11
287.663704
21
-16.824927
0
LINE
8
Layer 1
10
287.663704
20
-16.824927
11
288.115929
21
-17.046596
0
LINE
8
Layer 1
10
288.115929
20
-17.046596
11
288.944540
21
-17.574907
0
LINE
8
Layer 1
10
288.944540
20
-17.574907
11
289.339297
21
-17.728237
0
LINE
8
Layer 1
10
289.339297
20
-17.728237
11
289.733268
21
-17.705475
0
LINE
8
Layer 1
10
289.733268
20
-17.705475
11
290.135639
21
-17.429965
0
LINE
8
Layer 1
10
290.135639
20
-17.429965
11
290.555595
21
-16.825050
0
LINE
8
Layer 1
10
290.555595
20
-16.825050
11
290.865219
21
-16.501254
0
LINE
8
Layer 1
10
290.865219
20
-16.501254
11
290.935230
21
-16.137661
0
LINE
8
Layer 1
10
290.935230
20
-16.137661
11
290.752509
21
-15.346634
0
LINE
8
Layer 1
10
290.752509
20
-15.346634
11
290.697825
21
-14.946974
0
LINE
8
Layer 1
10
290.697825
20
-14.946974
11
290.799626
21
-14.563068
0
LINE
8
Layer 1
10
290.799626
20
-14.563068
11
291.156934
21
-14.208802
0
LINE
8
Layer 1
10
291.156934
20
-14.208802
11
291.868775
21
-13.898064
0
LINE
8
Layer 1
10
291.868775
20
-13.898064
11
292.743343
21
-13.396065
0
LINE
8
Layer 1
10
292.743343
20
-13.396065
11
293.447861
21
-12.684775
0
LINE
8
Layer 1
10
293.447861
20
-12.684775
11
294.016328
21
-11.811904
0
LINE
8
Layer 1
10
294.016328
20
-11.811904
11
294.482746
21
-10.825161
0
LINE
8
Layer 1
10
294.482746
20
-10.825161
11
295.245428
21
-8.700902
0
LINE
8
Layer 1
10
295.245428
20
-8.700902
11
296.007903
21
-6.693673
0
LINE
8
Layer 1
10
296.007903
20
-6.693673
11
295.752084
21
-5.526279
0
LINE
8
Layer 1
10
295.752084
20
-5.526279
11
295.312925
21
-4.400336
0
LINE
8
Layer 1
10
295.312925
20
-4.400336
11
294.011343
21
-2.286810
0
LINE
8
Layer 1
10
294.011343
20
-2.286810
11
292.356669
21
-0.381110
0
LINE
8
Layer 1
10
292.356669
20
-0.381110
11
290.602416
21
1.288751
0
LINE
8
Layer 1
10
290.602416
20
1.288751
11
289.027647
21
2.161838
0
LINE
8
Layer 1
10
289.027647
20
2.161838
11
287.389778
21
2.792664
0
LINE
8
Layer 1
10
287.389778
20
2.792664
11
285.821203
21
3.443279
0
LINE
8
Layer 1
10
285.821203
20
3.443279
11
284.454318
21
4.375729
0
LINE
8
Layer 1
10
284.454318
20
4.375729
11
281.864740
21
4.390902
0
LINE
8
Layer 1
10
281.864740
20
4.390902
11
279.285281
21
4.057654
0
LINE
8
Layer 1
10
279.285281
20
4.057654
11
276.817875
21
3.295005
0
LINE
8
Layer 1
10
276.817875
20
3.295005
11
275.658046
21
2.727349
0
LINE
8
Layer 1
10
275.658046
20
2.727349
11
274.564455
21
2.021975
0
LINE
8
Layer 1
10
274.564455
20
2.021975
11
273.252955
21
0.118356
0
LINE
8
Layer 1
10
273.252955
20
0.118356
11
272.202500
21
-2.083247
0
LINE
8
Layer 1
10
272.202500
20
-2.083247
11
271.884094
21
-3.260707
0
LINE
8
Layer 1
10
271.884094
20
-3.260707
11
271.761665
21
-4.470561
0
LINE
8
Layer 1
10
271.761665
20
-4.470561
11
271.878785
21
-5.698774
0
LINE
8
Layer 1
10
271.878785
20
-5.698774
11
272.279025
21
-6.931313
0
LINE
8
Layer 1
10
272.279025
20
-6.931313
11
272.894372
21
-8.358710
0
LINE
8
Layer 1
10
272.894372
20
-8.358710
11
272.981472
21
-9.621823
0
LINE
8
Layer 1
10
272.981472
20
-9.621823
11
272.624418
21
-10.713686
0
LINE
8
Layer 1
10
272.624418
20
-10.713686
11
271.907304
21
-11.627333
0
LINE
8
Layer 1
10
271.907304
20
-11.627333
11
270.914223
21
-12.355799
0
LINE
8
Layer 1
10
270.914223
20
-12.355799
11
269.729269
21
-12.892118
0
LINE
8
Layer 1
10
269.729269
20
-12.892118
11
268.436535
21
-13.229325
0
LINE
8
Layer 1
10
268.436535
20
-13.229325
11
267.120116
21
-13.360454
0
LINE
8
Layer 1
10
267.120116
20
-13.360454
11
266.131821
21
-13.787394
0
LINE
8
Layer 1
10
266.131821
20
-13.787394
11
265.100601
21
-14.009441
0
LINE
8
Layer 1
10
265.100601
20
-14.009441
11
262.964789
21
-14.058561
0
LINE
8
Layer 1
10
262.964789
20
-14.058561
11
260.823479
21
-13.947230
0
LINE
8
Layer 1
10
260.823479
20
-13.947230
11
258.787468
21
-14.114862
0
LINE
8
Layer 1
10
258.787468
20
-14.114862
11
256.251086
21
-14.549714
0
LINE
8
Layer 1
10
256.251086
20
-14.549714
11
253.668099
21
-14.667837
0
LINE
8
Layer 1
10
253.668099
20
-14.667837
11
251.084792
21
-14.785930
0
LINE
8
Layer 1
10
251.084792
20
-14.785930
11
248.547453
21
-15.220693
0
LINE
8
Layer 1
10
248.547453
20
-15.220693
11
246.144100
21
-14.851322
0
LINE
8
Layer 1
10
246.144100
20
-14.851322
11
243.694775
21
-14.748281
0
LINE
8
Layer 1
10
243.694775
20
-14.748281
11
238.781559
21
-14.943833
0
LINE
8
Layer 1
10
238.781559
20
-14.943833
11
236.433860
21
-15.302371
0
LINE
8
Layer 1
10
236.433860
20
-15.302371
11
234.041350
21
-15.273853
0
LINE
8
Layer 1
10
234.041350
20
-15.273853
11
231.682688
21
-15.097285
0
LINE
8
Layer 1
10
231.682688
20
-15.097285
11
229.436532
21
-15.011674
0
LINE
8
Layer 1
10
229.436532
20
-15.011674
11
224.150349
21
-14.759149
0
LINE
8
Layer 1
10
224.150349
20
-14.759149
11
218.851733
21
-14.759510
0
LINE
8
Layer 1
10
218.851733
20
-14.759510
11
213.552833
21
-14.762047
0
LINE
8
Layer 1
10
213.552833
20
-14.762047
11
208.265796
21
-14.516049
0
LINE
8
Layer 1
10
208.265796
20
-14.516049
11
206.927146
21
-14.366770
0
LINE
8
Layer 1
10
206.927146
20
-14.366770
11
205.763042
21
-14.388465
0
LINE
8
Layer 1
10
205.763042
20
-14.388465
11
205.371822
21
-14.569921
0
LINE
8
Layer 1
10
205.371822
20
-14.569921
11
205.174692
21
-14.921913
0
LINE
8
Layer 1
10
205.174692
20
-14.921913
11
205.221802
21
-15.487037
0
LINE
8
Layer 1
10
205.221802
20
-15.487037
11
205.563303
21
-16.307892
0
LINE
8
Layer 1
10
205.563303
20
-16.307892
11
205.381336
21
-17.338035
0
LINE
8
Layer 1
10
205.381336
20
-17.338035
11
205.645315
21
-18.271964
0
LINE
8
Layer 1
10
205.645315
20
-18.271964
11
206.212244
21
-19.034170
0
LINE
8
Layer 1
10
206.212244
20
-19.034170
11
206.939127
21
-19.549145
0
LINE
8
Layer 1
10
206.939127
20
-19.549145
11
207.682970
21
-19.741378
0
LINE
8
Layer 1
10
207.682970
20
-19.741378
11
208.300775
21
-19.535362
0
LINE
8
Layer 1
10
208.300775
20
-19.535362
11
208.649548
21
-18.855586
0
LINE
8
Layer 1
10
208.649548
20
-18.855586
11
208.586293
21
-17.626542
0
LINE
8
Layer 1
10
208.586293
20
-17.626542
11
208.986289
21
-16.358157
0
LINE
8
Layer 1
10
208.986289
20
-16.358157
11
209.649648
21
-15.719714
0
LINE
8
Layer 1
10
209.649648
20
-15.719714
11
210.448902
21
-15.612082
0
LINE
8
Layer 1
10
210.448902
20
-15.612082
11
211.256584
21
-15.936132
0
LINE
8
Layer 1
10
211.256584
20
-15.936132
11
211.945224
21
-16.592731
0
LINE
8
Layer 1
10
211.945224
20
-16.592731
11
212.387356
21
-17.482749
0
LINE
8
Layer 1
10
212.387356
20
-17.482749
11
212.455511
21
-18.507056
0
LINE
8
Layer 1
10
212.455511
20
-18.507056
11
212.022222
21
-19.566520
0
LINE
8
Layer 1
10
212.022222
20
-19.566520
11
212.064782
21
-20.321475
0
LINE
8
Layer 1
10
212.064782
20
-20.321475
11
212.379461
21
-20.895146
0
LINE
8
Layer 1
10
212.379461
20
-20.895146
11
212.893307
21
-21.298828
0
LINE
8
Layer 1
10
212.893307
20
-21.298828
11
213.533372
21
-21.543815
0
LINE
8
Layer 1
10
213.533372
20
-21.543815
11
214.900359
21
-21.602875
0
LINE
8
Layer 1
10
214.900359
20
-21.602875
11
215.481381
21
-21.439535
0
LINE
8
Layer 1
10
215.481381
20
-21.439535
11
215.896822
21
-21.162673
0
LINE
8
Layer 1
10
215.896822
20
-21.162673
11
216.032513
21
-19.253366
0
LINE
8
Layer 1
10
216.032513
20
-19.253366
11
216.586155
21
-17.266075
0
LINE
8
Layer 1
10
216.586155
20
-17.266075
11
217.066350
21
-16.456735
0
LINE
8
Layer 1
10
217.066350
20
-16.456735
11
217.707006
21
-15.884159
0
LINE
8
Layer 1
10
217.707006
20
-15.884159
11
218.526779
21
-15.633766
0
LINE
8
Layer 1
10
218.526779
20
-15.633766
11
219.544327
21
-15.790977
0
LINE
8
Layer 1
10
219.544327
20
-15.790977
11
220.060598
21
-16.136054
0
LINE
8
Layer 1
10
220.060598
20
-16.136054
11
220.386694
21
-16.535904
0
LINE
8
Layer 1
10
220.386694
20
-16.535904
11
220.579736
21
-17.459344
0
LINE
8
Layer 1
10
220.579736
20
-17.459344
11
220.346206
21
-18.480138
0
LINE
8
Layer 1
10
220.346206
20
-18.480138
11
219.908855
21
-19.517129
0
LINE
8
Layer 1
10
219.908855
20
-19.517129
11
219.490434
21
-20.489160
0
LINE
8
Layer 1
10
219.490434
20
-20.489160
11
219.313695
21
-21.315074
0
LINE
8
Layer 1
10
219.313695
20
-21.315074
11
219.385566
21
-21.647875
0
LINE
8
Layer 1
10
219.385566
20
-21.647875
11
219.601389
21
-21.913713
0
LINE
8
Layer 1
10
219.601389
20
-21.913713
11
220.576267
21
-22.203921
0
LINE
8
Layer 1
10
220.576267
20
-22.203921
11
221.301226
21
-22.347260
0
LINE
8
Layer 1
10
221.301226
20
-22.347260
11
221.745548
21
-21.977131
0
LINE
8
Layer 1
10
221.745548
20
-21.977131
11
222.006820
21
-21.237652
0
LINE
8
Layer 1
10
222.006820
20
-21.237652
11
222.182625
21
-20.272947
0
LINE
8
Layer 1
10
222.182625
20
-20.272947
11
222.370549
21
-19.227134
0
LINE
8
Layer 1
10
222.370549
20
-19.227134
11
222.668176
21
-18.244336
0
LINE
8
Layer 1
10
222.668176
20
-18.244336
11
223.173093
21
-17.468672
0
LINE
8
Layer 1
10
223.173093
20
-17.468672
11
223.982884
21
-17.044264
0
LINE
8
Layer 1
10
223.982884
20
-17.044264
11
225.051883
21
-17.226179
0
LINE
8
Layer 1
10
225.051883
20
-17.226179
11
225.775070
21
-17.671108
0
LINE
8
Layer 1
10
225.775070
20
-17.671108
11
226.191580
21
-18.318178
0
LINE
8
Layer 1
10
226.191580
20
-18.318178
11
226.340548
21
-19.106515
0
LINE
8
Layer 1
10
226.340548
20
-19.106515
11
226.261110
21
-19.975246
0
LINE
8
Layer 1
10
226.261110
20
-19.975246
11
225.992399
21
-20.863499
0
LINE
8
Layer 1
10
225.992399
20
-20.863499
11
225.043701
21
-22.455079
0
LINE
8
Layer 1
10
225.043701
20
-22.455079
11
224.927375
21
-23.138665
0
LINE
8
Layer 1
10
224.927375
20
-23.138665
11
225.155084
21
-23.585659
0
LINE
8
Layer 1
10
225.155084
20
-23.585659
11
225.603630
21
-23.814559
0
LINE
8
Layer 1
10
225.603630
20
-23.814559
11
226.149817
21
-23.843865
0
LINE
8
Layer 1
10
226.149817
20
-23.843865
11
226.670449
21
-23.692075
0
LINE
8
Layer 1
10
226.670449
20
-23.692075
11
227.042328
21
-23.377688
0
LINE
8
Layer 1
10
227.042328
20
-23.377688
11
227.142259
21
-22.919203
0
LINE
8
Layer 1
10
227.142259
20
-22.919203
11
226.847044
21
-22.335120
0
LINE
8
Layer 1
10
226.847044
20
-22.335120
11
227.850738
21
-20.242915
0
LINE
8
Layer 1
10
227.850738
20
-20.242915
11
228.507705
21
-19.064331
0
LINE
8
Layer 1
10
228.507705
20
-19.064331
11
229.262986
21
-17.999095
0
LINE
8
Layer 1
10
229.262986
20
-17.999095
11
230.112757
21
-17.198457
0
LINE
8
Layer 1
10
230.112757
20
-17.198457
11
231.053192
21
-16.813669
0
LINE
8
Layer 1
10
231.053192
20
-16.813669
11
231.556214
21
-16.824484
0
LINE
8
Layer 1
10
231.556214
20
-16.824484
11
232.080468
21
-16.995980
0
LINE
8
Layer 1
10
232.080468
20
-16.995980
11
233.190759
21
-17.896642
0
LINE
8
Layer 1
10
233.190759
20
-17.896642
11
234.167753
21
-17.685215
0
LINE
8
Layer 1
10
234.167753
20
-17.685215
11
235.414014
21
-17.452401
0
LINE
8
Layer 1
10
235.414014
20
-17.452401
11
236.021586
21
-17.490907
0
LINE
8
Layer 1
10
236.021586
20
-17.490907
11
236.556636
21
-17.719587
0
LINE
8
Layer 1
10
236.556636
20
-17.719587
11
236.972549
21
-18.203612
0
LINE
8
Layer 1
10
236.972549
20
-18.203612
11
237.222713
21
-19.008158
0
LINE
8
Layer 1
10
237.222713
20
-19.008158
11
236.900040
21
-19.953020
0
LINE
8
Layer 1
10
236.900040
20
-19.953020
11
236.369474
21
-20.957226
0
LINE
8
Layer 1
10
236.369474
20
-20.957226
11
235.273009
21
-22.905310
0
LINE
8
Layer 1
10
235.273009
20
-22.905310
11
235.001287
21
-23.730007
0
LINE
8
Layer 1
10
235.001287
20
-23.730007
11
235.110021
21
-24.375687
0
LINE
8
Layer 1
10
235.110021
20
-24.375687
11
235.746299
21
-24.782759
0
LINE
8
Layer 1
10
235.746299
20
-24.782759
11
237.057209
21
-24.891633
0
LINE
8
Layer 1
10
237.057209
20
-24.891633
11
237.226207
21
-24.759229
0
LINE
8
Layer 1
10
237.226207
20
-24.759229
11
237.345672
21
-24.141343
0
LINE
8
Layer 1
10
237.345672
20
-24.141343
11
237.345672
21
-24.141343
0
LINE
8
Layer 1
10
237.345672
20
-24.141343
11
237.345672
21
-24.141343
0
LINE
8
Layer 1
10
231.853399
20
-28.618347
11
224.380628
21
-27.289721
0
LINE
8
Layer 1
10
224.380628
20
-27.289721
11
216.895678
21
-25.679824
0
LINE
8
Layer 1
10
216.895678
20
-25.679824
11
209.398282
21
-23.979897
0
LINE
8
Layer 1
10
209.398282
20
-23.979897
11
201.888175
21
-22.381179
0
LINE
8
Layer 1
10
201.888175
20
-22.381179
11
196.295590
21
-21.866213
0
LINE
8
Layer 1
10
196.295590
20
-21.866213
11
190.849257
21
-21.748638
0
LINE
8
Layer 1
10
190.849257
20
-21.748638
11
179.757169
21
-22.077542
0
LINE
8
Layer 1
10
179.757169
20
-22.077542
11
172.747337
21
-21.760137
0
LINE
8
Layer 1
10
172.747337
20
-21.760137
11
165.711106
21
-21.295304
0
LINE
8
Layer 1
10
165.711106
20
-21.295304
11
158.650211
21
-20.634744
0
LINE
8
Layer 1
10
158.650211
20
-20.634744
11
151.566389
21
-19.730156
0
LINE
8
Layer 1
10
151.566389
20
-19.730156
11
148.555300
21
-19.086812
0
LINE
8
Layer 1
10
148.555300
20
-19.086812
11
145.406683
21
-18.783705
0
LINE
8
Layer 1
10
145.406683
20
-18.783705
11
142.155448
21
-18.718379
0
LINE
8
Layer 1
10
142.155448
20
-18.718379
11
138.836504
21
-18.788381
0
LINE
8
Layer 1
10
138.836504
20
-18.788381
11
132.135130
21
-18.924548
0
LINE
8
Layer 1
10
132.135130
20
-18.924548
11
128.822520
21
-18.785802
0
LINE
8
Layer 1
10
128.822520
20
-18.785802
11
125.581842
21
-18.372565
0
LINE
8
Layer 1
10
125.581842
20
-18.372565
11
123.016095
21
-18.402283
0
LINE
8
Layer 1
10
123.016095
20
-18.402283
11
120.473431
21
-18.267894
0
LINE
8
Layer 1
10
120.473431
20
-18.267894
11
115.445579
21
-17.584071
0
LINE
8
Layer 1
10
115.445579
20
-17.584071
11
110.474732
21
-16.475647
0
LINE
8
Layer 1
10
110.474732
20
-16.475647
11
105.537337
21
-15.097173
0
LINE
8
Layer 1
10
105.537337
20
-15.097173
11
95.668693
21
-12.148277
0
LINE
8
Layer 1
10
95.668693
20
-12.148277
11
90.690338
21
-10.886956
0
LINE
8
Layer 1
10
90.690338
20
-10.886956
11
85.651224
21
-9.973787
0
LINE
8
Layer 1
10
85.651224
20
-9.973787
11
70.427287
21
-5.607012
0
LINE
8
Layer 1
10
70.427287
20
-5.607012
11
55.149725
21
-1.472328
0
LINE
8
Layer 1
10
55.149725
20
-1.472328
11
48.981413
21
-0.166147
0
LINE
8
Layer 1
10
48.981413
20
-0.166147
11
42.190088
21
1.341305
0
LINE
8
Layer 1
10
42.190088
20
1.341305
11
38.671153
21
1.996428
0
LINE
8
Layer 1
10
38.671153
20
1.996428
11
35.128896
21
2.492975
0
LINE
8
Layer 1
10
35.128896
20
2.492975
11
31.607459
21
2.761315
0
LINE
8
Layer 1
10
31.607459
20
2.761315
11
28.150987
21
2.731815
0
LINE
8
Layer 1
10
28.150987
20
2.731815
11
25.607466
21
1.874129
0
LINE
8
Layer 1
10
25.607466
20
1.874129
11
23.177972
21
1.520600
0
LINE
8
Layer 1
10
23.177972
20
1.520600
11
20.876504
21
1.651426
0
LINE
8
Layer 1
10
20.876504
20
1.651426
11
18.717063
21
2.246807
0
LINE
8
Layer 1
10
18.717063
20
2.246807
11
16.713647
21
3.286943
0
LINE
8
Layer 1
10
16.713647
20
3.286943
11
14.880259
21
4.752031
0
LINE
8
Layer 1
10
14.880259
20
4.752031
11
13.230896
21
6.622271
0
LINE
8
Layer 1
10
13.230896
20
6.622271
11
11.779560
21
8.877862
0
LINE
8
Layer 1
10
11.779560
20
8.877862
11
10.577746
21
10.085273
0
LINE
8
Layer 1
10
10.577746
20
10.085273
11
9.592868
21
11.358627
0
LINE
8
Layer 1
10
9.592868
20
11.358627
11
8.823445
21
12.675604
0
LINE
8
Layer 1
10
8.823445
20
12.675604
11
8.267992
21
14.013885
0
LINE
8
Layer 1
10
8.267992
20
14.013885
11
7.925028
21
15.351149
0
LINE
8
Layer 1
10
7.925028
20
15.351149
11
7.793069
21
16.665079
0
LINE
8
Layer 1
10
7.793069
20
16.665079
11
7.870634
21
17.933354
0
LINE
8
Layer 1
10
7.870634
20
17.933354
11
8.156238
21
19.133655
0
LINE
8
Layer 1
10
8.156238
20
19.133655
11
8.648400
21
20.243662
0
LINE
8
Layer 1
10
8.648400
20
20.243662
11
9.345637
21
21.241056
0
LINE
8
Layer 1
10
9.345637
20
21.241056
11
10.246466
21
22.103517
0
LINE
8
Layer 1
10
10.246466
20
22.103517
11
11.349404
21
22.808727
0
LINE
8
Layer 1
10
11.349404
20
22.808727
11
12.652969
21
23.334365
0
LINE
8
Layer 1
10
12.652969
20
23.334365
11
14.155678
21
23.658113
0
LINE
8
Layer 1
10
14.155678
20
23.658113
11
15.856047
21
23.757650
0
LINE
8
Layer 1
10
15.856047
20
23.757650
11
17.752596
21
23.610657
0
LINE
8
Layer 1
10
17.752596
20
23.610657
11
22.176407
21
25.340389
0
LINE
8
Layer 1
10
22.176407
20
25.340389
11
26.473476
21
27.323744
0
LINE
8
Layer 1
10
26.473476
20
27.323744
11
30.821809
21
29.285001
0
LINE
8
Layer 1
10
30.821809
20
29.285001
11
35.399413
21
30.948435
0
LINE
8
Layer 1
10
35.399413
20
30.948435
11
39.429368
21
32.972863
0
LINE
8
Layer 1
10
39.429368
20
32.972863
11
43.445327
21
35.291720
0
LINE
8
Layer 1
10
43.445327
20
35.291720
11
47.564310
21
37.414491
0
LINE
8
Layer 1
10
47.564310
20
37.414491
11
49.699005
21
38.249057
0
LINE
8
Layer 1
10
49.699005
20
38.249057
11
51.903339
21
38.850657
0
LINE
8
Layer 1
10
51.903339
20
38.850657
11
53.781286
21
39.200441
0
LINE
8
Layer 1
10
53.781286
20
39.200441
11
55.430464
21
39.866994
0
LINE
8
Layer 1
10
55.430464
20
39.866994
11
56.885357
21
40.802210
0
LINE
8
Layer 1
10
56.885357
20
40.802210
11
58.180449
21
41.957983
0
LINE
8
Layer 1
10
58.180449
20
41.957983
11
59.350224
21
43.286206
0
LINE
8
Layer 1
10
59.350224
20
43.286206
11
60.429164
21
44.738772
0
LINE
8
Layer 1
10
60.429164
20
44.738772
11
62.452475
21
47.824507
0
LINE
8
Layer 1
10
62.452475
20
47.824507
11
64.526253
21
50.830335
0
LINE
8
Layer 1
10
64.526253
20
50.830335
11
65.668275
21
52.183017
0
LINE
8
Layer 1
10
65.668275
20
52.183017
11
66.926363
21
53.371402
0
LINE
8
Layer 1
10
66.926363
20
53.371402
11
68.335003
21
54.347383
0
LINE
8
Layer 1
10
68.335003
20
54.347383
11
69.928676
21
55.062854
0
LINE
8
Layer 1
10
69.928676
20
55.062854
11
71.741867
21
55.469709
0
LINE
8
Layer 1
10
71.741867
20
55.469709
11
73.809058
21
55.519839
0
LINE
8
Layer 1
10
73.809058
20
55.519839
11
76.477982
21
55.582337
0
LINE
8
Layer 1
10
76.477982
20
55.582337
11
79.103378
21
55.384166
0
LINE
8
Layer 1
10
79.103378
20
55.384166
11
84.203106
21
54.871582
0
LINE
8
Layer 1
10
84.203106
20
54.871582
11
86.667199
21
54.890049
0
LINE
8
Layer 1
10
86.667199
20
54.890049
11
89.067283
21
55.313609
0
LINE
8
Layer 1
10
89.067283
20
55.313609
11
90.241723
21
55.729312
0
LINE
8
Layer 1
10
90.241723
20
55.729312
11
91.398240
21
56.308702
0
LINE
8
Layer 1
10
91.398240
20
56.308702
11
92.536195
21
57.072586
0
LINE
8
Layer 1
10
92.536195
20
57.072586
11
93.654948
21
58.041769
0
LINE
8
Layer 1
10
93.654948
20
58.041769
11
96.339735
21
58.929926
0
LINE
8
Layer 1
10
96.339735
20
58.929926
11
98.794871
21
60.121542
0
LINE
8
Layer 1
10
98.794871
20
60.121542
11
101.087485
21
61.529516
0
LINE
8
Layer 1
10
101.087485
20
61.529516
11
103.284710
21
63.066747
0
LINE
8
Layer 1
10
103.284710
20
63.066747
11
107.661516
21
66.180573
0
LINE
8
Layer 1
10
107.661516
20
66.180573
11
109.975360
21
67.582967
0
LINE
8
Layer 1
10
109.975360
20
67.582967
11
112.462338
21
68.766213
0
LINE
8
Layer 1
10
112.462338
20
68.766213
11
115.942102
21
69.449181
0
LINE
8
Layer 1
10
115.942102
20
69.449181
11
119.007883
21
70.545099
0
LINE
8
Layer 1
10
119.007883
20
70.545099
11
121.736612
21
72.003318
0
LINE
8
Layer 1
10
121.736612
20
72.003318
11
124.205221
21
73.773188
0
LINE
8
Layer 1
10
124.205221
20
73.773188
11
126.490640
21
75.804060
0
LINE
8
Layer 1
10
126.490640
20
75.804060
11
128.669802
21
78.045282
0
LINE
8
Layer 1
10
128.669802
20
78.045282
11
133.017077
21
82.956180
0
LINE
8
Layer 1
10
133.017077
20
82.956180
11
135.924617
21
84.081480
0
LINE
8
Layer 1
10
135.924617
20
84.081480
11
138.917651
21
85.080607
0
LINE
8
Layer 1
10
138.917651
20
85.080607
11
141.972813
21
85.904879
0
LINE
8
Layer 1
10
141.972813
20
85.904879
11
145.066737
21
86.505614
0
LINE
8
Layer 1
10
145.066737
20
86.505614
11
148.176059
21
86.834130
0
LINE
8
Layer 1
10
148.176059
20
86.834130
11
151.277413
21
86.841745
0
LINE
8
Layer 1
10
151.277413
20
86.841745
11
154.347434
21
86.479778
0
LINE
8
Layer 1
10
154.347434
20
86.479778
11
157.362756
21
85.699546
0
LINE
8
Layer 1
10
157.362756
20
85.699546
11
159.882407
21
85.418604
0
LINE
8
Layer 1
10
159.882407
20
85.418604
11
161.537240
21
85.585703
0
LINE
8
Layer 1
10
161.537240
20
85.585703
11
162.087254
21
85.820186
0
LINE
8
Layer 1
10
162.087254
20
85.820186
11
162.477347
21
86.146180
0
LINE
8
Layer 1
10
162.477347
20
86.146180
11
162.852816
21
87.045371
0
LINE
8
Layer 1
10
162.852816
20
87.045371
11
162.813738
21
88.228612
0
LINE
8
Layer 1
10
162.813738
20
88.228612
11
162.510202
21
89.641240
0
LINE
8
Layer 1
10
162.510202
20
89.641240
11
161.710116
21
92.936001
0
LINE
8
Layer 1
10
161.710116
20
92.936001
11
161.849414
21
95.847547
0
LINE
8
Layer 1
10
161.849414
20
95.847547
11
162.399470
21
98.738420
0
LINE
8
Layer 1
10
162.399470
20
98.738420
11
163.349191
21
101.522331
0
LINE
8
Layer 1
10
163.349191
20
101.522331
11
164.687486
21
104.112991
0
LINE
8
Layer 1
10
164.687486
20
104.112991
11
166.403262
21
106.424109
0
LINE
8
Layer 1
10
166.403262
20
106.424109
11
168.485428
21
108.369397
0
LINE
8
Layer 1
10
168.485428
20
108.369397
11
169.660441
21
109.177889
0
LINE
8
Layer 1
10
169.660441
20
109.177889
11
170.922891
21
109.862565
0
LINE
8
Layer 1
10
170.922891
20
109.862565
11
172.271393
21
110.412639
0
LINE
8
Layer 1
10
172.271393
20
110.412639
11
173.704560
21
110.817324
0
LINE
8
Layer 1
10
173.704560
20
110.817324
11
176.330061
21
111.686598
0
LINE
8
Layer 1
10
176.330061
20
111.686598
11
179.007875
21
112.106258
0
LINE
8
Layer 1
10
179.007875
20
112.106258
11
181.711753
21
112.141653
0
LINE
8
Layer 1
10
181.711753
20
112.141653
11
184.415447
21
111.858128
0
LINE
8
Layer 1
10
184.415447
20
111.858128
11
187.092708
21
111.321030
0
LINE
8
Layer 1
10
187.092708
20
111.321030
11
189.717288
21
110.595707
0
LINE
8
Layer 1
10
189.717288
20
110.595707
11
194.703412
21
108.841769
0
LINE
8
Layer 1
10
194.703412
20
108.841769
11
196.347148
21
108.124793
0
LINE
8
Layer 1
10
196.347148
20
108.124793
11
197.904892
21
107.273017
0
LINE
8
Layer 1
10
197.904892
20
107.273017
11
200.816773
21
105.249655
0
LINE
8
Layer 1
10
200.816773
20
105.249655
11
203.547789
21
102.940874
0
LINE
8
Layer 1
10
203.547789
20
102.940874
11
206.206678
21
100.515864
0
LINE
8
Layer 1
10
206.206678
20
100.515864
11
208.902174
21
98.143814
0
LINE
8
Layer 1
10
208.902174
20
98.143814
11
211.743015
21
95.993914
0
LINE
8
Layer 1
10
211.743015
20
95.993914
11
214.837935
21
94.235354
0
LINE
8
Layer 1
10
214.837935
20
94.235354
11
216.514655
21
93.555698
0
LINE
8
Layer 1
10
216.514655
20
93.555698
11
218.295672
21
93.037324
0
LINE
8
Layer 1
10
218.295672
20
93.037324
11
223.939884
21
91.212318
0
LINE
8
Layer 1
10
223.939884
20
91.212318
11
229.532968
21
89.334096
0
LINE
8
Layer 1
10
229.532968
20
89.334096
11
232.279285
21
88.264732
0
LINE
8
Layer 1
10
232.279285
20
88.264732
11
234.975555
21
87.049710
0
LINE
8
Layer 1
10
234.975555
20
87.049710
11
237.609359
21
85.644909
0
LINE
8
Layer 1
10
237.609359
20
85.644909
11
240.168275
21
84.006213
0
LINE
8
Layer 1
10
240.168275
20
84.006213
11
245.068846
21
80.986577
0
LINE
8
Layer 1
10
245.068846
20
80.986577
11
247.436006
21
79.265632
0
LINE
8
Layer 1
10
247.436006
20
79.265632
11
249.714863
21
77.413083
0
LINE
8
Layer 1
10
249.714863
20
77.413083
11
251.880756
21
75.435787
0
LINE
8
Layer 1
10
251.880756
20
75.435787
11
253.909019
21
73.340604
0
LINE
8
Layer 1
10
253.909019
20
73.340604
11
255.774990
21
71.134393
0
LINE
8
Layer 1
10
255.774990
20
71.134393
11
257.454005
21
68.824012
0
LINE
8
Layer 1
10
257.454005
20
68.824012
11
263.281400
21
60.338001
0
LINE
8
Layer 1
10
263.281400
20
60.338001
11
268.742894
21
51.890120
0
LINE
8
Layer 1
10
268.742894
20
51.890120
11
270.912294
21
49.136028
0
LINE
8
Layer 1
10
270.912294
20
49.136028
11
273.178859
21
46.502705
0
LINE
8
Layer 1
10
273.178859
20
46.502705
11
275.543168
21
43.989568
0
LINE
8
Layer 1
10
275.543168
20
43.989568
11
278.005804
21
41.596032
0
LINE
8
Layer 1
10
278.005804
20
41.596032
11
280.567347
21
39.321512
0
LINE
8
Layer 1
10
280.567347
20
39.321512
11
283.228377
21
37.165425
0
LINE
8
Layer 1
10
283.228377
20
37.165425
11
285.989477
21
35.127187
0
LINE
8
Layer 1
10
285.989477
20
35.127187
11
288.851227
21
33.206213
0
LINE
8
Layer 1
10
288.851227
20
33.206213
11
291.149826
21
31.309549
0
LINE
8
Layer 1
10
291.149826
20
31.309549
11
293.384871
21
29.291272
0
LINE
8
Layer 1
10
293.384871
20
29.291272
11
295.484033
21
27.137921
0
LINE
8
Layer 1
10
295.484033
20
27.137921
11
297.374984
21
24.836037
0
LINE
8
Layer 1
10
297.374984
20
24.836037
11
298.985396
21
22.372162
0
LINE
8
Layer 1
10
298.985396
20
22.372162
11
300.242941
21
19.732835
0
LINE
8
Layer 1
10
300.242941
20
19.732835
11
301.075290
21
16.904598
0
LINE
8
Layer 1
10
301.075290
20
16.904598
11
301.410116
21
13.873991
0
LINE
8
Layer 1
10
301.410116
20
13.873991
11
302.150204
21
10.956075
0
LINE
8
Layer 1
10
302.150204
20
10.956075
11
302.557077
21
7.981129
0
LINE
8
Layer 1
10
302.557077
20
7.981129
11
302.646258
21
4.976219
0
LINE
8
Layer 1
10
302.646258
20
4.976219
11
302.433270
21
1.968412
0
LINE
8
Layer 1
10
302.433270
20
1.968412
11
301.933639
21
-1.015225
0
LINE
8
Layer 1
10
301.933639
20
-1.015225
11
301.162887
21
-3.947627
0
LINE
8
Layer 1
10
301.162887
20
-3.947627
11
300.136538
21
-6.801725
0
LINE
8
Layer 1
10
300.136538
20
-6.801725
11
298.870116
21
-9.550454
0
LINE
8
Layer 1
10
298.870116
20
-9.550454
11
297.604210
21
-12.563631
0
LINE
8
Layer 1
10
297.604210
20
-12.563631
11
296.078573
21
-15.510467
0
LINE
8
Layer 1
10
296.078573
20
-15.510467
11
294.276548
21
-18.278422
0
LINE
8
Layer 1
10
294.276548
20
-18.278422
11
292.181481
21
-20.754954
0
LINE
8
Layer 1
10
292.181481
20
-20.754954
11
289.776715
21
-22.827520
0
LINE
8
Layer 1
10
289.776715
20
-22.827520
11
288.452990
21
-23.677147
0
LINE
8
Layer 1
10
288.452990
20
-23.677147
11
287.045594
21
-24.383579
0
LINE
8
Layer 1
10
287.045594
20
-24.383579
11
285.552446
21
-24.932749
0
LINE
8
Layer 1
10
285.552446
20
-24.932749
11
283.971463
21
-25.310589
0
LINE
8
Layer 1
10
283.971463
20
-25.310589
11
282.300564
21
-25.503032
0
LINE
8
Layer 1
10
282.300564
20
-25.503032
11
280.537666
21
-25.496009
0
LINE
8
Layer 1
10
280.537666
20
-25.496009
11
278.875569
21
-26.291096
0
LINE
8
Layer 1
10
278.875569
20
-26.291096
11
277.202111
21
-26.931007
0
LINE
8
Layer 1
10
277.202111
20
-26.931007
11
273.824166
21
-27.803567
0
LINE
8
Layer 1
10
273.824166
20
-27.803567
11
270.409951
21
-28.230226
0
LINE
8
Layer 1
10
270.409951
20
-28.230226
11
266.965585
21
-28.327520
0
LINE
8
Layer 1
10
266.965585
20
-28.327520
11
260.010879
21
-28.000163
0
LINE
8
Layer 1
10
260.010879
20
-28.000163
11
256.512779
21
-27.808584
0
LINE
8
Layer 1
10
256.512779
20
-27.808584
11
253.009005
21
-27.753787
0
LINE
8
Layer 1
10
253.009005
20
-27.753787
11
247.802848
21
-28.510269
0
LINE
8
Layer 1
10
247.802848
20
-28.510269
11
242.515862
21
-28.811152
0
LINE
8
Layer 1
10
242.515862
20
-28.811152
11
237.186546
21
-28.799493
0
LINE
8
Layer 1
10
237.186546
20
-28.799493
11
231.853399
21
-28.618347
0
LINE
8
Layer 1
10
231.853399
20
-28.618347
11
231.853399
21
-28.618347
 0 
ENDSEC
 0 
EOF
