999
"DXF R12 Output" (www.mydxf.blogspot.com)
 0 
SECTION
 2 
HEADER
 9 
$ACADVER
 1 
AC1009
 9 
$EXTMIN
 10 
 0 
 20 
 0 
 9 
$EXTMAX
 10 
 8.5 
 20 
 11 
 0 
ENDSEC
 0 
SECTION
 2 
ENTITIES
0
LINE
8
Layer 1
10
44.514979
20
-24.405827
11
41.253492
21
-25.119504
0
LINE
8
Layer 1
10
41.253492
20
-25.119504
11
38.046167
21
-26.045765
0
LINE
8
Layer 1
10
38.046167
20
-26.045765
11
34.888988
21
-27.153384
0
LINE
8
Layer 1
10
34.888988
20
-27.153384
11
31.777937
21
-28.411133
0
LINE
8
Layer 1
10
31.777937
20
-28.411133
11
25.678159
21
-31.252112
0
LINE
8
Layer 1
10
25.678159
20
-31.252112
11
19.714702
21
-34.318883
0
LINE
8
Layer 1
10
19.714702
20
-34.318883
11
16.067956
21
-36.724387
0
LINE
8
Layer 1
10
16.067956
20
-36.724387
11
12.439143
21
-39.193847
0
LINE
8
Layer 1
10
12.439143
20
-39.193847
11
9.050420
21
-41.940009
0
LINE
8
Layer 1
10
9.050420
20
-41.940009
11
7.515516
21
-43.483336
0
LINE
8
Layer 1
10
7.515516
20
-43.483336
11
6.123941
21
-45.175619
0
LINE
8
Layer 1
10
6.123941
20
-45.175619
11
4.554542
21
-46.746186
0
LINE
8
Layer 1
10
4.554542
20
-46.746186
11
3.680507
21
-48.332732
0
LINE
8
Layer 1
10
3.680507
20
-48.332732
11
3.421350
21
-49.909529
0
LINE
8
Layer 1
10
3.421350
20
-49.909529
11
3.696582
21
-51.450846
0
LINE
8
Layer 1
10
3.696582
20
-51.450846
11
4.425716
21
-52.930954
0
LINE
8
Layer 1
10
4.425716
20
-52.930954
11
5.528264
21
-54.324124
0
LINE
8
Layer 1
10
5.528264
20
-54.324124
11
6.923738
21
-55.604626
0
LINE
8
Layer 1
10
6.923738
20
-55.604626
11
8.531650
21
-56.746730
0
LINE
8
Layer 1
10
8.531650
20
-56.746730
11
9.242274
21
-57.613229
0
LINE
8
Layer 1
10
9.242274
20
-57.613229
11
10.133032
21
-58.397007
0
LINE
8
Layer 1
10
10.133032
20
-58.397007
11
12.056507
21
-59.891299
0
LINE
8
Layer 1
10
12.056507
20
-59.891299
11
12.890004
21
-60.689261
0
LINE
8
Layer 1
10
12.890004
20
-60.689261
11
13.505192
21
-61.579400
0
LINE
8
Layer 1
10
13.505192
20
-61.579400
11
13.802462
21
-62.605440
0
LINE
8
Layer 1
10
13.802462
20
-62.605440
11
13.682202
21
-63.811105
0
LINE
8
Layer 1
10
13.682202
20
-63.811105
11
14.297065
21
-65.278983
0
LINE
8
Layer 1
10
14.297065
20
-65.278983
11
14.500495
21
-66.618912
0
LINE
8
Layer 1
10
14.500495
20
-66.618912
11
14.384858
21
-67.869118
0
LINE
8
Layer 1
10
14.384858
20
-67.869118
11
14.042520
21
-69.067827
0
LINE
8
Layer 1
10
14.042520
20
-69.067827
11
13.047199
21
-71.463659
0
LINE
8
Layer 1
10
13.047199
20
-71.463659
11
12.578948
21
-72.737233
0
LINE
8
Layer 1
10
12.578948
20
-72.737233
11
12.253455
21
-74.112216
0
LINE
8
Layer 1
10
12.253455
20
-74.112216
11
13.082660
21
-75.123081
0
LINE
8
Layer 1
10
13.082660
20
-75.123081
11
13.740798
21
-76.160329
0
LINE
8
Layer 1
10
13.740798
20
-76.160329
11
14.241247
21
-77.231722
0
LINE
8
Layer 1
10
14.241247
20
-77.231722
11
14.597384
21
-78.345026
0
LINE
8
Layer 1
10
14.597384
20
-78.345026
11
14.930234
21
-80.728423
0
LINE
8
Layer 1
10
14.930234
20
-80.728423
11
14.846369
21
-83.372633
0
LINE
8
Layer 1
10
14.846369
20
-83.372633
11
14.844530
21
-84.784689
0
LINE
8
Layer 1
10
14.844530
20
-84.784689
11
15.066383
21
-85.981893
0
LINE
8
Layer 1
10
15.066383
20
-85.981893
11
15.482946
21
-86.990887
0
LINE
8
Layer 1
10
15.482946
20
-86.990887
11
16.065236
21
-87.838312
0
LINE
8
Layer 1
10
16.065236
20
-87.838312
11
16.784269
21
-88.550810
0
LINE
8
Layer 1
10
16.784269
20
-88.550810
11
17.611065
21
-89.155021
0
LINE
8
Layer 1
10
17.611065
20
-89.155021
11
19.472009
21
-90.145151
0
LINE
8
Layer 1
10
19.472009
20
-90.145151
11
21.416206
21
-91.021832
0
LINE
8
Layer 1
10
21.416206
20
-91.021832
11
23.211795
21
-91.998195
0
LINE
8
Layer 1
10
23.211795
20
-91.998195
11
23.981405
21
-92.590361
0
LINE
8
Layer 1
10
23.981405
20
-92.590361
11
24.626915
21
-93.287372
0
LINE
8
Layer 1
10
24.626915
20
-93.287372
11
25.119341
21
-94.115869
0
LINE
8
Layer 1
10
25.119341
20
-94.115869
11
25.429702
21
-95.102494
0
LINE
8
Layer 1
10
25.429702
20
-95.102494
11
26.064211
21
-96.496993
0
LINE
8
Layer 1
10
26.064211
20
-96.496993
11
26.390567
21
-97.712371
0
LINE
8
Layer 1
10
26.390567
20
-97.712371
11
26.437460
21
-98.763706
0
LINE
8
Layer 1
10
26.437460
20
-98.763706
11
26.233580
21
-99.666073
0
LINE
8
Layer 1
10
26.233580
20
-99.666073
11
25.807617
21
-100.434550
0
LINE
8
Layer 1
10
25.807617
20
-100.434550
11
25.188262
21
-101.084213
0
LINE
8
Layer 1
10
25.188262
20
-101.084213
11
24.404206
21
-101.630138
0
LINE
8
Layer 1
10
24.404206
20
-101.630138
11
23.484137
21
-102.087403
0
LINE
8
Layer 1
10
23.484137
20
-102.087403
11
21.350724
21
-102.796255
0
LINE
8
Layer 1
10
21.350724
20
-102.796255
11
19.017546
21
-103.331382
0
LINE
8
Layer 1
10
19.017546
20
-103.331382
11
16.714124
21
-103.813396
0
LINE
8
Layer 1
10
16.714124
20
-103.813396
11
14.669980
21
-104.362910
0
LINE
8
Layer 1
10
14.669980
20
-104.362910
11
12.402677
21
-104.912669
0
LINE
8
Layer 1
10
12.402677
20
-104.912669
11
10.321544
21
-105.800573
0
LINE
8
Layer 1
10
10.321544
20
-105.800573
11
8.474865
21
-107.001389
0
LINE
8
Layer 1
10
8.474865
20
-107.001389
11
6.910925
21
-108.489883
0
LINE
8
Layer 1
10
6.910925
20
-108.489883
11
5.678009
21
-110.240821
0
LINE
8
Layer 1
10
5.678009
20
-110.240821
11
4.824401
21
-112.228970
0
LINE
8
Layer 1
10
4.824401
20
-112.228970
11
4.398385
21
-114.429096
0
LINE
8
Layer 1
10
4.398385
20
-114.429096
11
4.448247
21
-116.815966
0
LINE
8
Layer 1
10
4.448247
20
-116.815966
11
2.884138
21
-120.617026
0
LINE
8
Layer 1
10
2.884138
20
-120.617026
11
2.112672
21
-122.651035
0
LINE
8
Layer 1
10
2.112672
20
-122.651035
11
1.574391
21
-124.681397
0
LINE
8
Layer 1
10
1.574391
20
-124.681397
11
1.438888
21
-126.638637
0
LINE
8
Layer 1
10
1.438888
20
-126.638637
11
1.575176
21
-127.568126
0
LINE
8
Layer 1
10
1.575176
20
-127.568126
11
1.875756
21
-128.453282
0
LINE
8
Layer 1
10
1.875756
20
-128.453282
11
2.361828
21
-129.285419
0
LINE
8
Layer 1
10
2.361828
20
-129.285419
11
3.054590
21
-130.055855
0
LINE
8
Layer 1
10
3.054590
20
-130.055855
11
3.975242
21
-130.755904
0
LINE
8
Layer 1
10
3.975242
20
-130.755904
11
5.144983
21
-131.376883
0
LINE
8
Layer 1
10
5.144983
20
-131.376883
11
5.786315
21
-132.509254
0
LINE
8
Layer 1
10
5.786315
20
-132.509254
11
6.433364
21
-133.314699
0
LINE
8
Layer 1
10
6.433364
20
-133.314699
11
7.085120
21
-133.825265
0
LINE
8
Layer 1
10
7.085120
20
-133.825265
11
7.740569
21
-134.073000
0
LINE
8
Layer 1
10
7.740569
20
-134.073000
11
8.398698
21
-134.089954
0
LINE
8
Layer 1
10
8.398698
20
-134.089954
11
9.058496
21
-133.908174
0
LINE
8
Layer 1
10
9.058496
20
-133.908174
11
10.379046
21
-133.076609
0
LINE
8
Layer 1
10
10.379046
20
-133.076609
11
11.694118
21
-131.834690
0
LINE
8
Layer 1
10
11.694118
20
-131.834690
11
12.995613
21
-130.438805
0
LINE
8
Layer 1
10
12.995613
20
-130.438805
11
14.275429
21
-129.145342
0
LINE
8
Layer 1
10
14.275429
20
-129.145342
11
15.525466
21
-128.210688
0
LINE
8
Layer 1
10
15.525466
20
-128.210688
11
16.105838
21
-127.871174
0
LINE
8
Layer 1
10
16.105838
20
-127.871174
11
16.590985
21
-127.405564
0
LINE
8
Layer 1
10
16.590985
20
-127.405564
11
17.279371
21
-126.182594
0
LINE
8
Layer 1
10
17.279371
20
-126.182594
11
17.598154
21
-124.714842
0
LINE
8
Layer 1
10
17.598154
20
-124.714842
11
17.554862
21
-123.175375
0
LINE
8
Layer 1
10
17.554862
20
-123.175375
11
17.157023
21
-121.737257
0
LINE
8
Layer 1
10
17.157023
20
-121.737257
11
16.412165
21
-120.573555
0
LINE
8
Layer 1
10
16.412165
20
-120.573555
11
15.911957
21
-120.148693
0
LINE
8
Layer 1
10
15.911957
20
-120.148693
11
15.327817
21
-119.857334
0
LINE
8
Layer 1
10
15.327817
20
-119.857334
11
14.660687
21
-119.721112
0
LINE
8
Layer 1
10
14.660687
20
-119.721112
11
13.911508
21
-119.761660
0
LINE
8
Layer 1
10
13.911508
20
-119.761660
11
13.363071
21
-118.783450
0
LINE
8
Layer 1
10
13.363071
20
-118.783450
11
13.061092
21
-117.898278
0
LINE
8
Layer 1
10
13.061092
20
-117.898278
11
12.982919
21
-117.100171
0
LINE
8
Layer 1
10
12.982919
20
-117.100171
11
13.105898
21
-116.383157
0
LINE
8
Layer 1
10
13.105898
20
-116.383157
11
13.407373
21
-115.741263
0
LINE
8
Layer 1
10
13.407373
20
-115.741263
11
13.864692
21
-115.168514
0
LINE
8
Layer 1
10
13.864692
20
-115.168514
11
15.156244
21
-114.206564
0
LINE
8
Layer 1
10
15.156244
20
-114.206564
11
16.799322
21
-113.449521
0
LINE
8
Layer 1
10
16.799322
20
-113.449521
11
18.612694
21
-112.849602
0
LINE
8
Layer 1
10
18.612694
20
-112.849602
11
22.025397
21
-111.929994
0
LINE
8
Layer 1
10
22.025397
20
-111.929994
11
23.587689
21
-113.063056
0
LINE
8
Layer 1
10
23.587689
20
-113.063056
11
25.377614
21
-114.174758
0
LINE
8
Layer 1
10
25.377614
20
-114.174758
11
29.101229
21
-116.498519
0
LINE
8
Layer 1
10
29.101229
20
-116.498519
11
30.765350
21
-117.792798
0
LINE
8
Layer 1
10
30.765350
20
-117.792798
11
32.117969
21
-119.230156
0
LINE
8
Layer 1
10
32.117969
20
-119.230156
11
33.024301
21
-120.851703
0
LINE
8
Layer 1
10
33.024301
20
-120.851703
11
33.267989
21
-121.744395
0
LINE
8
Layer 1
10
33.267989
20
-121.744395
11
33.349562
21
-122.698550
0
LINE
8
Layer 1
10
33.349562
20
-122.698550
11
30.697926
21
-123.002119
0
LINE
8
Layer 1
10
30.697926
20
-123.002119
11
28.012486
21
-123.498919
0
LINE
8
Layer 1
10
28.012486
20
-123.498919
11
25.374284
21
-124.231025
0
LINE
8
Layer 1
10
25.374284
20
-124.231025
11
22.864362
21
-125.240514
0
LINE
8
Layer 1
10
22.864362
20
-125.240514
11
20.563762
21
-126.569463
0
LINE
8
Layer 1
10
20.563762
20
-126.569463
11
18.553526
21
-128.259947
0
LINE
8
Layer 1
10
18.553526
20
-128.259947
11
17.682620
21
-129.253914
0
LINE
8
Layer 1
10
17.682620
20
-129.253914
11
16.914696
21
-130.354043
0
LINE
8
Layer 1
10
16.914696
20
-130.354043
11
16.259884
21
-131.565594
0
LINE
8
Layer 1
10
16.259884
20
-131.565594
11
15.728314
21
-132.893827
0
LINE
8
Layer 1
10
15.728314
20
-132.893827
11
14.916953
21
-134.774199
0
LINE
8
Layer 1
10
14.916953
20
-134.774199
11
14.370794
21
-136.814358
0
LINE
8
Layer 1
10
14.370794
20
-136.814358
11
14.150473
21
-138.899501
0
LINE
8
Layer 1
10
14.150473
20
-138.899501
11
14.316623
21
-140.914824
0
LINE
8
Layer 1
10
14.316623
20
-140.914824
11
14.929882
21
-142.745524
0
LINE
8
Layer 1
10
14.929882
20
-142.745524
11
15.423125
21
-143.555764
0
LINE
8
Layer 1
10
15.423125
20
-143.555764
11
16.050884
21
-144.276796
0
LINE
8
Layer 1
10
16.050884
20
-144.276796
11
16.820738
21
-144.894271
0
LINE
8
Layer 1
10
16.820738
20
-144.894271
11
17.740265
21
-145.393837
0
LINE
8
Layer 1
10
17.740265
20
-145.393837
11
18.817046
21
-145.761145
0
LINE
8
Layer 1
10
18.817046
20
-145.761145
11
20.058661
21
-145.981843
0
LINE
8
Layer 1
10
20.058661
20
-145.981843
11
22.439682
21
-146.159330
0
LINE
8
Layer 1
10
22.439682
20
-146.159330
11
25.737420
21
-146.234228
0
LINE
8
Layer 1
10
25.737420
20
-146.234228
11
27.213601
21
-146.032216
0
LINE
8
Layer 1
10
27.213601
20
-146.032216
11
28.299215
21
-145.563370
0
LINE
8
Layer 1
10
28.299215
20
-145.563370
11
28.631002
21
-145.203761
0
LINE
8
Layer 1
10
28.631002
20
-145.203761
11
28.787679
21
-144.747295
0
LINE
8
Layer 1
10
28.787679
20
-144.747295
11
28.743422
21
-144.183922
0
LINE
8
Layer 1
10
28.743422
20
-144.183922
11
28.472409
21
-143.503594
0
LINE
8
Layer 1
10
28.472409
20
-143.503594
11
26.753712
21
-142.547469
0
LINE
8
Layer 1
10
26.753712
20
-142.547469
11
25.950817
21
-141.853211
0
LINE
8
Layer 1
10
25.950817
20
-141.853211
11
25.843359
21
-141.584445
0
LINE
8
Layer 1
10
25.843359
20
-141.584445
11
25.905528
21
-141.357339
0
LINE
8
Layer 1
10
25.905528
20
-141.357339
11
26.459649
21
-140.996369
0
LINE
8
Layer 1
10
26.459649
20
-140.996369
11
28.733334
21
-140.425212
0
LINE
8
Layer 1
10
28.733334
20
-140.425212
11
30.136504
21
-140.088060
0
LINE
8
Layer 1
10
30.136504
20
-140.088060
11
31.506298
21
-139.631883
0
LINE
8
Layer 1
10
31.506298
20
-139.631883
11
33.487449
21
-139.135694
0
LINE
8
Layer 1
10
33.487449
20
-139.135694
11
35.387377
21
-138.415079
0
LINE
8
Layer 1
10
35.387377
20
-138.415079
11
39.063125
21
-136.679549
0
LINE
8
Layer 1
10
39.063125
20
-136.679549
11
40.898726
21
-135.854125
0
LINE
8
Layer 1
10
40.898726
20
-135.854125
11
42.772664
21
-135.183255
0
LINE
8
Layer 1
10
42.772664
20
-135.183255
11
44.714832
21
-134.761685
0
LINE
8
Layer 1
10
44.714832
20
-134.761685
11
46.755118
21
-134.684160
0
LINE
8
Layer 1
10
46.755118
20
-134.684160
11
47.901436
21
-134.538951
0
LINE
8
Layer 1
10
47.901436
20
-134.538951
11
48.905795
21
-134.737021
0
LINE
8
Layer 1
10
48.905795
20
-134.737021
11
49.800777
21
-135.202283
0
LINE
8
Layer 1
10
49.800777
20
-135.202283
11
50.618964
21
-135.858649
0
LINE
8
Layer 1
10
50.618964
20
-135.858649
11
52.155280
21
-137.440346
0
LINE
8
Layer 1
10
52.155280
20
-137.440346
11
53.775396
21
-138.873411
0
LINE
8
Layer 1
10
53.775396
20
-138.873411
11
55.583022
21
-140.550911
0
LINE
8
Layer 1
10
55.583022
20
-140.550911
11
57.550047
21
-141.982140
0
LINE
8
Layer 1
10
57.550047
20
-141.982140
11
59.640448
21
-143.136423
0
LINE
8
Layer 1
10
59.640448
20
-143.136423
11
61.818202
21
-143.983083
0
LINE
8
Layer 1
10
61.818202
20
-143.983083
11
64.047284
21
-144.491446
0
LINE
8
Layer 1
10
64.047284
20
-144.491446
11
66.291672
21
-144.630833
0
LINE
8
Layer 1
10
66.291672
20
-144.630833
11
68.515342
21
-144.370571
0
LINE
8
Layer 1
10
68.515342
20
-144.370571
11
70.682271
21
-143.679982
0
LINE
8
Layer 1
10
70.682271
20
-143.679982
11
72.455615
21
-142.837958
0
LINE
8
Layer 1
10
72.455615
20
-142.837958
11
74.351681
21
-141.367126
0
LINE
8
Layer 1
10
74.351681
20
-141.367126
11
76.123021
21
-139.508468
0
LINE
8
Layer 1
10
76.123021
20
-139.508468
11
77.522187
21
-137.502962
0
LINE
8
Layer 1
10
77.522187
20
-137.502962
11
78.004879
21
-136.520448
0
LINE
8
Layer 1
10
78.004879
20
-136.520448
11
78.301734
21
-135.591590
0
LINE
8
Layer 1
10
78.301734
20
-135.591590
11
78.381821
21
-134.746510
0
LINE
8
Layer 1
10
78.381821
20
-134.746510
11
78.214211
21
-134.015332
0
LINE
8
Layer 1
10
78.214211
20
-134.015332
11
77.767973
21
-133.428176
0
LINE
8
Layer 1
10
77.767973
20
-133.428176
11
77.012174
21
-133.015167
0
LINE
8
Layer 1
10
77.012174
20
-133.015167
11
75.915884
21
-132.806427
0
LINE
8
Layer 1
10
75.915884
20
-132.806427
11
74.448173
21
-132.832077
0
LINE
8
Layer 1
10
74.448173
20
-132.832077
11
73.317004
21
-133.697205
0
LINE
8
Layer 1
10
73.317004
20
-133.697205
11
72.276181
21
-134.212621
0
LINE
8
Layer 1
10
72.276181
20
-134.212621
11
71.315215
21
-134.414590
0
LINE
8
Layer 1
10
71.315215
20
-134.414590
11
70.423614
21
-134.339381
0
LINE
8
Layer 1
10
70.423614
20
-134.339381
11
69.590886
21
-134.023260
0
LINE
8
Layer 1
10
69.590886
20
-134.023260
11
68.806540
21
-133.502493
0
LINE
8
Layer 1
10
68.806540
20
-133.502493
11
67.341030
21
-131.992092
0
LINE
8
Layer 1
10
67.341030
20
-131.992092
11
64.528980
21
-128.111289
0
LINE
8
Layer 1
10
64.528980
20
-128.111289
11
63.014579
21
-126.321156
0
LINE
8
Layer 1
10
63.014579
20
-126.321156
11
62.193565
21
-125.590591
0
LINE
8
Layer 1
10
62.193565
20
-125.590591
11
61.316021
21
-125.018049
0
LINE
8
Layer 1
10
61.316021
20
-125.018049
11
60.417854
21
-124.048916
0
LINE
8
Layer 1
10
60.417854
20
-124.048916
11
59.181878
21
-123.159446
0
LINE
8
Layer 1
10
59.181878
20
-123.159446
11
56.410363
21
-121.455184
0
LINE
8
Layer 1
10
56.410363
20
-121.455184
11
55.231759
21
-120.558239
0
LINE
8
Layer 1
10
55.231759
20
-120.558239
11
54.429212
21
-119.576647
0
LINE
8
Layer 1
10
54.429212
20
-119.576647
11
54.224731
21
-119.041272
0
LINE
8
Layer 1
10
54.224731
20
-119.041272
11
54.181190
21
-118.469332
0
LINE
8
Layer 1
10
54.181190
20
-118.469332
11
54.320897
21
-117.855691
0
LINE
8
Layer 1
10
54.320897
20
-117.855691
11
54.666159
21
-117.195216
0
LINE
8
Layer 1
10
54.666159
20
-117.195216
11
55.522235
21
-115.951019
0
LINE
8
Layer 1
10
55.522235
20
-115.951019
11
56.297261
21
-115.104136
0
LINE
8
Layer 1
10
56.297261
20
-115.104136
11
57.003784
21
-114.610944
0
LINE
8
Layer 1
10
57.003784
20
-114.610944
11
57.654352
21
-114.427824
0
LINE
8
Layer 1
10
57.654352
20
-114.427824
11
58.261514
21
-114.511154
0
LINE
8
Layer 1
10
58.261514
20
-114.511154
11
58.837815
21
-114.817312
0
LINE
8
Layer 1
10
58.837815
20
-114.817312
11
59.948029
21
-115.923628
0
LINE
8
Layer 1
10
59.948029
20
-115.923628
11
61.085375
21
-117.397802
0
LINE
8
Layer 1
10
61.085375
20
-117.397802
11
62.350233
21
-118.890864
0
LINE
8
Layer 1
10
62.350233
20
-118.890864
11
63.061848
21
-119.535425
0
LINE
8
Layer 1
10
63.061848
20
-119.535425
11
63.842984
21
-120.053844
0
LINE
8
Layer 1
10
63.842984
20
-120.053844
11
64.706187
21
-120.402500
0
LINE
8
Layer 1
10
64.706187
20
-120.402500
11
65.664007
21
-120.537772
0
LINE
8
Layer 1
10
65.664007
20
-120.537772
11
68.638011
21
-122.324100
0
LINE
8
Layer 1
10
68.638011
20
-122.324100
11
70.089243
21
-122.910154
0
LINE
8
Layer 1
10
70.089243
20
-122.910154
11
71.492830
21
-123.174161
0
LINE
8
Layer 1
10
71.492830
20
-123.174161
11
72.830927
21
-123.028142
0
LINE
8
Layer 1
10
72.830927
20
-123.028142
11
74.085685
21
-122.384117
0
LINE
8
Layer 1
10
74.085685
20
-122.384117
11
75.239258
21
-121.154107
0
LINE
8
Layer 1
10
75.239258
20
-121.154107
11
76.273798
21
-119.250133
0
LINE
8
Layer 1
10
76.273798
20
-119.250133
11
81.726026
21
-112.063169
0
LINE
8
Layer 1
10
81.726026
20
-112.063169
11
84.326219
21
-108.360698
0
LINE
8
Layer 1
10
84.326219
20
-108.360698
11
86.777757
21
-104.565758
0
LINE
8
Layer 1
10
86.777757
20
-104.565758
11
88.778488
21
-103.532350
0
LINE
8
Layer 1
10
88.778488
20
-103.532350
11
90.928324
21
-102.785076
0
LINE
8
Layer 1
10
90.928324
20
-102.785076
11
95.443347
21
-101.668248
0
LINE
8
Layer 1
10
95.443347
20
-101.668248
11
97.692555
21
-101.058358
0
LINE
8
Layer 1
10
97.692555
20
-101.058358
11
99.858908
21
-100.253926
0
LINE
8
Layer 1
10
99.858908
20
-100.253926
11
101.884416
21
-99.134782
0
LINE
8
Layer 1
10
101.884416
20
-99.134782
11
103.711090
21
-97.580758
0
LINE
8
Layer 1
10
103.711090
20
-97.580758
11
116.861485
21
-95.054067
0
LINE
8
Layer 1
10
116.861485
20
-95.054067
11
123.441572
21
-93.796392
0
LINE
8
Layer 1
10
123.441572
20
-93.796392
11
129.993034
21
-92.403744
0
LINE
8
Layer 1
10
129.993034
20
-92.403744
11
131.438983
21
-92.581891
0
LINE
8
Layer 1
10
131.438983
20
-92.581891
11
132.732059
21
-92.572178
0
LINE
8
Layer 1
10
132.732059
20
-92.572178
11
133.881016
21
-92.388398
0
LINE
8
Layer 1
10
133.881016
20
-92.388398
11
134.894608
21
-92.044345
0
LINE
8
Layer 1
10
134.894608
20
-92.044345
11
135.781588
21
-91.553816
0
LINE
8
Layer 1
10
135.781588
20
-91.553816
11
136.550711
21
-90.930604
0
LINE
8
Layer 1
10
136.550711
20
-90.930604
11
137.770400
21
-89.341311
0
LINE
8
Layer 1
10
137.770400
20
-89.341311
11
138.623703
21
-87.386822
0
LINE
8
Layer 1
10
138.623703
20
-87.386822
11
139.180651
21
-85.177496
0
LINE
8
Layer 1
10
139.180651
20
-85.177496
11
139.511275
21
-82.823689
0
LINE
8
Layer 1
10
139.511275
20
-82.823689
11
139.685604
21
-80.435758
0
LINE
8
Layer 1
10
139.685604
20
-80.435758
11
138.203596
21
-78.405989
0
LINE
8
Layer 1
10
138.203596
20
-78.405989
11
136.595779
21
-76.449610
0
LINE
8
Layer 1
10
136.595779
20
-76.449610
11
133.152474
21
-72.663266
0
LINE
8
Layer 1
10
133.152474
20
-72.663266
11
129.655214
21
-68.889228
0
LINE
8
Layer 1
10
129.655214
20
-68.889228
11
126.403521
21
-64.939994
0
LINE
8
Layer 1
10
126.403521
20
-64.939994
11
124.649741
21
-62.984885
0
LINE
8
Layer 1
10
124.649741
20
-62.984885
11
123.123403
21
-61.195931
0
LINE
8
Layer 1
10
123.123403
20
-61.195931
11
122.653389
21
-60.254682
0
LINE
8
Layer 1
10
122.653389
20
-60.254682
11
122.489675
21
-59.224077
0
LINE
8
Layer 1
10
122.489675
20
-59.224077
11
122.715406
21
-58.060484
0
LINE
8
Layer 1
10
122.715406
20
-58.060484
11
123.413729
21
-56.720272
0
LINE
8
Layer 1
10
123.413729
20
-56.720272
11
121.899858
21
-50.843257
0
LINE
8
Layer 1
10
121.899858
20
-50.843257
11
120.214530
21
-44.989051
0
LINE
8
Layer 1
10
120.214530
20
-44.989051
11
118.519254
21
-39.126705
0
LINE
8
Layer 1
10
118.519254
20
-39.126705
11
116.975534
21
-33.225272
0
LINE
8
Layer 1
10
116.975534
20
-33.225272
11
111.742444
21
-33.225595
0
LINE
8
Layer 1
10
111.742444
20
-33.225595
11
106.516106
21
-33.389109
0
LINE
8
Layer 1
10
106.516106
20
-33.389109
11
96.075765
21
-34.023401
0
LINE
8
Layer 1
10
96.075765
20
-34.023401
11
85.638677
21
-34.763541
0
LINE
8
Layer 1
10
85.638677
20
-34.763541
11
75.189007
21
-35.244924
0
LINE
8
Layer 1
10
75.189007
20
-35.244924
11
73.210620
21
-35.322933
0
LINE
8
Layer 1
10
73.210620
20
-35.322933
11
71.204431
21
-35.338020
0
LINE
8
Layer 1
10
71.204431
20
-35.338020
11
70.255816
21
-35.473156
0
LINE
8
Layer 1
10
70.255816
20
-35.473156
11
69.378135
21
-35.773989
0
LINE
8
Layer 1
10
69.378135
20
-35.773989
11
68.597350
21
-36.300994
0
LINE
8
Layer 1
10
68.597350
20
-36.300994
11
67.939423
21
-37.114647
0
LINE
8
Layer 1
10
67.939423
20
-37.114647
11
66.919435
21
-37.695904
0
LINE
8
Layer 1
10
66.919435
20
-37.695904
11
66.155579
21
-38.341781
0
LINE
8
Layer 1
10
66.155579
20
-38.341781
11
65.623026
21
-39.045668
0
LINE
8
Layer 1
10
65.623026
20
-39.045668
11
65.296947
21
-39.800954
0
LINE
8
Layer 1
10
65.296947
20
-39.800954
11
65.152510
21
-40.601029
0
LINE
8
Layer 1
10
65.152510
20
-40.601029
11
65.164889
21
-41.439281
0
LINE
8
Layer 1
10
65.164889
20
-41.439281
11
65.560769
21
-43.203878
0
LINE
8
Layer 1
10
65.560769
20
-43.203878
11
66.285952
21
-45.041861
0
LINE
8
Layer 1
10
66.285952
20
-45.041861
11
67.141801
21
-46.900345
0
LINE
8
Layer 1
10
67.141801
20
-46.900345
11
67.929679
21
-48.726448
0
LINE
8
Layer 1
10
67.929679
20
-48.726448
11
68.450951
21
-50.467285
0
LINE
8
Layer 1
10
68.450951
20
-50.467285
11
70.135089
21
-54.747202
0
LINE
8
Layer 1
10
70.135089
20
-54.747202
11
71.511126
21
-59.122606
0
LINE
8
Layer 1
10
71.511126
20
-59.122606
11
72.926936
21
-63.478649
0
LINE
8
Layer 1
10
72.926936
20
-63.478649
11
73.758468
21
-65.613519
0
LINE
8
Layer 1
10
73.758468
20
-65.613519
11
74.730396
21
-67.700480
0
LINE
8
Layer 1
10
74.730396
20
-67.700480
11
74.373423
21
-70.993405
0
LINE
8
Layer 1
10
74.373423
20
-70.993405
11
74.228394
21
-74.351475
0
LINE
8
Layer 1
10
74.228394
20
-74.351475
11
74.157132
21
-81.106035
0
LINE
8
Layer 1
10
74.157132
20
-81.106035
11
75.323762
21
-82.631171
0
LINE
8
Layer 1
10
75.323762
20
-82.631171
11
75.985603
21
-84.218416
0
LINE
8
Layer 1
10
75.985603
20
-84.218416
11
76.261776
21
-85.865470
0
LINE
8
Layer 1
10
76.261776
20
-85.865470
11
76.271402
21
-87.570030
0
LINE
8
Layer 1
10
76.271402
20
-87.570030
11
75.967495
21
-91.142458
0
LINE
8
Layer 1
10
75.967495
20
-91.142458
11
75.892206
21
-93.005723
0
LINE
8
Layer 1
10
75.892206
20
-93.005723
11
76.026854
21
-94.917285
0
LINE
8
Layer 1
10
76.026854
20
-94.917285
11
77.289394
21
-95.733417
0
LINE
8
Layer 1
10
77.289394
20
-95.733417
11
78.329718
21
-96.570598
0
LINE
8
Layer 1
10
78.329718
20
-96.570598
11
79.106448
21
-97.442197
0
LINE
8
Layer 1
10
79.106448
20
-97.442197
11
79.578204
21
-98.361577
0
LINE
8
Layer 1
10
79.578204
20
-98.361577
11
79.703605
21
-99.342105
0
LINE
8
Layer 1
10
79.703605
20
-99.342105
11
79.441274
21
-100.397146
0
LINE
8
Layer 1
10
79.441274
20
-100.397146
11
78.749831
21
-101.540066
0
LINE
8
Layer 1
10
78.749831
20
-101.540066
11
77.587896
21
-102.784230
0
LINE
8
Layer 1
10
77.587896
20
-102.784230
11
76.410213
21
-104.020998
0
LINE
8
Layer 1
10
76.410213
20
-104.020998
11
75.337324
21
-105.679691
0
LINE
8
Layer 1
10
75.337324
20
-105.679691
11
73.297132
21
-109.364919
0
LINE
8
Layer 1
10
73.297132
20
-109.364919
11
72.225434
21
-110.942486
0
LINE
8
Layer 1
10
72.225434
20
-110.942486
11
71.049736
21
-112.044042
0
LINE
8
Layer 1
10
71.049736
20
-112.044042
11
70.406575
21
-112.346165
0
LINE
8
Layer 1
10
70.406575
20
-112.346165
11
69.717840
21
-112.445104
0
LINE
8
Layer 1
10
69.717840
20
-112.445104
11
68.977006
21
-112.312799
0
LINE
8
Layer 1
10
68.977006
20
-112.312799
11
68.177548
21
-111.921188
0
LINE
8
Layer 1
10
68.177548
20
-111.921188
11
67.388536
21
-110.173212
0
LINE
8
Layer 1
10
67.388536
20
-110.173212
11
66.198323
21
-108.509995
0
LINE
8
Layer 1
10
66.198323
20
-108.509995
11
64.682415
21
-106.970354
0
LINE
8
Layer 1
10
64.682415
20
-106.970354
11
62.916320
21
-105.593105
0
LINE
8
Layer 1
10
62.916320
20
-105.593105
11
60.975543
21
-104.417066
0
LINE
8
Layer 1
10
60.975543
20
-104.417066
11
58.935590
21
-103.481052
0
LINE
8
Layer 1
10
58.935590
20
-103.481052
11
56.871970
21
-102.823881
0
LINE
8
Layer 1
10
56.871970
20
-102.823881
11
54.860187
21
-102.484369
0
LINE
8
Layer 1
10
54.860187
20
-102.484369
11
52.814506
21
-102.409516
0
LINE
8
Layer 1
10
52.814506
20
-102.409516
11
52.250429
21
-102.228471
0
LINE
8
Layer 1
10
52.250429
20
-102.228471
11
51.948670
21
-101.963135
0
LINE
8
Layer 1
10
51.948670
20
-101.963135
11
51.876586
21
-101.622101
0
LINE
8
Layer 1
10
51.876586
20
-101.622101
11
52.001535
21
-101.213959
0
LINE
8
Layer 1
10
52.001535
20
-101.213959
11
52.711955
21
-100.230721
0
LINE
8
Layer 1
10
52.711955
20
-100.230721
11
55.060884
21
-97.836989
0
LINE
8
Layer 1
10
55.060884
20
-97.836989
11
56.177103
21
-96.563960
0
LINE
8
Layer 1
10
56.177103
20
-96.563960
11
56.906298
21
-95.331799
0
LINE
8
Layer 1
10
56.906298
20
-95.331799
11
57.834717
21
-92.982735
0
LINE
8
Layer 1
10
57.834717
20
-92.982735
11
59.084058
21
-90.763941
0
LINE
8
Layer 1
10
59.084058
20
-90.763941
11
61.945770
21
-86.496188
0
LINE
8
Layer 1
10
61.945770
20
-86.496188
11
63.258275
21
-84.336741
0
LINE
8
Layer 1
10
63.258275
20
-84.336741
11
64.291966
21
-82.086588
0
LINE
8
Layer 1
10
64.291966
20
-82.086588
11
64.896910
21
-79.690485
0
LINE
8
Layer 1
10
64.896910
20
-79.690485
11
64.991748
21
-78.420439
0
LINE
8
Layer 1
10
64.991748
20
-78.420439
11
64.923173
21
-77.093188
0
LINE
8
Layer 1
10
64.923173
20
-77.093188
11
64.523642
21
-76.370017
0
LINE
8
Layer 1
10
64.523642
20
-76.370017
11
64.288753
21
-75.627185
0
LINE
8
Layer 1
10
64.288753
20
-75.627185
11
64.198102
21
-74.104237
0
LINE
8
Layer 1
10
64.198102
20
-74.104237
11
64.421617
21
-72.567747
0
LINE
8
Layer 1
10
64.421617
20
-72.567747
11
64.729695
21
-71.061114
0
LINE
8
Layer 1
10
64.729695
20
-71.061114
11
64.892736
21
-69.627740
0
LINE
8
Layer 1
10
64.892736
20
-69.627740
11
64.681135
21
-68.311025
0
LINE
8
Layer 1
10
64.681135
20
-68.311025
11
64.363094
21
-67.709977
0
LINE
8
Layer 1
10
64.363094
20
-67.709977
11
63.865292
21
-67.154369
0
LINE
8
Layer 1
10
63.865292
20
-67.154369
11
63.159029
21
-66.649627
0
LINE
8
Layer 1
10
63.159029
20
-66.649627
11
62.215604
21
-66.201174
0
LINE
8
Layer 1
10
62.215604
20
-66.201174
11
62.944232
21
-64.804991
0
LINE
8
Layer 1
10
62.944232
20
-64.804991
11
63.458089
21
-63.340985
0
LINE
8
Layer 1
10
63.458089
20
-63.340985
11
63.793860
21
-61.823296
0
LINE
8
Layer 1
10
63.793860
20
-61.823296
11
63.988228
21
-60.266063
0
LINE
8
Layer 1
10
63.988228
20
-60.266063
11
64.099485
21
-57.089530
0
LINE
8
Layer 1
10
64.099485
20
-57.089530
11
64.085326
21
-53.924508
0
LINE
8
Layer 1
10
64.085326
20
-53.924508
11
61.580046
21
-49.838929
0
LINE
8
Layer 1
10
61.580046
20
-49.838929
11
58.818715
21
-45.925324
0
LINE
8
Layer 1
10
58.818715
20
-45.925324
11
57.274127
21
-44.117755
0
LINE
8
Layer 1
10
57.274127
20
-44.117755
11
55.584041
21
-42.454871
0
LINE
8
Layer 1
10
55.584041
20
-42.454871
11
53.721295
21
-40.970568
0
LINE
8
Layer 1
10
53.721295
20
-40.970568
11
51.658729
21
-39.698744
0
LINE
8
Layer 1
10
51.658729
20
-39.698744
11
51.035107
21
-38.802348
0
LINE
8
Layer 1
10
51.035107
20
-38.802348
11
50.566938
21
-37.800565
0
LINE
8
Layer 1
10
50.566938
20
-37.800565
11
49.983962
21
-35.564381
0
LINE
8
Layer 1
10
49.983962
20
-35.564381
11
49.440437
21
-30.746331
0
LINE
8
Layer 1
10
49.440437
20
-30.746331
11
49.027879
21
-28.498631
0
LINE
8
Layer 1
10
49.027879
20
-28.498631
11
48.687525
21
-27.488211
0
LINE
8
Layer 1
10
48.687525
20
-27.488211
11
48.220120
21
-26.581258
0
LINE
8
Layer 1
10
48.220120
20
-26.581258
11
47.597413
21
-25.798658
0
LINE
8
Layer 1
10
47.597413
20
-25.798658
11
46.791154
21
-25.161296
0
LINE
8
Layer 1
10
46.791154
20
-25.161296
11
45.773093
21
-24.690057
0
LINE
8
Layer 1
10
45.773093
20
-24.690057
11
44.514979
21
-24.405827
0
LINE
8
Layer 1
10
44.514979
20
-24.405827
11
44.514979
21
-24.405827
0
LINE
8
Layer 1
10
44.611993
20
-26.831174
11
45.301280
21
-26.859026
0
LINE
8
Layer 1
10
45.301280
20
-26.859026
11
45.914593
21
-27.011255
0
LINE
8
Layer 1
10
45.914593
20
-27.011255
11
46.414592
21
-27.335823
0
LINE
8
Layer 1
10
46.414592
20
-27.335823
11
46.763937
21
-27.880688
0
LINE
8
Layer 1
10
46.763937
20
-27.880688
11
48.289701
21
-36.462008
0
LINE
8
Layer 1
10
48.289701
20
-36.462008
11
48.588967
21
-37.279263
0
LINE
8
Layer 1
10
48.588967
20
-37.279263
11
48.616373
21
-38.013272
0
LINE
8
Layer 1
10
48.616373
20
-38.013272
11
48.413282
21
-38.666551
0
LINE
8
Layer 1
10
48.413282
20
-38.666551
11
48.021059
21
-39.241614
0
LINE
8
Layer 1
10
48.021059
20
-39.241614
11
46.834666
21
-40.167149
0
LINE
8
Layer 1
10
46.834666
20
-40.167149
11
45.388104
21
-40.809994
0
LINE
8
Layer 1
10
45.388104
20
-40.809994
11
43.924859
21
-41.359759
0
LINE
8
Layer 1
10
43.924859
20
-41.359759
11
42.517075
21
-42.027636
0
LINE
8
Layer 1
10
42.517075
20
-42.027636
11
39.752479
21
-43.473466
0
LINE
8
Layer 1
10
39.752479
20
-43.473466
11
37.521525
21
-44.867794
0
LINE
8
Layer 1
10
37.521525
20
-44.867794
11
35.186428
21
-46.081559
0
LINE
8
Layer 1
10
35.186428
20
-46.081559
11
32.841302
21
-47.276711
0
LINE
8
Layer 1
10
32.841302
20
-47.276711
11
30.580257
21
-48.615202
0
LINE
8
Layer 1
10
30.580257
20
-48.615202
11
28.410074
21
-50.393232
0
LINE
8
Layer 1
10
28.410074
20
-50.393232
11
25.994147
21
-51.825480
0
LINE
8
Layer 1
10
25.994147
20
-51.825480
11
23.581377
21
-53.374703
0
LINE
8
Layer 1
10
23.581377
20
-53.374703
11
21.337480
21
-55.097494
0
LINE
8
Layer 1
10
21.337480
20
-55.097494
11
19.017458
21
-56.596908
0
LINE
8
Layer 1
10
19.017458
20
-56.596908
11
16.857202
21
-58.351869
0
LINE
8
Layer 1
10
16.857202
20
-58.351869
11
15.766885
21
-59.335270
0
LINE
8
Layer 1
10
15.766885
20
-59.335270
11
15.157658
21
-59.723644
0
LINE
8
Layer 1
10
15.157658
20
-59.723644
11
14.493591
21
-59.824716
0
LINE
8
Layer 1
10
14.493591
20
-59.824716
11
12.924128
21
-58.749858
0
LINE
8
Layer 1
10
12.924128
20
-58.749858
11
11.515514
21
-57.471205
0
LINE
8
Layer 1
10
11.515514
20
-57.471205
11
8.769775
21
-54.824091
0
LINE
8
Layer 1
10
8.769775
20
-54.824091
11
7.724507
21
-54.120973
0
LINE
8
Layer 1
10
7.724507
20
-54.120973
11
6.854421
21
-53.210758
0
LINE
8
Layer 1
10
6.854421
20
-53.210758
11
5.365469
21
-51.146383
0
LINE
8
Layer 1
10
5.365469
20
-51.146383
11
6.401636
21
-48.289767
0
LINE
8
Layer 1
10
6.401636
20
-48.289767
11
7.084904
21
-46.937587
0
LINE
8
Layer 1
10
7.084904
20
-46.937587
11
7.940747
21
-45.678327
0
LINE
8
Layer 1
10
7.940747
20
-45.678327
11
8.955589
21
-44.671085
0
LINE
8
Layer 1
10
8.955589
20
-44.671085
11
10.070109
21
-43.768292
0
LINE
8
Layer 1
10
10.070109
20
-43.768292
11
11.176076
21
-42.845968
0
LINE
8
Layer 1
10
11.176076
20
-42.845968
11
12.165261
21
-41.780133
0
LINE
8
Layer 1
10
12.165261
20
-41.780133
11
13.596090
21
-40.481672
0
LINE
8
Layer 1
10
13.596090
20
-40.481672
11
15.187713
21
-39.395586
0
LINE
8
Layer 1
10
15.187713
20
-39.395586
11
16.813716
21
-38.350835
0
LINE
8
Layer 1
10
16.813716
20
-38.350835
11
18.347689
21
-37.176383
0
LINE
8
Layer 1
10
18.347689
20
-37.176383
11
19.499347
21
-36.388821
0
LINE
8
Layer 1
10
19.499347
20
-36.388821
11
20.718511
21
-35.725847
0
LINE
8
Layer 1
10
20.718511
20
-35.725847
11
21.940684
21
-35.064947
0
LINE
8
Layer 1
10
21.940684
20
-35.064947
11
23.101369
21
-34.283605
0
LINE
8
Layer 1
10
23.101369
20
-34.283605
11
25.904052
21
-32.932854
0
LINE
8
Layer 1
10
25.904052
20
-32.932854
11
28.807548
21
-31.796522
0
LINE
8
Layer 1
10
28.807548
20
-31.796522
11
32.532551
21
-30.083224
0
LINE
8
Layer 1
10
32.532551
20
-30.083224
11
36.321715
21
-28.515688
0
LINE
8
Layer 1
10
36.321715
20
-28.515688
11
39.013129
21
-27.552226
0
LINE
8
Layer 1
10
39.013129
20
-27.552226
11
40.405578
21
-27.201531
0
LINE
8
Layer 1
10
40.405578
20
-27.201531
11
41.833868
21
-27.007563
0
LINE
8
Layer 1
10
41.833868
20
-27.007563
11
43.151656
21
-26.959233
0
LINE
8
Layer 1
10
43.151656
20
-26.959233
11
44.611993
21
-26.831174
0
LINE
8
Layer 1
10
44.611993
20
-26.831174
11
44.611993
21
-26.831174
0
LINE
8
Layer 1
10
41.463451
20
-31.434924
11
41.137132
21
-31.549577
0
LINE
8
Layer 1
10
41.137132
20
-31.549577
11
40.607965
21
-32.140480
0
LINE
8
Layer 1
10
40.607965
20
-32.140480
11
40.405118
21
-33.110619
0
LINE
8
Layer 1
10
40.405118
20
-33.110619
11
40.290465
21
-32.907772
0
LINE
8
Layer 1
10
40.290465
20
-32.907772
11
40.149354
21
-32.660827
0
LINE
8
Layer 1
10
40.149354
20
-32.660827
11
39.893590
21
-32.537355
0
LINE
8
Layer 1
10
39.893590
20
-32.537355
11
39.523173
21
-32.643188
0
LINE
8
Layer 1
10
39.523173
20
-32.643188
11
39.232132
21
-33.013605
0
LINE
8
Layer 1
10
39.232132
20
-33.013605
11
39.399701
21
-33.560410
0
LINE
8
Layer 1
10
39.399701
20
-33.560410
11
40.105257
21
-34.442355
0
LINE
8
Layer 1
10
40.105257
20
-34.442355
11
40.537409
21
-34.989160
0
LINE
8
Layer 1
10
40.537409
20
-34.989160
11
41.128312
21
-35.747633
0
LINE
8
Layer 1
10
41.128312
20
-35.747633
11
41.657479
21
-36.347355
0
LINE
8
Layer 1
10
41.657479
20
-36.347355
11
41.948521
21
-36.391452
0
LINE
8
Layer 1
10
41.948521
20
-36.391452
11
42.301298
21
-36.267980
0
LINE
8
Layer 1
10
42.301298
20
-36.267980
11
42.557062
21
-35.994577
0
LINE
8
Layer 1
10
42.557062
20
-35.994577
11
42.592340
21
-35.685897
0
LINE
8
Layer 1
10
42.592340
20
-35.685897
11
42.266021
21
-35.333119
0
LINE
8
Layer 1
10
42.266021
20
-35.333119
11
41.507548
21
-34.477633
0
LINE
8
Layer 1
10
41.507548
20
-34.477633
11
40.872548
21
-33.675063
0
LINE
8
Layer 1
10
40.872548
20
-33.675063
11
41.002901
21
-32.880549
0
LINE
8
Layer 1
10
41.002901
20
-32.880549
11
41.190048
21
-32.528535
0
LINE
8
Layer 1
10
41.190048
20
-32.528535
11
41.428173
21
-32.502091
0
LINE
8
Layer 1
10
41.428173
20
-32.502091
11
41.701576
21
-32.749036
0
LINE
8
Layer 1
10
41.701576
20
-32.749036
11
41.920094
21
-32.833415
0
LINE
8
Layer 1
10
41.920094
20
-32.833415
11
42.266021
21
-32.696119
0
LINE
8
Layer 1
10
42.266021
20
-32.696119
11
42.415951
21
-32.422716
0
LINE
8
Layer 1
10
42.415951
20
-32.422716
11
42.363034
21
-32.069938
0
LINE
8
Layer 1
10
42.363034
20
-32.069938
11
41.926793
21
-31.566160
0
LINE
8
Layer 1
10
41.926793
20
-31.566160
11
41.463451
21
-31.434938
0
LINE
8
Layer 1
10
41.463451
20
-31.434938
11
41.463451
21
-31.434924
0
LINE
8
Layer 1
10
37.529979
20
-33.860272
11
37.089007
21
-33.904369
0
LINE
8
Layer 1
10
37.089007
20
-33.904369
11
36.242340
21
-34.221869
0
LINE
8
Layer 1
10
36.242340
20
-34.221869
11
36.083590
21
-34.698119
0
LINE
8
Layer 1
10
36.083590
20
-34.698119
11
36.215882
21
-35.571244
0
LINE
8
Layer 1
10
36.215882
20
-35.571244
11
36.648034
21
-36.514924
0
LINE
8
Layer 1
10
36.648034
20
-36.514924
11
36.480465
21
-36.841244
0
LINE
8
Layer 1
10
36.480465
20
-36.841244
11
36.577479
21
-37.132285
0
LINE
8
Layer 1
10
36.577479
20
-37.132285
11
36.727409
21
-37.255758
0
LINE
8
Layer 1
10
36.727409
20
-37.255758
11
36.886159
21
-37.273397
0
LINE
8
Layer 1
10
36.886159
20
-37.273397
11
37.053729
21
-37.141105
0
LINE
8
Layer 1
10
37.053729
20
-37.141105
11
37.141923
21
-37.291035
0
LINE
8
Layer 1
10
37.141923
20
-37.291035
11
37.522970
21
-37.778069
0
LINE
8
Layer 1
10
37.522970
20
-37.778069
11
37.997409
21
-38.137702
0
LINE
8
Layer 1
10
37.997409
20
-38.137702
11
38.483952
21
-38.303769
0
LINE
8
Layer 1
10
38.483952
20
-38.303769
11
38.896993
21
-38.208258
0
LINE
8
Layer 1
10
38.896993
20
-38.208258
11
39.479076
21
-36.982355
0
LINE
8
Layer 1
10
39.479076
20
-36.982355
11
39.549632
21
-36.805966
0
LINE
8
Layer 1
10
39.549632
20
-36.805966
11
39.880641
21
-35.789501
0
LINE
8
Layer 1
10
39.880641
20
-35.789501
11
39.875951
21
-35.262563
0
LINE
8
Layer 1
10
39.875951
20
-35.262563
11
39.679163
21
-35.109168
0
LINE
8
Layer 1
10
39.679163
20
-35.109168
11
39.408521
21
-35.183188
0
LINE
8
Layer 1
10
39.408521
20
-35.183188
11
39.223312
21
-35.421313
0
LINE
8
Layer 1
10
39.223312
20
-35.421313
11
39.002826
21
-36.241522
0
LINE
8
Layer 1
10
39.002826
20
-36.241522
11
38.641229
21
-37.167563
0
LINE
8
Layer 1
10
38.641229
20
-37.167563
11
38.306090
21
-37.061730
0
LINE
8
Layer 1
10
38.306090
20
-37.061730
11
37.900396
21
-36.594299
0
LINE
8
Layer 1
10
37.900396
20
-36.594299
11
37.768104
21
-36.382633
0
LINE
8
Layer 1
10
37.768104
20
-36.382633
11
38.164979
21
-35.641799
0
LINE
8
Layer 1
10
38.164979
20
-35.641799
11
38.588312
21
-34.848049
0
LINE
8
Layer 1
10
38.588312
20
-34.848049
11
38.614756
21
-34.557008
0
LINE
8
Layer 1
10
38.614756
20
-34.557008
11
38.456006
21
-34.195410
0
LINE
8
Layer 1
10
38.456006
20
-34.195410
11
37.944479
21
-33.913188
0
LINE
8
Layer 1
10
37.944479
20
-33.913188
11
37.529965
21
-33.860272
0
LINE
8
Layer 1
10
37.529965
20
-33.860272
11
37.529979
21
-33.860272
0
LINE
8
Layer 1
10
37.274215
20
-34.680480
11
37.485882
21
-34.698119
0
LINE
8
Layer 1
10
37.485882
20
-34.698119
11
37.803382
21
-34.909785
0
LINE
8
Layer 1
10
37.803382
20
-34.909785
11
37.512340
21
-35.386035
0
LINE
8
Layer 1
10
37.512340
20
-35.386035
11
37.318312
21
-35.677077
0
LINE
8
Layer 1
10
37.318312
20
-35.677077
11
37.097826
21
-35.139091
0
LINE
8
Layer 1
10
37.097826
20
-35.139091
11
37.080187
21
-34.751035
0
LINE
8
Layer 1
10
37.080187
20
-34.751035
11
37.274215
21
-34.680480
0
LINE
8
Layer 1
10
37.274215
20
-34.680480
11
37.274215
21
-34.680480
0
LINE
8
Layer 1
10
114.867687
20
-34.715758
11
115.829495
21
-37.189880
0
LINE
8
Layer 1
10
115.829495
20
-37.189880
11
116.693312
21
-39.698744
0
LINE
8
Layer 1
10
116.693312
20
-39.698744
11
117.133491
21
-41.395759
0
LINE
8
Layer 1
10
117.133491
20
-41.395759
11
117.685219
21
-43.056152
0
LINE
8
Layer 1
10
117.685219
20
-43.056152
11
118.739423
21
-46.401522
0
LINE
8
Layer 1
10
118.739423
20
-46.401522
11
119.060283
21
-47.903966
0
LINE
8
Layer 1
10
119.060283
20
-47.903966
11
119.609344
21
-49.340914
0
LINE
8
Layer 1
10
119.609344
20
-49.340914
11
120.182056
21
-50.767783
0
LINE
8
Layer 1
10
120.182056
20
-50.767783
11
120.573868
21
-52.239994
0
LINE
8
Layer 1
10
120.573868
20
-52.239994
11
121.473341
21
-55.417979
0
LINE
8
Layer 1
10
121.473341
20
-55.417979
11
121.664300
21
-57.035780
0
LINE
8
Layer 1
10
121.664300
20
-57.035780
11
121.594579
21
-57.836291
0
LINE
8
Layer 1
10
121.594579
20
-57.836291
11
121.376437
21
-58.625272
0
LINE
8
Layer 1
10
121.376437
20
-58.625272
11
121.264900
21
-59.504357
0
LINE
8
Layer 1
10
121.264900
20
-59.504357
11
120.946838
21
-60.177125
0
LINE
8
Layer 1
10
120.946838
20
-60.177125
11
120.459394
21
-60.676429
0
LINE
8
Layer 1
10
120.459394
20
-60.676429
11
119.839715
21
-61.035124
0
LINE
8
Layer 1
10
119.839715
20
-61.035124
11
118.352220
21
-61.462103
0
LINE
8
Layer 1
10
118.352220
20
-61.462103
11
116.781507
21
-61.720897
0
LINE
8
Layer 1
10
116.781507
20
-61.720897
11
115.069963
21
-61.926016
0
LINE
8
Layer 1
10
115.069963
20
-61.926016
11
113.415657
21
-62.341099
0
LINE
8
Layer 1
10
113.415657
20
-62.341099
11
111.772991
21
-62.737123
0
LINE
8
Layer 1
10
111.772991
20
-62.737123
11
110.096368
21
-62.885063
0
LINE
8
Layer 1
10
110.096368
20
-62.885063
11
104.808859
21
-63.864462
0
LINE
8
Layer 1
10
104.808859
20
-63.864462
11
99.521854
21
-64.860619
0
LINE
8
Layer 1
10
99.521854
20
-64.860619
11
97.767325
21
-65.254617
0
LINE
8
Layer 1
10
97.767325
20
-65.254617
11
95.986623
21
-65.513083
0
LINE
8
Layer 1
10
95.986623
20
-65.513083
11
94.207442
21
-65.760611
0
LINE
8
Layer 1
10
94.207442
20
-65.760611
11
92.457479
21
-66.121799
0
LINE
8
Layer 1
10
92.457479
20
-66.121799
11
85.957548
21
-67.374160
0
LINE
8
Layer 1
10
85.957548
20
-67.374160
11
83.117687
21
-67.841591
0
LINE
8
Layer 1
10
83.117687
20
-67.841591
11
81.524030
21
-68.064088
0
LINE
8
Layer 1
10
81.524030
20
-68.064088
11
79.858587
21
-68.444580
0
LINE
8
Layer 1
10
79.858587
20
-68.444580
11
78.252833
21
-68.629410
0
LINE
8
Layer 1
10
78.252833
20
-68.629410
11
77.513425
21
-68.537936
0
LINE
8
Layer 1
10
77.513425
20
-68.537936
11
76.838243
21
-68.264924
0
LINE
8
Layer 1
10
76.838243
20
-68.264924
11
74.218868
21
-61.421035
0
LINE
8
Layer 1
10
74.218868
20
-61.421035
11
73.461010
21
-59.690494
0
LINE
8
Layer 1
10
73.461010
20
-59.690494
11
72.879220
21
-57.909270
0
LINE
8
Layer 1
10
72.879220
20
-57.909270
11
71.864076
21
-54.294924
0
LINE
8
Layer 1
10
71.864076
20
-54.294924
11
71.297458
21
-52.779932
0
LINE
8
Layer 1
10
71.297458
20
-52.779932
11
70.607062
21
-51.309292
0
LINE
8
Layer 1
10
70.607062
20
-51.309292
11
69.989548
21
-49.821139
0
LINE
8
Layer 1
10
69.989548
20
-49.821139
11
69.641576
21
-48.253605
0
LINE
8
Layer 1
10
69.641576
20
-48.253605
11
68.887217
21
-46.910211
0
LINE
8
Layer 1
10
68.887217
20
-46.910211
11
68.336018
21
-45.445900
0
LINE
8
Layer 1
10
68.336018
20
-45.445900
11
67.822442
21
-43.950078
0
LINE
8
Layer 1
10
67.822442
20
-43.950078
11
67.180951
21
-42.512147
0
LINE
8
Layer 1
10
67.180951
20
-42.512147
11
66.810431
21
-41.664570
0
LINE
8
Layer 1
10
66.810431
20
-41.664570
11
66.805274
21
-40.910525
0
LINE
8
Layer 1
10
66.805274
20
-40.910525
11
67.091008
21
-40.238812
0
LINE
8
Layer 1
10
67.091008
20
-40.238812
11
67.593163
21
-39.638229
0
LINE
8
Layer 1
10
67.593163
20
-39.638229
11
68.948853
21
-38.605652
0
LINE
8
Layer 1
10
68.948853
20
-38.605652
11
70.276576
21
-37.723188
0
LINE
8
Layer 1
10
70.276576
20
-37.723188
11
75.360832
21
-37.318944
0
LINE
8
Layer 1
10
75.360832
20
-37.318944
11
80.454215
21
-36.982355
0
LINE
8
Layer 1
10
80.454215
20
-36.982355
11
91.392194
21
-36.234299
0
LINE
8
Layer 1
10
91.392194
20
-36.234299
11
102.335257
21
-35.571244
0
LINE
8
Layer 1
10
102.335257
20
-35.571244
11
105.450662
21
-35.169878
0
LINE
8
Layer 1
10
105.450662
20
-35.169878
11
108.583620
21
-34.952045
0
LINE
8
Layer 1
10
108.583620
20
-34.952045
11
114.867687
21
-34.715758
0
LINE
8
Layer 1
10
114.867687
20
-34.715758
11
114.867687
21
-34.715758
0
LINE
8
Layer 1
10
30.756646
20
-34.856869
11
30.456784
21
-34.953883
0
LINE
8
Layer 1
10
30.456784
20
-34.953883
11
30.051090
21
-35.447772
0
LINE
8
Layer 1
10
30.051090
20
-35.447772
11
30.262757
21
-36.153327
0
LINE
8
Layer 1
10
30.262757
20
-36.153327
11
31.576854
21
-37.873119
0
LINE
8
Layer 1
10
31.576854
20
-37.873119
11
32.476437
21
-39.019647
0
LINE
8
Layer 1
10
32.476437
20
-39.019647
11
34.090396
21
-40.942285
0
LINE
8
Layer 1
10
34.090396
20
-40.942285
11
34.346159
21
-41.004022
0
LINE
8
Layer 1
10
34.346159
20
-41.004022
11
34.663659
21
-40.854091
0
LINE
8
Layer 1
10
34.663659
20
-40.854091
11
34.887848
21
-40.605819
0
LINE
8
Layer 1
10
34.887848
20
-40.605819
11
34.831229
21
-40.307285
0
LINE
8
Layer 1
10
34.831229
20
-40.307285
11
34.407896
21
-39.813397
0
LINE
8
Layer 1
10
34.407896
20
-39.813397
11
33.578868
21
-38.675688
0
LINE
8
Layer 1
10
33.578868
20
-38.675688
11
33.420366
21
-38.216202
0
LINE
8
Layer 1
10
33.420366
20
-38.216202
11
33.411298
21
-37.617355
0
LINE
8
Layer 1
10
33.411298
20
-37.617355
11
33.525965
21
-37.078186
0
LINE
8
Layer 1
10
33.525965
20
-37.078186
11
33.746437
21
-36.788327
0
LINE
8
Layer 1
10
33.746437
20
-36.788327
11
34.222687
21
-36.991174
0
LINE
8
Layer 1
10
34.222687
20
-36.991174
11
34.875326
21
-37.837841
0
LINE
8
Layer 1
10
34.875326
20
-37.837841
11
35.475048
21
-38.957910
0
LINE
8
Layer 1
10
35.475048
20
-38.957910
11
35.748451
21
-39.487077
0
LINE
8
Layer 1
10
35.748451
20
-39.487077
11
36.030673
21
-39.689924
0
LINE
8
Layer 1
10
36.030673
20
-39.689924
11
36.427548
21
-39.619369
0
LINE
8
Layer 1
10
36.427548
20
-39.619369
11
36.753868
21
-39.240133
0
LINE
8
Layer 1
10
36.753868
20
-39.240133
11
36.674493
21
-38.781522
0
LINE
8
Layer 1
10
36.674493
20
-38.781522
11
36.233521
21
-37.952494
0
LINE
8
Layer 1
10
36.233521
20
-37.952494
11
35.880743
21
-37.273397
0
LINE
8
Layer 1
10
35.880743
20
-37.273397
11
35.308255
21
-36.467389
0
LINE
8
Layer 1
10
35.308255
20
-36.467389
11
34.751854
21
-35.959299
0
LINE
8
Layer 1
10
34.751854
20
-35.959299
11
34.227342
21
-35.758140
0
LINE
8
Layer 1
10
34.227342
20
-35.758140
11
33.755257
21
-35.871105
0
LINE
8
Layer 1
10
33.755257
20
-35.871105
11
33.317801
21
-36.244123
0
LINE
8
Layer 1
10
33.317801
20
-36.244123
11
33.005604
21
-36.753049
0
LINE
8
Layer 1
10
33.005604
20
-36.753049
11
32.846164
21
-37.284487
0
LINE
8
Layer 1
10
32.846164
20
-37.284487
11
32.873312
21
-37.723188
0
LINE
8
Layer 1
10
32.873312
20
-37.723188
11
32.335326
21
-36.982355
0
LINE
8
Layer 1
10
32.335326
20
-36.982355
11
31.779701
21
-36.197424
0
LINE
8
Layer 1
10
31.779701
20
-36.197424
11
31.285812
21
-35.315480
0
LINE
8
Layer 1
10
31.285812
20
-35.315480
11
31.135882
21
-35.042077
0
LINE
8
Layer 1
10
31.135882
20
-35.042077
11
30.853659
21
-34.856869
0
LINE
8
Layer 1
10
30.853659
20
-34.856869
11
30.756646
21
-34.856869
0
LINE
8
Layer 1
10
30.756646
20
-34.856869
11
30.756646
21
-34.856869
0
LINE
8
Layer 1
10
114.241507
20
-35.368397
11
113.985743
21
-35.394841
0
LINE
8
Layer 1
10
113.985743
20
-35.394841
11
113.467284
21
-35.670019
0
LINE
8
Layer 1
10
113.467284
20
-35.670019
11
112.947799
21
-36.247751
0
LINE
8
Layer 1
10
112.947799
20
-36.247751
11
112.541591
21
-36.967881
0
LINE
8
Layer 1
10
112.541591
20
-36.967881
11
112.362965
21
-37.670257
0
LINE
8
Layer 1
10
112.362965
20
-37.670257
11
112.515389
21
-38.141586
0
LINE
8
Layer 1
10
112.515389
20
-38.141586
11
112.936206
21
-38.153370
0
LINE
8
Layer 1
10
112.936206
20
-38.153370
11
113.480507
21
-37.762643
0
LINE
8
Layer 1
10
113.480507
20
-37.762643
11
114.003382
21
-37.026438
0
LINE
8
Layer 1
10
114.003382
20
-37.026438
11
114.557251
21
-35.726906
0
LINE
8
Layer 1
10
114.557251
20
-35.726906
11
114.509044
21
-35.451942
0
LINE
8
Layer 1
10
114.509044
20
-35.451942
11
114.241507
21
-35.368382
0
LINE
8
Layer 1
10
114.241507
20
-35.368382
11
114.241507
21
-35.368397
0
LINE
8
Layer 1
10
107.723937
20
-37.829022
11
106.065882
21
-37.970133
0
LINE
8
Layer 1
10
106.065882
20
-37.970133
11
106.136437
21
-38.578674
0
LINE
8
Layer 1
10
106.136437
20
-38.578674
11
106.258313
21
-38.785555
0
LINE
8
Layer 1
10
106.258313
20
-38.785555
11
106.690745
21
-38.924840
0
LINE
8
Layer 1
10
106.690745
20
-38.924840
11
108.888104
21
-39.072563
0
LINE
8
Layer 1
10
108.888104
20
-39.072563
11
111.691214
21
-39.068783
0
LINE
8
Layer 1
10
111.691214
20
-39.068783
11
112.208072
21
-38.947916
0
LINE
8
Layer 1
10
112.208072
20
-38.947916
11
112.345326
21
-38.728605
0
LINE
8
Layer 1
10
112.345326
20
-38.728605
11
112.158349
21
-38.359341
0
LINE
8
Layer 1
10
112.158349
20
-38.359341
11
111.552740
21
-38.100653
0
LINE
8
Layer 1
10
111.552740
20
-38.100653
11
108.817548
21
-37.846660
0
LINE
8
Layer 1
10
108.817548
20
-37.846660
11
107.723937
21
-37.829022
0
LINE
8
Layer 1
10
107.723937
20
-37.829022
11
107.723937
21
-37.829022
0
LINE
8
Layer 1
10
102.970257
20
-38.164160
11
100.947146
21
-38.249580
0
LINE
8
Layer 1
10
100.947146
20
-38.249580
11
100.500021
21
-38.379319
0
LINE
8
Layer 1
10
100.500021
20
-38.379319
11
100.306784
21
-38.587494
0
LINE
8
Layer 1
10
100.306784
20
-38.587494
11
100.293754
21
-39.012311
0
LINE
8
Layer 1
10
100.293754
20
-39.012311
11
100.491993
21
-39.434160
0
LINE
8
Layer 1
10
100.491993
20
-39.434160
11
101.324215
21
-39.728704
0
LINE
8
Layer 1
10
101.324215
20
-39.728704
11
102.760450
21
-39.865575
0
LINE
8
Layer 1
10
102.760450
20
-39.865575
11
104.120789
21
-39.822016
0
LINE
8
Layer 1
10
104.120789
20
-39.822016
11
104.560027
21
-39.725465
0
LINE
8
Layer 1
10
104.560027
20
-39.725465
11
104.725326
21
-39.575272
0
LINE
8
Layer 1
10
104.725326
20
-39.575272
11
104.838270
21
-39.375952
0
LINE
8
Layer 1
10
104.838270
20
-39.375952
11
105.113382
21
-39.293049
0
LINE
8
Layer 1
10
105.113382
20
-39.293049
11
105.414283
21
-39.181465
0
LINE
8
Layer 1
10
105.414283
20
-39.181465
11
105.640599
21
-38.915380
0
LINE
8
Layer 1
10
105.640599
20
-38.915380
11
105.735597
21
-38.597800
0
LINE
8
Layer 1
10
105.735597
20
-38.597800
11
105.642548
21
-38.331730
0
LINE
8
Layer 1
10
105.642548
20
-38.331730
11
102.970257
21
-38.164160
0
LINE
8
Layer 1
10
102.970257
20
-38.164160
11
102.970257
21
-38.164160
0
LINE
8
Layer 1
10
30.068729
20
-38.261174
11
29.786507
21
-38.358188
0
LINE
8
Layer 1
10
29.786507
20
-38.358188
11
29.407271
21
-38.940272
0
LINE
8
Layer 1
10
29.407271
20
-38.940272
11
29.125048
21
-39.954508
0
LINE
8
Layer 1
10
29.125048
20
-39.954508
11
29.143337
21
-41.189692
0
LINE
8
Layer 1
10
29.143337
20
-41.189692
11
29.574840
21
-42.300480
0
LINE
8
Layer 1
10
29.574840
20
-42.300480
11
29.912330
21
-42.690021
0
LINE
8
Layer 1
10
29.912330
20
-42.690021
11
30.324493
21
-42.882563
0
LINE
8
Layer 1
10
30.324493
20
-42.882563
11
30.794684
21
-42.874316
0
LINE
8
Layer 1
10
30.794684
20
-42.874316
11
31.312271
21
-42.653258
0
LINE
8
Layer 1
10
31.312271
20
-42.653258
11
31.859418
21
-42.200823
0
LINE
8
Layer 1
10
31.859418
20
-42.200823
11
32.370604
21
-41.524369
0
LINE
8
Layer 1
10
32.370604
20
-41.524369
11
32.684422
21
-40.838372
0
LINE
8
Layer 1
10
32.684422
20
-40.838372
11
32.644007
21
-40.369022
0
LINE
8
Layer 1
10
32.644007
20
-40.369022
11
32.397062
21
-40.245549
0
LINE
8
Layer 1
10
32.397062
20
-40.245549
11
32.061923
21
-40.333744
0
LINE
8
Layer 1
10
32.061923
20
-40.333744
11
31.779701
21
-40.898188
0
LINE
8
Layer 1
10
31.779701
20
-40.898188
11
31.700326
21
-41.153952
0
LINE
8
Layer 1
10
31.700326
20
-41.153952
11
31.647409
21
-41.250966
0
LINE
8
Layer 1
10
31.647409
20
-41.250966
11
31.135882
21
-41.885966
0
LINE
8
Layer 1
10
31.135882
20
-41.885966
11
30.774284
21
-41.938883
0
LINE
8
Layer 1
10
30.774284
20
-41.938883
11
30.439146
21
-41.577285
0
LINE
8
Layer 1
10
30.439146
20
-41.577285
11
30.157820
21
-40.942636
0
LINE
8
Layer 1
10
30.157820
20
-40.942636
11
30.042271
21
-40.236730
0
LINE
8
Layer 1
10
30.042271
20
-40.236730
11
30.115717
21
-39.588778
0
LINE
8
Layer 1
10
30.115717
20
-39.588778
11
30.403868
21
-39.134299
0
LINE
8
Layer 1
10
30.403868
20
-39.134299
11
30.538006
21
-38.849910
0
LINE
8
Layer 1
10
30.538006
20
-38.849910
11
30.412673
21
-38.472841
0
LINE
8
Layer 1
10
30.412673
20
-38.472841
11
30.068715
21
-38.261174
0
LINE
8
Layer 1
10
30.068715
20
-38.261174
11
30.068729
21
-38.261174
0
LINE
8
Layer 1
10
97.105326
20
-38.869716
11
95.605339
21
-38.963021
0
LINE
8
Layer 1
10
95.605339
20
-38.963021
11
95.303290
21
-39.113590
0
LINE
8
Layer 1
10
95.303290
20
-39.113590
11
95.182687
21
-39.363605
0
LINE
8
Layer 1
10
95.182687
20
-39.363605
11
95.199143
21
-39.623519
0
LINE
8
Layer 1
10
95.199143
20
-39.623519
11
95.449355
21
-39.772989
0
LINE
8
Layer 1
10
95.449355
20
-39.772989
11
97.105326
21
-39.857494
0
LINE
8
Layer 1
10
97.105326
20
-39.857494
11
98.761297
21
-39.772989
0
LINE
8
Layer 1
10
98.761297
20
-39.772989
11
99.011510
21
-39.623519
0
LINE
8
Layer 1
10
99.011510
20
-39.623519
11
99.027965
21
-39.363605
0
LINE
8
Layer 1
10
99.027965
20
-39.363605
11
98.907362
21
-39.113590
0
LINE
8
Layer 1
10
98.907362
20
-39.113590
11
98.605313
21
-38.963021
0
LINE
8
Layer 1
10
98.605313
20
-38.963021
11
97.105326
21
-38.869716
0
LINE
8
Layer 1
10
97.105326
20
-38.869716
11
97.105326
21
-38.869716
0
LINE
8
Layer 1
10
90.455465
20
-39.010827
11
89.660209
21
-39.069481
0
LINE
8
Layer 1
10
89.660209
20
-39.069481
11
89.165476
21
-39.251022
0
LINE
8
Layer 1
10
89.165476
20
-39.251022
11
88.958550
21
-39.563820
0
LINE
8
Layer 1
10
88.958550
20
-39.563820
11
89.026715
21
-40.016244
0
LINE
8
Layer 1
10
89.026715
20
-40.016244
11
89.473606
21
-40.293857
0
LINE
8
Layer 1
10
89.473606
20
-40.293857
11
90.333117
21
-40.419829
0
LINE
8
Layer 1
10
90.333117
20
-40.419829
11
91.284669
21
-40.379287
0
LINE
8
Layer 1
10
91.284669
20
-40.379287
11
92.007687
21
-40.157355
0
LINE
8
Layer 1
10
92.007687
20
-40.157355
11
92.268533
21
-39.781463
0
LINE
8
Layer 1
10
92.268533
20
-39.781463
11
92.021164
21
-39.409205
0
LINE
8
Layer 1
10
92.021164
20
-39.409205
11
91.379000
21
-39.124390
0
LINE
8
Layer 1
10
91.379000
20
-39.124390
11
90.455465
21
-39.010827
0
LINE
8
Layer 1
10
90.455465
20
-39.010827
11
90.455465
21
-39.010827
0
LINE
8
Layer 1
10
25.667827
20
-39.072563
11
25.350327
21
-39.187216
0
LINE
8
Layer 1
10
25.350327
20
-39.187216
11
25.103383
21
-39.495897
0
LINE
8
Layer 1
10
25.103383
20
-39.495897
11
25.156300
21
-39.875133
0
LINE
8
Layer 1
10
25.156300
20
-39.875133
11
25.526716
21
-40.342563
0
LINE
8
Layer 1
10
25.526716
20
-40.342563
11
26.038244
21
-41.021660
0
LINE
8
Layer 1
10
26.038244
20
-41.021660
11
25.897133
21
-41.136313
0
LINE
8
Layer 1
10
25.897133
20
-41.136313
11
25.738383
21
-41.268605
0
LINE
8
Layer 1
10
25.738383
20
-41.268605
11
25.588452
21
-41.489091
0
LINE
8
Layer 1
10
25.588452
20
-41.489091
11
25.667827
21
-41.788952
0
LINE
8
Layer 1
10
25.667827
20
-41.788952
11
25.853036
21
-41.912424
0
LINE
8
Layer 1
10
25.853036
20
-41.912424
11
26.099980
21
-41.877147
0
LINE
8
Layer 1
10
26.099980
20
-41.877147
11
26.346925
21
-41.709577
0
LINE
8
Layer 1
10
26.346925
20
-41.709577
11
26.470397
21
-41.612563
0
LINE
8
Layer 1
10
26.470397
20
-41.612563
11
26.814355
21
-42.115272
0
LINE
8
Layer 1
10
26.814355
20
-42.115272
11
27.396439
21
-43.006035
0
LINE
8
Layer 1
10
27.396439
20
-43.006035
11
28.066716
21
-44.046730
0
LINE
8
Layer 1
10
28.066716
20
-44.046730
11
28.428312
21
-44.487702
0
LINE
8
Layer 1
10
28.428312
20
-44.487702
11
28.604701
21
-44.531799
0
LINE
8
Layer 1
10
28.604701
20
-44.531799
11
29.045673
21
-44.390688
0
LINE
8
Layer 1
10
29.045673
20
-44.390688
11
29.257340
21
-44.099647
0
LINE
8
Layer 1
10
29.257340
20
-44.099647
11
29.222062
21
-43.773327
0
LINE
8
Layer 1
10
29.222062
20
-43.773327
11
28.754632
21
-43.067772
0
LINE
8
Layer 1
10
28.754632
20
-43.067772
11
28.225465
21
-42.318119
0
LINE
8
Layer 1
10
28.225465
20
-42.318119
11
27.749216
21
-41.630202
0
LINE
8
Layer 1
10
27.749216
20
-41.630202
11
27.317064
21
-40.968744
0
LINE
8
Layer 1
10
27.317064
20
-40.968744
11
27.705119
21
-40.571869
0
LINE
8
Layer 1
10
27.705119
20
-40.571869
11
27.722758
21
-40.413119
0
LINE
8
Layer 1
10
27.722758
20
-40.413119
11
27.669841
21
-40.263188
0
LINE
8
Layer 1
10
27.669841
20
-40.263188
11
27.414077
21
-40.060341
0
LINE
8
Layer 1
10
27.414077
20
-40.060341
11
27.114216
21
-40.104438
0
LINE
8
Layer 1
10
27.114216
20
-40.104438
11
26.946647
21
-40.263188
0
LINE
8
Layer 1
10
26.946647
20
-40.263188
11
26.849633
21
-40.369022
0
LINE
8
Layer 1
10
26.849633
20
-40.369022
11
26.311647
21
-39.601730
0
LINE
8
Layer 1
10
26.311647
20
-39.601730
11
26.064702
21
-39.248952
0
LINE
8
Layer 1
10
26.064702
20
-39.248952
11
25.773661
21
-39.072563
0
LINE
8
Layer 1
10
25.773661
20
-39.072563
11
25.667827
21
-39.072563
0
LINE
8
Layer 1
10
25.667827
20
-39.072563
11
25.667827
21
-39.072563
0
LINE
8
Layer 1
10
85.110882
20
-39.293049
11
84.181196
21
-39.425899
0
LINE
8
Layer 1
10
84.181196
20
-39.425899
11
83.647447
21
-39.762702
0
LINE
8
Layer 1
10
83.647447
20
-39.762702
11
83.580832
21
-40.210843
0
LINE
8
Layer 1
10
83.580832
20
-40.210843
11
84.052548
21
-40.677702
0
LINE
8
Layer 1
10
84.052548
20
-40.677702
11
84.596002
21
-40.910055
0
LINE
8
Layer 1
10
84.596002
20
-40.910055
11
85.082781
21
-40.954797
0
LINE
8
Layer 1
10
85.082781
20
-40.954797
11
85.482187
21
-40.814690
0
LINE
8
Layer 1
10
85.482187
20
-40.814690
11
85.763521
21
-40.492494
0
LINE
8
Layer 1
10
85.763521
20
-40.492494
11
85.922907
21
-40.004181
0
LINE
8
Layer 1
10
85.922907
20
-40.004181
11
85.859039
21
-39.625305
0
LINE
8
Layer 1
10
85.859039
20
-39.625305
11
85.584252
21
-39.380163
0
LINE
8
Layer 1
10
85.584252
20
-39.380163
11
85.110882
21
-39.293049
0
LINE
8
Layer 1
10
85.110882
20
-39.293049
11
85.110882
21
-39.293049
0
LINE
8
Layer 1
10
113.377201
20
-39.337147
11
113.262548
21
-39.354785
0
LINE
8
Layer 1
10
113.262548
20
-39.354785
11
112.921201
21
-39.635051
0
LINE
8
Layer 1
10
112.921201
20
-39.635051
11
112.824581
21
-40.233834
0
LINE
8
Layer 1
10
112.824581
20
-40.233834
11
112.971198
21
-41.076599
0
LINE
8
Layer 1
10
112.971198
20
-41.076599
11
113.359562
21
-42.088813
0
LINE
8
Layer 1
10
113.359562
20
-42.088813
11
113.924007
21
-44.020272
0
LINE
8
Layer 1
10
113.924007
20
-44.020272
11
114.179771
21
-45.228535
0
LINE
8
Layer 1
10
114.179771
20
-45.228535
11
114.463598
21
-45.422210
0
LINE
8
Layer 1
10
114.463598
20
-45.422210
11
114.902965
21
-45.501938
0
LINE
8
Layer 1
10
114.902965
20
-45.501938
11
115.323603
21
-45.343143
0
LINE
8
Layer 1
10
115.323603
20
-45.343143
11
115.449771
21
-44.814022
0
LINE
8
Layer 1
10
115.449771
20
-44.814022
11
115.371771
21
-44.277747
0
LINE
8
Layer 1
10
115.371771
20
-44.277747
11
115.185187
21
-43.958535
0
LINE
8
Layer 1
10
115.185187
20
-43.958535
11
114.905894
21
-43.392021
0
LINE
8
Layer 1
10
114.905894
20
-43.392021
11
114.603104
21
-42.256383
0
LINE
8
Layer 1
10
114.603104
20
-42.256383
11
114.300314
21
-41.120745
0
LINE
8
Layer 1
10
114.300314
20
-41.120745
11
114.021021
21
-40.554230
0
LINE
8
Layer 1
10
114.021021
20
-40.554230
11
113.834436
21
-40.271918
0
LINE
8
Layer 1
10
113.834436
20
-40.271918
11
113.756437
21
-39.822216
0
LINE
8
Layer 1
10
113.756437
20
-39.822216
11
113.663418
21
-39.445630
0
LINE
8
Layer 1
10
113.663418
20
-39.445630
11
113.377201
21
-39.337147
0
LINE
8
Layer 1
10
113.377201
20
-39.337147
11
113.377201
21
-39.337147
0
LINE
8
Layer 1
10
78.619771
20
-39.963327
11
78.372826
21
-40.025063
0
LINE
8
Layer 1
10
78.372826
20
-40.025063
11
78.056601
21
-40.249875
0
LINE
8
Layer 1
10
78.056601
20
-40.249875
11
77.928069
21
-40.556451
0
LINE
8
Layer 1
10
77.928069
20
-40.556451
11
77.995457
21
-40.861917
0
LINE
8
Layer 1
10
77.995457
20
-40.861917
11
78.266993
21
-41.083397
0
LINE
8
Layer 1
10
78.266993
20
-41.083397
11
78.866169
21
-41.220694
0
LINE
8
Layer 1
10
78.866169
20
-41.220694
11
79.290048
21
-40.880549
0
LINE
8
Layer 1
10
79.290048
20
-40.880549
11
79.417461
21
-40.547462
0
LINE
8
Layer 1
10
79.417461
20
-40.547462
11
79.303647
21
-40.241589
0
LINE
8
Layer 1
10
79.303647
20
-40.241589
11
79.015465
21
-40.025890
0
LINE
8
Layer 1
10
79.015465
20
-40.025890
11
78.619771
21
-39.963327
0
LINE
8
Layer 1
10
78.619771
20
-39.963327
11
78.619771
21
-39.963327
0
LINE
8
Layer 1
10
23.921577
20
-40.483674
11
23.445327
21
-40.651244
0
LINE
8
Layer 1
10
23.445327
20
-40.651244
11
23.189564
21
-40.995202
0
LINE
8
Layer 1
10
23.189564
20
-40.995202
11
23.207202
21
-41.383258
0
LINE
8
Layer 1
10
23.207202
20
-41.383258
11
23.478987
21
-41.567189
0
LINE
8
Layer 1
10
23.478987
20
-41.567189
11
23.886300
21
-41.436174
0
LINE
8
Layer 1
10
23.886300
20
-41.436174
11
24.261765
21
-41.067583
0
LINE
8
Layer 1
10
24.261765
20
-41.067583
11
24.221439
21
-40.668883
0
LINE
8
Layer 1
10
24.221439
20
-40.668883
11
23.921577
21
-40.483674
0
LINE
8
Layer 1
10
23.921577
20
-40.483674
11
23.921577
21
-40.483674
0
LINE
8
Layer 1
10
24.688869
20
-41.806591
11
24.415466
21
-41.903605
0
LINE
8
Layer 1
10
24.415466
20
-41.903605
11
24.080327
21
-42.300480
0
LINE
8
Layer 1
10
24.080327
20
-42.300480
11
24.124425
21
-42.759091
0
LINE
8
Layer 1
10
24.124425
20
-42.759091
11
25.473800
21
-44.814022
0
LINE
8
Layer 1
10
25.473800
20
-44.814022
11
25.967689
21
-45.563674
0
LINE
8
Layer 1
10
25.967689
20
-45.563674
11
26.295599
21
-45.821199
0
LINE
8
Layer 1
10
26.295599
20
-45.821199
11
26.734980
21
-45.704785
0
LINE
8
Layer 1
10
26.734980
20
-45.704785
11
26.981925
21
-45.352008
0
LINE
8
Layer 1
10
26.981925
20
-45.352008
11
26.884911
21
-44.884577
0
LINE
8
Layer 1
10
26.884911
20
-44.884577
11
26.417480
21
-44.240758
0
LINE
8
Layer 1
10
26.417480
20
-44.240758
11
25.676647
21
-43.217702
0
LINE
8
Layer 1
10
25.676647
20
-43.217702
11
25.235675
21
-42.397494
0
LINE
8
Layer 1
10
25.235675
20
-42.397494
11
25.032827
21
-42.009438
0
LINE
8
Layer 1
10
25.032827
20
-42.009438
11
24.688869
21
-41.806591
0
LINE
8
Layer 1
10
24.688869
20
-41.806591
11
24.688869
21
-41.806591
0
LINE
8
Layer 1
10
22.713314
20
-42.917841
11
22.536925
21
-42.953119
0
LINE
8
Layer 1
10
22.536925
20
-42.953119
11
22.272341
21
-43.270619
0
LINE
8
Layer 1
10
22.272341
20
-43.270619
11
22.325258
21
-43.667494
0
LINE
8
Layer 1
10
22.325258
20
-43.667494
11
22.713314
21
-44.187841
0
LINE
8
Layer 1
10
22.713314
20
-44.187841
11
23.233661
21
-44.884577
0
LINE
8
Layer 1
10
23.233661
20
-44.884577
11
23.498244
21
-45.396105
0
LINE
8
Layer 1
10
23.498244
20
-45.396105
11
23.224841
21
-45.272633
0
LINE
8
Layer 1
10
23.224841
20
-45.272633
11
22.369355
21
-44.787563
0
LINE
8
Layer 1
10
22.369355
20
-44.787563
11
21.972711
21
-44.437606
0
LINE
8
Layer 1
10
21.972711
20
-44.437606
11
21.663800
21
-44.425966
0
LINE
8
Layer 1
10
21.663800
20
-44.425966
11
21.478591
21
-44.778744
0
LINE
8
Layer 1
10
21.478591
20
-44.778744
11
21.557966
21
-45.237355
0
LINE
8
Layer 1
10
21.557966
20
-45.237355
11
22.148869
21
-46.595549
0
LINE
8
Layer 1
10
22.148869
20
-46.595549
11
21.284564
21
-45.837077
0
LINE
8
Layer 1
10
21.284564
20
-45.837077
11
20.526091
21
-45.060966
0
LINE
8
Layer 1
10
20.526091
20
-45.060966
11
20.016235
21
-44.630253
0
LINE
8
Layer 1
10
20.016235
20
-44.630253
11
19.555952
21
-44.664091
0
LINE
8
Layer 1
10
19.555952
20
-44.664091
11
19.247272
21
-44.990410
0
LINE
8
Layer 1
10
19.247272
20
-44.990410
11
19.238467
21
-45.352008
0
LINE
8
Layer 1
10
19.238467
20
-45.352008
11
19.877187
21
-46.012106
0
LINE
8
Layer 1
10
19.877187
20
-46.012106
11
21.249300
21
-47.089438
0
LINE
8
Layer 1
10
21.249300
20
-47.089438
11
22.104786
21
-47.759716
0
LINE
8
Layer 1
10
22.104786
20
-47.759716
11
22.466383
21
-48.006660
0
LINE
8
Layer 1
10
22.466383
20
-48.006660
11
22.827980
21
-48.041938
0
LINE
8
Layer 1
10
22.827980
20
-48.041938
11
23.066105
21
-47.803813
0
LINE
8
Layer 1
10
23.066105
20
-47.803813
11
23.127842
21
-47.662702
0
LINE
8
Layer 1
10
23.127842
20
-47.662702
11
23.074925
21
-47.354022
0
LINE
8
Layer 1
10
23.074925
20
-47.354022
11
22.722147
21
-45.889994
0
LINE
8
Layer 1
10
22.722147
20
-45.889994
11
23.410064
21
-46.198674
0
LINE
8
Layer 1
10
23.410064
20
-46.198674
11
24.194994
21
-46.533813
0
LINE
8
Layer 1
10
24.194994
20
-46.533813
11
24.662425
21
-46.480897
0
LINE
8
Layer 1
10
24.662425
20
-46.480897
11
24.865272
21
-46.260410
0
LINE
8
Layer 1
10
24.865272
20
-46.260410
11
24.847633
21
-46.013466
0
LINE
8
Layer 1
10
24.847633
20
-46.013466
11
24.688883
21
-45.757702
0
LINE
8
Layer 1
10
24.688883
20
-45.757702
11
24.256730
21
-45.078605
0
LINE
8
Layer 1
10
24.256730
20
-45.078605
11
23.771661
21
-44.179022
0
LINE
8
Layer 1
10
23.771661
20
-44.179022
11
23.330689
21
-43.358813
0
LINE
8
Layer 1
10
23.330689
20
-43.358813
11
22.933814
21
-42.979577
0
LINE
8
Layer 1
10
22.933814
20
-42.979577
11
22.713328
21
-42.917841
0
LINE
8
Layer 1
10
22.713328
20
-42.917841
11
22.713314
21
-42.917841
0
LINE
8
Layer 1
10
72.305048
20
-43.808605
11
72.095342
21
-43.904696
0
LINE
8
Layer 1
10
72.095342
20
-43.904696
11
71.997501
21
-44.168475
0
LINE
8
Layer 1
10
71.997501
20
-44.168475
11
72.155118
21
-45.052147
0
LINE
8
Layer 1
10
72.155118
20
-45.052147
11
72.435171
21
-45.361647
0
LINE
8
Layer 1
10
72.435171
20
-45.361647
11
72.853185
21
-45.490411
0
LINE
8
Layer 1
10
72.853185
20
-45.490411
11
73.230847
21
-45.424297
0
LINE
8
Layer 1
10
73.230847
20
-45.424297
11
73.389840
21
-45.149160
0
LINE
8
Layer 1
10
73.389840
20
-45.149160
11
72.987386
21
-44.293547
0
LINE
8
Layer 1
10
72.987386
20
-44.293547
11
72.635522
21
-43.948566
0
LINE
8
Layer 1
10
72.635522
20
-43.948566
11
72.305048
21
-43.808605
0
LINE
8
Layer 1
10
72.305048
20
-43.808605
11
72.305048
21
-43.808605
0
LINE
8
Layer 1
10
15.596022
20
-44.187841
11
15.128591
21
-44.355410
0
LINE
8
Layer 1
10
15.128591
20
-44.355410
11
14.763750
21
-44.699944
0
LINE
8
Layer 1
10
14.763750
20
-44.699944
11
14.396577
21
-45.290272
0
LINE
8
Layer 1
10
14.396577
20
-45.290272
11
13.920327
21
-46.701383
0
LINE
8
Layer 1
10
13.920327
20
-46.701383
11
13.894376
21
-47.317204
0
LINE
8
Layer 1
10
13.894376
20
-47.317204
11
14.034980
21
-47.768535
0
LINE
8
Layer 1
10
14.034980
20
-47.768535
11
14.495108
21
-48.159813
0
LINE
8
Layer 1
10
14.495108
20
-48.159813
11
15.119772
21
-48.094855
0
LINE
8
Layer 1
10
15.119772
20
-48.094855
11
17.747966
21
-47.204091
0
LINE
8
Layer 1
10
17.747966
20
-47.204091
11
18.612272
21
-47.230535
0
LINE
8
Layer 1
10
18.612272
20
-47.230535
11
19.203175
21
-47.777341
0
LINE
8
Layer 1
10
19.203175
20
-47.777341
11
19.403663
21
-48.317006
0
LINE
8
Layer 1
10
19.403663
20
-48.317006
11
19.379564
21
-48.906230
0
LINE
8
Layer 1
10
19.379564
20
-48.906230
11
19.150647
21
-49.446000
0
LINE
8
Layer 1
10
19.150647
20
-49.446000
11
18.735744
21
-49.832271
0
LINE
8
Layer 1
10
18.735744
20
-49.832271
11
18.197758
21
-49.946924
0
LINE
8
Layer 1
10
18.197758
20
-49.946924
11
17.800883
21
-49.594146
0
LINE
8
Layer 1
10
17.800883
20
-49.594146
11
17.624494
21
-49.091438
0
LINE
8
Layer 1
10
17.624494
20
-49.091438
11
17.501022
21
-48.703382
0
LINE
8
Layer 1
10
17.501022
20
-48.703382
11
17.257367
21
-48.536783
0
LINE
8
Layer 1
10
17.257367
20
-48.536783
11
16.901300
21
-48.650466
0
LINE
8
Layer 1
10
16.901300
20
-48.650466
11
16.707876
21
-48.874061
0
LINE
8
Layer 1
10
16.707876
20
-48.874061
11
16.663175
21
-49.223730
0
LINE
8
Layer 1
10
16.663175
20
-49.223730
11
16.954216
21
-50.061577
0
LINE
8
Layer 1
10
16.954216
20
-50.061577
11
17.492202
21
-50.599563
0
LINE
8
Layer 1
10
17.492202
20
-50.599563
11
18.197758
21
-50.846507
0
LINE
8
Layer 1
10
18.197758
20
-50.846507
11
18.903314
21
-50.652480
0
LINE
8
Layer 1
10
18.903314
20
-50.652480
11
19.365182
21
-50.264391
0
LINE
8
Layer 1
10
19.365182
20
-50.264391
11
19.785258
21
-49.691160
0
LINE
8
Layer 1
10
19.785258
20
-49.691160
11
20.104535
21
-49.025583
0
LINE
8
Layer 1
10
20.104535
20
-49.025583
11
20.252689
21
-48.359424
0
LINE
8
Layer 1
10
20.252689
20
-48.359424
11
20.218254
21
-47.730898
0
LINE
8
Layer 1
10
20.218254
20
-47.730898
11
19.996925
21
-47.177619
0
LINE
8
Layer 1
10
19.996925
20
-47.177619
11
19.543018
21
-46.605843
0
LINE
8
Layer 1
10
19.543018
20
-46.605843
11
19.026786
21
-46.278035
0
LINE
8
Layer 1
10
19.026786
20
-46.278035
11
18.388248
21
-46.168285
0
LINE
8
Layer 1
10
18.388248
20
-46.168285
11
17.562758
21
-46.242757
0
LINE
8
Layer 1
10
17.562758
20
-46.242757
11
15.128591
21
-47.001230
0
LINE
8
Layer 1
10
15.128591
20
-47.001230
11
14.678800
21
-47.054146
0
LINE
8
Layer 1
10
14.678800
20
-47.054146
11
14.655208
21
-46.725339
0
LINE
8
Layer 1
10
14.655208
20
-46.725339
11
14.828730
21
-46.136924
0
LINE
8
Layer 1
10
14.828730
20
-46.136924
11
15.107940
21
-45.548111
0
LINE
8
Layer 1
10
15.107940
20
-45.548111
11
15.401994
21
-45.228521
0
LINE
8
Layer 1
10
15.401994
20
-45.228521
11
15.666577
21
-45.140327
0
LINE
8
Layer 1
10
15.666577
20
-45.140327
11
15.931161
21
-45.290257
0
LINE
8
Layer 1
10
15.931161
20
-45.290257
11
16.223519
21
-45.420089
0
LINE
8
Layer 1
10
16.223519
20
-45.420089
11
16.574980
21
-45.307896
0
LINE
8
Layer 1
10
16.574980
20
-45.307896
11
16.725450
21
-45.054804
0
LINE
8
Layer 1
10
16.725450
20
-45.054804
11
16.583786
21
-44.655257
0
LINE
8
Layer 1
10
16.583786
20
-44.655257
11
16.333309
21
-44.388374
0
LINE
8
Layer 1
10
16.333309
20
-44.388374
11
15.966424
21
-44.223105
0
LINE
8
Layer 1
10
15.966424
20
-44.223105
11
15.754758
21
-44.187827
0
LINE
8
Layer 1
10
15.754758
20
-44.187827
11
15.596008
21
-44.187827
0
LINE
8
Layer 1
10
15.596008
20
-44.187827
11
15.596022
21
-44.187841
0
LINE
8
Layer 1
10
73.407479
20
-45.784160
11
73.096125
21
-45.957897
0
LINE
8
Layer 1
10
73.096125
20
-45.957897
11
73.016668
21
-46.440752
0
LINE
8
Layer 1
10
73.016668
20
-46.440752
11
73.165690
21
-47.175189
0
LINE
8
Layer 1
10
73.165690
20
-47.175189
11
73.539771
21
-48.103674
0
LINE
8
Layer 1
10
73.539771
20
-48.103674
11
74.245326
21
-49.938119
0
LINE
8
Layer 1
10
74.245326
20
-49.938119
11
75.091993
21
-51.993049
0
LINE
8
Layer 1
10
75.091993
20
-51.993049
11
75.938659
21
-54.136174
0
LINE
8
Layer 1
10
75.938659
20
-54.136174
11
76.467826
21
-55.626660
0
LINE
8
Layer 1
10
76.467826
20
-55.626660
11
77.473243
21
-57.778605
0
LINE
8
Layer 1
10
77.473243
20
-57.778605
11
78.346368
21
-59.657147
0
LINE
8
Layer 1
10
78.346368
20
-59.657147
11
78.760882
21
-60.935966
0
LINE
8
Layer 1
10
78.760882
20
-60.935966
11
78.879930
21
-61.480989
0
LINE
8
Layer 1
10
78.879930
20
-61.480989
11
79.166576
21
-62.047216
0
LINE
8
Layer 1
10
79.166576
20
-62.047216
11
79.430226
21
-62.709515
0
LINE
8
Layer 1
10
79.430226
20
-62.709515
11
79.219493
21
-63.652355
0
LINE
8
Layer 1
10
79.219493
20
-63.652355
11
78.655048
21
-64.887077
0
LINE
8
Layer 1
10
78.655048
20
-64.887077
11
77.879024
21
-66.397408
0
LINE
8
Layer 1
10
77.879024
20
-66.397408
11
77.349771
21
-68.000341
0
LINE
8
Layer 1
10
77.349771
20
-68.000341
11
77.483020
21
-68.353400
0
LINE
8
Layer 1
10
77.483020
20
-68.353400
11
77.874141
21
-68.070158
0
LINE
8
Layer 1
10
77.874141
20
-68.070158
11
79.378243
21
-65.663188
0
LINE
8
Layer 1
10
79.378243
20
-65.663188
11
80.471414
21
-63.415335
0
LINE
8
Layer 1
10
80.471414
20
-63.415335
11
80.640032
21
-62.710668
0
LINE
8
Layer 1
10
80.640032
20
-62.710668
11
80.630604
21
-62.064855
0
LINE
8
Layer 1
10
80.630604
20
-62.064855
11
80.405276
21
-61.154647
0
LINE
8
Layer 1
10
80.405276
20
-61.154647
11
80.048521
21
-60.486174
0
LINE
8
Layer 1
10
80.048521
20
-60.486174
11
79.735789
21
-60.003054
0
LINE
8
Layer 1
10
79.735789
20
-60.003054
11
79.607548
21
-59.533674
0
LINE
8
Layer 1
10
79.607548
20
-59.533674
11
78.593312
21
-56.870202
0
LINE
8
Layer 1
10
78.593312
20
-56.870202
11
77.358590
21
-54.109716
0
LINE
8
Layer 1
10
77.358590
20
-54.109716
11
75.532965
21
-49.955758
0
LINE
8
Layer 1
10
75.532965
20
-49.955758
11
74.527548
21
-47.406938
0
LINE
8
Layer 1
10
74.527548
20
-47.406938
11
74.086365
21
-46.422496
0
LINE
8
Layer 1
10
74.086365
20
-46.422496
11
73.716198
21
-45.972824
0
LINE
8
Layer 1
10
73.716198
20
-45.972824
11
73.407479
21
-45.784160
0
LINE
8
Layer 1
10
73.407479
20
-45.784160
11
73.407479
21
-45.784160
0
LINE
8
Layer 1
10
115.317479
20
-45.995827
11
115.255743
21
-46.004632
0
LINE
8
Layer 1
10
115.255743
20
-46.004632
11
115.120723
21
-46.289671
0
LINE
8
Layer 1
10
115.120723
20
-46.289671
11
115.126268
21
-46.847399
0
LINE
8
Layer 1
10
115.126268
20
-46.847399
11
115.249467
21
-47.464404
0
LINE
8
Layer 1
10
115.249467
20
-47.464404
11
115.467409
21
-47.927271
0
LINE
8
Layer 1
10
115.467409
20
-47.927271
11
115.820187
21
-49.056160
0
LINE
8
Layer 1
10
115.820187
20
-49.056160
11
116.446368
21
-50.864146
0
LINE
8
Layer 1
10
116.446368
20
-50.864146
11
116.904979
21
-52.204702
0
LINE
8
Layer 1
10
116.904979
20
-52.204702
11
117.022987
21
-52.453851
0
LINE
8
Layer 1
10
117.022987
20
-52.453851
11
117.407687
21
-52.557480
0
LINE
8
Layer 1
10
117.407687
20
-52.557480
11
117.817697
21
-52.474577
0
LINE
8
Layer 1
10
117.817697
20
-52.474577
11
117.989771
21
-52.275257
0
LINE
8
Layer 1
10
117.989771
20
-52.275257
11
117.760465
21
-51.993035
0
LINE
8
Layer 1
10
117.760465
20
-51.993035
11
117.501396
21
-51.557796
0
LINE
8
Layer 1
10
117.501396
20
-51.557796
11
117.196021
21
-50.511369
0
LINE
8
Layer 1
10
117.196021
20
-50.511369
11
116.755048
21
-48.747480
0
LINE
8
Layer 1
10
116.755048
20
-48.747480
11
115.936949
21
-46.754911
0
LINE
8
Layer 1
10
115.936949
20
-46.754911
11
115.593644
21
-46.203603
0
LINE
8
Layer 1
10
115.593644
20
-46.203603
11
115.317479
21
-45.995813
0
LINE
8
Layer 1
10
115.317479
20
-45.995813
11
115.317479
21
-45.995827
0
LINE
8
Layer 1
10
112.230673
20
-46.128119
11
112.080743
21
-46.145758
0
LINE
8
Layer 1
10
112.080743
20
-46.145758
11
111.472201
21
-46.445619
0
LINE
8
Layer 1
10
111.472201
20
-46.445619
11
111.022409
21
-47.159994
0
LINE
8
Layer 1
10
111.022409
20
-47.159994
11
110.987132
21
-46.957147
0
LINE
8
Layer 1
10
110.987132
20
-46.957147
11
110.951854
21
-46.719022
0
LINE
8
Layer 1
10
110.951854
20
-46.719022
11
110.793104
21
-46.542633
0
LINE
8
Layer 1
10
110.793104
20
-46.542633
11
110.457965
21
-46.516188
0
LINE
8
Layer 1
10
110.457965
20
-46.516188
11
110.114007
21
-46.719036
0
LINE
8
Layer 1
10
110.114007
20
-46.719036
11
110.087562
21
-47.204105
0
LINE
8
Layer 1
10
110.087562
20
-47.204105
11
110.369785
21
-48.121327
0
LINE
8
Layer 1
10
110.369785
20
-48.121327
11
110.546174
21
-48.685772
0
LINE
8
Layer 1
10
110.546174
20
-48.685772
11
110.784299
21
-49.470702
0
LINE
8
Layer 1
10
110.784299
20
-49.470702
11
111.022424
21
-50.105702
0
LINE
8
Layer 1
10
111.022424
20
-50.105702
11
111.234090
21
-50.229175
0
LINE
8
Layer 1
10
111.234090
20
-50.229175
11
111.551590
21
-50.246813
0
LINE
8
Layer 1
10
111.551590
20
-50.246813
11
111.842632
21
-50.105702
0
LINE
8
Layer 1
10
111.842632
20
-50.105702
11
111.966104
21
-49.867577
0
LINE
8
Layer 1
10
111.966104
20
-49.867577
11
111.816174
21
-49.488341
0
LINE
8
Layer 1
10
111.816174
20
-49.488341
11
111.472215
21
-48.579938
0
LINE
8
Layer 1
10
111.472215
20
-48.579938
11
111.216451
21
-47.750911
0
LINE
8
Layer 1
10
111.216451
20
-47.750911
11
111.566151
21
-47.160959
0
LINE
8
Layer 1
10
111.566151
20
-47.160959
11
111.824993
21
-46.939522
0
LINE
8
Layer 1
10
111.824993
20
-46.939522
11
112.010201
21
-46.983619
0
LINE
8
Layer 1
10
112.010201
20
-46.983619
11
112.151312
21
-47.265841
0
LINE
8
Layer 1
10
112.151312
20
-47.265841
11
112.304851
21
-47.400356
0
LINE
8
Layer 1
10
112.304851
20
-47.400356
11
112.627562
21
-47.398133
0
LINE
8
Layer 1
10
112.627562
20
-47.398133
11
112.821590
21
-47.221744
0
LINE
8
Layer 1
10
112.821590
20
-47.221744
11
112.883326
21
-46.930702
0
LINE
8
Layer 1
10
112.883326
20
-46.930702
11
112.649518
21
-46.333926
0
LINE
8
Layer 1
10
112.649518
20
-46.333926
11
112.230687
21
-46.128133
0
LINE
8
Layer 1
10
112.230687
20
-46.128133
11
112.230673
21
-46.128119
0
LINE
8
Layer 1
10
99.416021
20
-46.154563
11
99.239632
21
-46.163368
0
LINE
8
Layer 1
10
99.239632
20
-46.163368
11
98.834720
21
-46.436370
0
LINE
8
Layer 1
10
98.834720
20
-46.436370
11
98.789840
21
-47.045313
0
LINE
8
Layer 1
10
98.789840
20
-47.045313
11
99.345465
21
-48.879757
0
LINE
8
Layer 1
10
99.345465
20
-48.879757
11
99.715882
21
-50.008646
0
LINE
8
Layer 1
10
99.715882
20
-50.008646
11
100.103937
21
-51.340382
0
LINE
8
Layer 1
10
100.103937
20
-51.340382
11
100.262687
21
-51.860729
0
LINE
8
Layer 1
10
100.262687
20
-51.860729
11
100.474354
21
-52.054757
0
LINE
8
Layer 1
10
100.474354
20
-52.054757
11
100.897687
21
-52.063563
0
LINE
8
Layer 1
10
100.897687
20
-52.063563
11
101.215187
21
-51.895993
0
LINE
8
Layer 1
10
101.215187
20
-51.895993
11
101.285743
21
-51.587313
0
LINE
8
Layer 1
10
101.285743
20
-51.587313
11
101.074076
21
-50.987590
0
LINE
8
Layer 1
10
101.074076
20
-50.987590
11
100.668382
21
-49.841063
0
LINE
8
Layer 1
10
100.668382
20
-49.841063
11
100.333243
21
-48.782729
0
LINE
8
Layer 1
10
100.333243
20
-48.782729
11
99.936368
21
-47.486271
0
LINE
8
Layer 1
10
99.936368
20
-47.486271
11
99.830534
21
-46.745438
0
LINE
8
Layer 1
10
99.830534
20
-46.745438
11
99.786437
21
-46.410299
0
LINE
8
Layer 1
10
99.786437
20
-46.410299
11
99.592409
21
-46.180993
0
LINE
8
Layer 1
10
99.592409
20
-46.180993
11
99.416021
21
-46.154549
0
LINE
8
Layer 1
10
99.416021
20
-46.154549
11
99.416021
21
-46.154563
0
LINE
8
Layer 1
10
107.759215
20
-46.727827
11
107.371159
21
-46.763105
0
LINE
8
Layer 1
10
107.371159
20
-46.763105
11
107.106576
21
-47.089424
0
LINE
8
Layer 1
10
107.106576
20
-47.089424
11
106.939007
21
-47.821438
0
LINE
8
Layer 1
10
106.939007
20
-47.821438
11
106.991923
21
-48.694563
0
LINE
8
Layer 1
10
106.991923
20
-48.694563
11
106.753798
21
-48.915049
0
LINE
8
Layer 1
10
106.753798
20
-48.915049
11
106.744993
21
-49.170813
0
LINE
8
Layer 1
10
106.744993
20
-49.170813
11
106.824368
21
-49.320744
0
LINE
8
Layer 1
10
106.824368
20
-49.320744
11
106.947840
21
-49.382480
0
LINE
8
Layer 1
10
106.947840
20
-49.382480
11
107.115410
21
-49.320744
0
LINE
8
Layer 1
10
107.115410
20
-49.320744
11
107.141854
21
-49.470674
0
LINE
8
Layer 1
10
107.141854
20
-49.470674
11
107.565187
21
-50.405535
0
LINE
8
Layer 1
10
107.565187
20
-50.405535
11
107.898129
21
-50.683748
0
LINE
8
Layer 1
10
107.898129
20
-50.683748
11
108.253104
21
-50.731855
0
LINE
8
Layer 1
10
108.253104
20
-50.731855
11
109.099771
21
-49.946924
0
LINE
8
Layer 1
10
109.099771
20
-49.946924
11
109.205604
21
-49.823452
0
LINE
8
Layer 1
10
109.205604
20
-49.823452
11
109.779960
21
-49.120783
0
LINE
8
Layer 1
10
109.779960
20
-49.120783
11
109.937618
21
-48.703382
0
LINE
8
Layer 1
10
109.937618
20
-48.703382
11
109.829861
21
-48.518678
0
LINE
8
Layer 1
10
109.829861
20
-48.518678
11
109.593659
21
-48.491716
0
LINE
8
Layer 1
10
109.593659
20
-48.491716
11
109.373173
21
-48.624007
0
LINE
8
Layer 1
10
109.373173
20
-48.624007
11
108.949840
21
-49.214910
0
LINE
8
Layer 1
10
108.949840
20
-49.214910
11
108.376576
21
-49.832271
0
LINE
8
Layer 1
10
108.376576
20
-49.832271
11
108.138451
21
-49.647063
0
LINE
8
Layer 1
10
108.138451
20
-49.647063
11
107.962062
21
-49.144355
0
LINE
8
Layer 1
10
107.962062
20
-49.144355
11
107.926784
21
-48.941507
0
LINE
8
Layer 1
10
107.926784
20
-48.941507
11
108.464771
21
-48.474077
0
LINE
8
Layer 1
10
108.464771
20
-48.474077
11
109.046854
21
-47.971369
0
LINE
8
Layer 1
10
109.046854
20
-47.971369
11
109.152687
21
-47.750882
0
LINE
8
Layer 1
10
109.152687
20
-47.750882
11
109.143882
21
-47.415744
0
LINE
8
Layer 1
10
109.143882
20
-47.415744
11
108.817562
21
-47.036507
0
LINE
8
Layer 1
10
108.817562
20
-47.036507
11
108.147285
21
-46.763105
0
LINE
8
Layer 1
10
108.147285
20
-46.763105
11
107.759229
21
-46.727827
0
LINE
8
Layer 1
10
107.759229
20
-46.727827
11
107.759215
21
-46.727827
0
LINE
8
Layer 1
10
101.797271
20
-46.789563
11
101.559146
21
-46.807202
0
LINE
8
Layer 1
10
101.559146
20
-46.807202
11
101.241646
21
-47.001230
0
LINE
8
Layer 1
10
101.241646
20
-47.001230
11
101.135812
21
-47.309910
0
LINE
8
Layer 1
10
101.135812
20
-47.309910
11
101.298264
21
-47.537503
0
LINE
8
Layer 1
10
101.298264
20
-47.537503
11
101.664979
21
-47.556855
0
LINE
8
Layer 1
10
101.664979
20
-47.556855
11
102.072240
21
-47.381303
0
LINE
8
Layer 1
10
102.072240
20
-47.381303
11
102.158868
21
-47.054146
0
LINE
8
Layer 1
10
102.158868
20
-47.054146
11
102.045871
21
-46.859609
0
LINE
8
Layer 1
10
102.045871
20
-46.859609
11
101.797271
21
-46.789563
0
LINE
8
Layer 1
10
101.797271
20
-46.789563
11
101.797271
21
-46.789563
0
LINE
8
Layer 1
10
105.757201
20
-47.265813
11
105.660187
21
-47.274618
0
LINE
8
Layer 1
10
105.660187
20
-47.274618
11
105.435256
21
-47.434716
0
LINE
8
Layer 1
10
105.435256
20
-47.434716
11
105.342687
21
-47.812604
0
LINE
8
Layer 1
10
105.342687
20
-47.812604
11
105.007548
21
-50.017466
0
LINE
8
Layer 1
10
105.007548
20
-50.017466
11
104.522479
21
-49.232535
0
LINE
8
Layer 1
10
104.522479
20
-49.232535
11
104.134423
21
-48.447604
0
LINE
8
Layer 1
10
104.134423
20
-48.447604
11
103.825743
21
-47.839063
0
LINE
8
Layer 1
10
103.825743
20
-47.839063
11
103.393590
21
-47.697952
0
LINE
8
Layer 1
10
103.393590
20
-47.697952
11
103.040812
21
-47.883160
0
LINE
8
Layer 1
10
103.040812
20
-47.883160
11
102.961437
21
-48.209479
0
LINE
8
Layer 1
10
102.961437
20
-48.209479
11
104.275534
21
-50.431979
0
LINE
8
Layer 1
10
104.275534
20
-50.431979
11
104.619493
21
-50.952327
0
LINE
8
Layer 1
10
104.619493
20
-50.952327
11
104.884076
21
-51.243368
0
LINE
8
Layer 1
10
104.884076
20
-51.243368
11
105.183937
21
-51.331563
0
LINE
8
Layer 1
10
105.183937
20
-51.331563
11
105.386784
21
-51.208091
0
LINE
8
Layer 1
10
105.386784
20
-51.208091
11
105.492618
21
-50.952327
0
LINE
8
Layer 1
10
105.492618
20
-50.952327
11
105.704284
21
-49.788160
0
LINE
8
Layer 1
10
105.704284
20
-49.788160
11
106.039423
21
-48.421146
0
LINE
8
Layer 1
10
106.039423
20
-48.421146
11
106.189354
21
-47.609757
0
LINE
8
Layer 1
10
106.189354
20
-47.609757
11
106.012965
21
-47.327535
0
LINE
8
Layer 1
10
106.012965
20
-47.327535
11
105.757201
21
-47.265799
0
LINE
8
Layer 1
10
105.757201
20
-47.265799
11
105.757201
21
-47.265813
0
LINE
8
Layer 1
10
107.882687
20
-47.433382
11
108.217826
21
-47.521577
0
LINE
8
Layer 1
10
108.217826
20
-47.521577
11
108.403034
21
-47.786160
0
LINE
8
Layer 1
10
108.403034
20
-47.786160
11
108.023798
21
-48.068382
0
LINE
8
Layer 1
10
108.023798
20
-48.068382
11
107.776854
21
-48.244771
0
LINE
8
Layer 1
10
107.776854
20
-48.244771
11
107.776854
21
-47.750882
0
LINE
8
Layer 1
10
107.776854
20
-47.750882
11
107.882687
21
-47.433382
0
LINE
8
Layer 1
10
107.882687
20
-47.433382
11
107.882687
21
-47.433382
0
LINE
8
Layer 1
10
56.041993
20
-47.786160
11
56.687154
21
-47.898312
0
LINE
8
Layer 1
10
56.687154
20
-47.898312
11
57.232618
21
-48.324146
0
LINE
8
Layer 1
10
57.232618
20
-48.324146
11
57.676332
21
-48.722785
0
LINE
8
Layer 1
10
57.676332
20
-48.722785
11
58.061646
21
-48.888591
0
LINE
8
Layer 1
10
58.061646
20
-48.888591
11
58.619912
21
-49.282982
0
LINE
8
Layer 1
10
58.619912
20
-49.282982
11
59.481576
21
-50.229146
0
LINE
8
Layer 1
10
59.481576
20
-50.229146
11
61.077896
21
-52.134146
0
LINE
8
Layer 1
10
61.077896
20
-52.134146
11
61.734693
21
-53.031847
0
LINE
8
Layer 1
10
61.734693
20
-53.031847
11
62.136250
21
-54.170414
0
LINE
8
Layer 1
10
62.136250
20
-54.170414
11
62.337155
21
-55.809996
0
LINE
8
Layer 1
10
62.337155
20
-55.809996
11
62.391993
21
-58.210744
0
LINE
8
Layer 1
10
62.391993
20
-58.210744
11
62.275140
21
-61.572163
0
LINE
8
Layer 1
10
62.275140
20
-61.572163
11
62.052174
21
-62.513002
0
LINE
8
Layer 1
10
62.052174
20
-62.513002
11
61.651159
21
-63.458313
0
LINE
8
Layer 1
10
61.651159
20
-63.458313
11
61.016065
21
-64.603437
0
LINE
8
Layer 1
10
61.016065
20
-64.603437
11
60.522271
21
-65.169285
0
LINE
8
Layer 1
10
60.522271
20
-65.169285
11
60.247151
21
-65.497849
0
LINE
8
Layer 1
10
60.247151
20
-65.497849
11
60.134215
21
-66.077688
0
LINE
8
Layer 1
10
60.134215
20
-66.077688
11
60.046253
21
-66.701641
0
LINE
8
Layer 1
10
60.046253
20
-66.701641
11
59.834354
21
-67.136021
0
LINE
8
Layer 1
10
59.834354
20
-67.136021
11
59.747740
21
-67.706767
0
LINE
8
Layer 1
10
59.747740
20
-67.706767
11
59.929779
21
-68.761563
0
LINE
8
Layer 1
10
59.929779
20
-68.761563
11
60.317665
21
-70.039873
0
LINE
8
Layer 1
10
60.317665
20
-70.039873
11
60.848590
21
-71.281160
0
LINE
8
Layer 1
10
60.848590
20
-71.281160
11
61.263104
21
-72.454146
0
LINE
8
Layer 1
10
61.263104
20
-72.454146
11
61.474771
21
-72.921577
0
LINE
8
Layer 1
10
61.474771
20
-72.921577
11
62.321437
21
-74.367966
0
LINE
8
Layer 1
10
62.321437
20
-74.367966
11
62.826049
21
-75.919389
0
LINE
8
Layer 1
10
62.826049
20
-75.919389
11
62.956437
21
-78.054494
0
LINE
8
Layer 1
10
62.956437
20
-78.054494
11
62.846127
21
-79.838430
0
LINE
8
Layer 1
10
62.846127
20
-79.838430
11
62.452816
21
-81.374721
0
LINE
8
Layer 1
10
62.452816
20
-81.374721
11
61.682929
21
-82.913363
0
LINE
8
Layer 1
10
61.682929
20
-82.913363
11
60.442896
21
-84.704355
0
LINE
8
Layer 1
10
60.442896
20
-84.704355
11
59.128798
21
-86.750466
0
LINE
8
Layer 1
10
59.128798
20
-86.750466
11
58.758382
21
-87.270813
0
LINE
8
Layer 1
10
58.758382
20
-87.270813
11
58.440943
21
-87.522205
0
LINE
8
Layer 1
10
58.440943
20
-87.522205
11
58.063075
21
-88.156532
0
LINE
8
Layer 1
10
58.063075
20
-88.156532
11
57.479562
21
-89.854910
0
LINE
8
Layer 1
10
57.479562
20
-89.854910
11
57.232324
21
-90.678417
0
LINE
8
Layer 1
10
57.232324
20
-90.678417
11
56.897479
21
-91.213105
0
LINE
8
Layer 1
10
56.897479
20
-91.213105
11
55.892062
21
-92.721230
0
LINE
8
Layer 1
10
55.892062
20
-92.721230
11
54.489771
21
-94.749702
0
LINE
8
Layer 1
10
54.489771
20
-94.749702
11
53.016923
21
-96.619424
0
LINE
8
Layer 1
10
53.016923
20
-96.619424
11
52.095317
21
-97.738407
0
LINE
8
Layer 1
10
52.095317
20
-97.738407
11
50.871196
21
-98.928065
0
LINE
8
Layer 1
10
50.871196
20
-98.928065
11
49.692474
21
-99.878419
0
LINE
8
Layer 1
10
49.692474
20
-99.878419
11
48.907062
21
-100.279494
0
LINE
8
Layer 1
10
48.907062
20
-100.279494
11
46.584795
21
-100.488979
0
LINE
8
Layer 1
10
46.584795
20
-100.488979
11
45.202896
21
-100.791021
0
LINE
8
Layer 1
10
45.202896
20
-100.791021
11
44.427847
21
-100.886472
0
LINE
8
Layer 1
10
44.427847
20
-100.886472
11
43.200882
21
-100.782216
0
LINE
8
Layer 1
10
43.200882
20
-100.782216
11
39.276229
21
-100.394160
0
LINE
8
Layer 1
10
39.276229
20
-100.394160
11
37.158317
21
-100.134489
0
LINE
8
Layer 1
10
37.158317
20
-100.134489
11
35.748451
21
-99.556313
0
LINE
8
Layer 1
10
35.748451
20
-99.556313
11
33.605326
21
-98.356869
0
LINE
8
Layer 1
10
33.605326
20
-98.356869
11
32.714111
21
-97.773224
0
LINE
8
Layer 1
10
32.714111
20
-97.773224
11
31.956090
21
-97.078049
0
LINE
8
Layer 1
10
31.956090
20
-97.078049
11
31.369840
21
-96.529921
0
LINE
8
Layer 1
10
31.369840
20
-96.529921
11
30.888937
21
-96.301938
0
LINE
8
Layer 1
10
30.888937
20
-96.301938
11
30.535809
21
-96.434323
0
LINE
8
Layer 1
10
30.535809
20
-96.434323
11
30.318713
21
-96.755653
0
LINE
8
Layer 1
10
30.318713
20
-96.755653
11
30.278690
21
-97.152192
0
LINE
8
Layer 1
10
30.278690
20
-97.152192
11
30.456784
21
-97.510202
0
LINE
8
Layer 1
10
30.456784
20
-97.510202
11
30.783104
21
-98.295133
0
LINE
8
Layer 1
10
30.783104
20
-98.295133
11
31.304355
21
-99.123460
0
LINE
8
Layer 1
10
31.304355
20
-99.123460
11
32.532498
21
-100.314049
0
LINE
8
Layer 1
10
32.532498
20
-100.314049
11
33.964122
21
-101.430041
0
LINE
8
Layer 1
10
33.964122
20
-101.430041
11
35.095812
21
-102.034577
0
LINE
8
Layer 1
10
35.095812
20
-102.034577
11
38.193492
21
-102.754867
0
LINE
8
Layer 1
10
38.193492
20
-102.754867
11
40.604924
21
-103.152854
0
LINE
8
Layer 1
10
40.604924
20
-103.152854
11
42.834873
21
-103.287153
0
LINE
8
Layer 1
10
42.834873
20
-103.287153
11
45.388104
21
-103.216383
0
LINE
8
Layer 1
10
45.388104
20
-103.216383
11
48.845326
21
-103.031174
0
LINE
8
Layer 1
10
48.845326
20
-103.031174
11
48.845326
21
-103.851383
0
LINE
8
Layer 1
10
48.845326
20
-103.851383
11
48.796673
21
-104.287920
0
LINE
8
Layer 1
10
48.796673
20
-104.287920
11
48.615630
21
-104.633236
0
LINE
8
Layer 1
10
48.615630
20
-104.633236
11
47.645882
21
-105.306591
0
LINE
8
Layer 1
10
47.645882
20
-105.306591
11
46.098393
21
-105.840112
0
LINE
8
Layer 1
10
46.098393
20
-105.840112
11
43.483104
21
-106.056244
0
LINE
8
Layer 1
10
43.483104
20
-106.056244
11
40.096437
21
-106.012147
0
LINE
8
Layer 1
10
40.096437
20
-106.012147
11
39.108659
21
-105.632910
0
LINE
8
Layer 1
10
39.108659
20
-105.632910
11
35.439771
21
-104.380549
0
LINE
8
Layer 1
10
35.439771
20
-104.380549
11
33.978422
21
-103.781609
0
LINE
8
Layer 1
10
33.978422
20
-103.781609
11
32.053104
21
-102.793049
0
LINE
8
Layer 1
10
32.053104
20
-102.793049
11
29.301437
21
-101.320202
0
LINE
8
Layer 1
10
29.301437
20
-101.320202
11
28.951779
21
-101.060622
0
LINE
8
Layer 1
10
28.951779
20
-101.060622
11
28.807548
21
-100.720480
0
LINE
8
Layer 1
10
28.807548
20
-100.720480
11
28.683194
21
-100.336055
0
LINE
8
Layer 1
10
28.683194
20
-100.336055
11
28.384215
21
-99.970827
0
LINE
8
Layer 1
10
28.384215
20
-99.970827
11
28.085237
21
-99.530614
0
LINE
8
Layer 1
10
28.085237
20
-99.530614
11
27.960883
21
-98.965410
0
LINE
8
Layer 1
10
27.960883
20
-98.965410
11
27.888556
21
-98.456368
0
LINE
8
Layer 1
10
27.888556
20
-98.456368
11
27.713939
21
-98.154022
0
LINE
8
Layer 1
10
27.713939
20
-98.154022
11
27.483112
21
-97.530235
0
LINE
8
Layer 1
10
27.483112
20
-97.530235
11
27.281786
21
-96.240202
0
LINE
8
Layer 1
10
27.281786
20
-96.240202
11
27.017202
21
-93.761938
0
LINE
8
Layer 1
10
27.017202
20
-93.761938
11
26.376465
21
-91.444614
0
LINE
8
Layer 1
10
26.376465
20
-91.444614
11
25.922756
21
-90.385540
0
LINE
8
Layer 1
10
25.922756
20
-90.385540
11
25.526716
21
-89.784369
0
LINE
8
Layer 1
10
25.526716
20
-89.784369
11
24.683683
21
-89.511613
0
LINE
8
Layer 1
10
24.683683
20
-89.511613
11
23.260119
21
-89.352216
0
LINE
8
Layer 1
10
23.260119
20
-89.352216
11
21.878905
21
-89.198066
0
LINE
8
Layer 1
10
21.878905
20
-89.198066
11
20.746466
21
-88.807612
0
LINE
8
Layer 1
10
20.746466
20
-88.807612
11
19.671408
21
-88.085327
0
LINE
8
Layer 1
10
19.671408
20
-88.085327
11
18.462341
21
-86.935688
0
LINE
8
Layer 1
10
18.462341
20
-86.935688
11
17.815450
21
-86.213111
0
LINE
8
Layer 1
10
17.815450
20
-86.213111
11
17.431361
21
-85.571804
0
LINE
8
Layer 1
10
17.431361
20
-85.571804
11
17.205574
21
-84.761362
0
LINE
8
Layer 1
10
17.205574
20
-84.761362
11
17.033591
21
-83.531383
0
LINE
8
Layer 1
10
17.033591
20
-83.531383
11
16.903775
21
-81.900397
0
LINE
8
Layer 1
10
16.903775
20
-81.900397
11
16.954216
21
-81.053119
0
LINE
8
Layer 1
10
16.954216
20
-81.053119
11
17.166342
21
-81.074284
0
LINE
8
Layer 1
10
17.166342
20
-81.074284
11
17.448513
21
-81.468555
0
LINE
8
Layer 1
10
17.448513
20
-81.468555
11
17.800883
21
-82.605341
0
LINE
8
Layer 1
10
17.800883
20
-82.605341
11
18.042809
21
-82.914102
0
LINE
8
Layer 1
10
18.042809
20
-82.914102
11
18.609913
21
-83.158638
0
LINE
8
Layer 1
10
18.609913
20
-83.158638
11
19.264186
21
-83.269842
0
LINE
8
Layer 1
10
19.264186
20
-83.269842
11
19.767619
21
-83.178605
0
LINE
8
Layer 1
10
19.767619
20
-83.178605
11
20.008611
21
-82.786474
0
LINE
8
Layer 1
10
20.008611
20
-82.786474
11
20.033555
21
-82.139994
0
LINE
8
Layer 1
10
20.033555
20
-82.139994
11
19.857181
21
-81.377819
0
LINE
8
Layer 1
10
19.857181
20
-81.377819
11
19.494216
21
-80.638605
0
LINE
8
Layer 1
10
19.494216
20
-80.638605
11
19.096768
21
-79.897928
0
LINE
8
Layer 1
10
19.096768
20
-79.897928
11
18.929772
21
-79.306869
0
LINE
8
Layer 1
10
18.929772
20
-79.306869
11
18.768830
21
-78.879410
0
LINE
8
Layer 1
10
18.768830
20
-78.879410
11
18.382966
21
-78.530758
0
LINE
8
Layer 1
10
18.382966
20
-78.530758
11
17.996200
21
-78.387987
0
LINE
8
Layer 1
10
17.996200
20
-78.387987
11
17.715103
21
-78.484989
0
LINE
8
Layer 1
10
17.715103
20
-78.484989
11
17.245258
21
-79.606730
0
LINE
8
Layer 1
10
17.245258
20
-79.606730
11
17.135899
21
-79.892071
0
LINE
8
Layer 1
10
17.135899
20
-79.892071
11
17.051725
21
-79.838516
0
LINE
8
Layer 1
10
17.051725
20
-79.838516
11
16.918939
21
-78.583674
0
LINE
8
Layer 1
10
16.918939
20
-78.583674
11
16.813105
21
-76.810966
0
LINE
8
Layer 1
10
16.813105
20
-76.810966
11
17.659772
21
-76.978535
0
LINE
8
Layer 1
10
17.659772
20
-76.978535
11
18.513499
21
-77.381747
0
LINE
8
Layer 1
10
18.513499
20
-77.381747
11
19.379564
21
-78.116244
0
LINE
8
Layer 1
10
19.379564
20
-78.116244
11
20.434908
21
-79.017874
0
LINE
8
Layer 1
10
20.434908
20
-79.017874
11
20.782047
21
-79.041037
0
LINE
8
Layer 1
10
20.782047
20
-79.041037
11
21.046439
21
-78.795341
0
LINE
8
Layer 1
10
21.046439
20
-78.795341
11
21.078908
21
-78.469035
0
LINE
8
Layer 1
10
21.078908
20
-78.469035
11
20.902668
21
-78.003889
0
LINE
8
Layer 1
10
20.902668
20
-78.003889
11
20.077240
21
-76.835212
0
LINE
8
Layer 1
10
20.077240
20
-76.835212
11
18.876516
21
-75.645593
0
LINE
8
Layer 1
10
18.876516
20
-75.645593
11
17.606855
21
-74.791313
0
LINE
8
Layer 1
10
17.606855
20
-74.791313
11
16.950744
21
-74.600140
0
LINE
8
Layer 1
10
16.950744
20
-74.600140
11
16.468280
21
-74.702484
0
LINE
8
Layer 1
10
16.468280
20
-74.702484
11
16.195712
21
-75.076343
0
LINE
8
Layer 1
10
16.195712
20
-75.076343
11
16.169286
21
-75.699716
0
LINE
8
Layer 1
10
16.169286
20
-75.699716
11
16.202558
21
-76.320101
0
LINE
8
Layer 1
10
16.202558
20
-76.320101
11
16.036339
21
-76.488422
0
LINE
8
Layer 1
10
16.036339
20
-76.488422
11
15.643348
21
-76.198449
0
LINE
8
Layer 1
10
15.643348
20
-76.198449
11
14.996300
21
-75.443952
0
LINE
8
Layer 1
10
14.996300
20
-75.443952
11
14.422568
21
-74.503686
0
LINE
8
Layer 1
10
14.422568
20
-74.503686
11
14.143720
21
-73.586134
0
LINE
8
Layer 1
10
14.143720
20
-73.586134
11
14.180918
21
-72.841224
0
LINE
8
Layer 1
10
14.180918
20
-72.841224
11
14.555327
21
-72.418883
0
LINE
8
Layer 1
10
14.555327
20
-72.418883
11
14.854308
21
-72.191011
0
LINE
8
Layer 1
10
14.854308
20
-72.191011
11
14.978661
21
-71.872077
0
LINE
8
Layer 1
10
14.978661
20
-71.872077
11
15.140706
21
-71.511039
0
LINE
8
Layer 1
10
15.140706
20
-71.511039
11
15.534286
21
-71.184160
0
LINE
8
Layer 1
10
15.534286
20
-71.184160
11
15.868502
21
-71.074145
0
LINE
8
Layer 1
10
15.868502
20
-71.074145
11
16.215606
21
-71.157895
0
LINE
8
Layer 1
10
16.215606
20
-71.157895
11
17.306994
21
-72.092563
0
LINE
8
Layer 1
10
17.306994
20
-72.092563
11
20.129216
21
-74.817772
0
LINE
8
Layer 1
10
20.129216
20
-74.817772
11
21.412706
21
-76.117617
0
LINE
8
Layer 1
10
21.412706
20
-76.117617
11
22.219425
21
-77.119647
0
LINE
8
Layer 1
10
22.219425
20
-77.119647
11
22.750356
21
-77.822516
0
LINE
8
Layer 1
10
22.750356
20
-77.822516
11
23.337595
21
-78.257677
0
LINE
8
Layer 1
10
23.337595
20
-78.257677
11
23.945628
21
-78.408250
0
LINE
8
Layer 1
10
23.945628
20
-78.408250
11
24.538939
21
-78.257355
0
LINE
8
Layer 1
10
24.538939
20
-78.257355
11
24.963509
21
-77.935054
0
LINE
8
Layer 1
10
24.963509
20
-77.935054
11
25.110859
21
-77.568485
0
LINE
8
Layer 1
10
25.110859
20
-77.568485
11
24.981069
21
-77.153885
0
LINE
8
Layer 1
10
24.981069
20
-77.153885
11
24.574216
21
-76.687494
0
LINE
8
Layer 1
10
24.574216
20
-76.687494
11
24.175577
21
-76.228073
0
LINE
8
Layer 1
10
24.175577
20
-76.228073
11
24.009772
21
-75.840827
0
LINE
8
Layer 1
10
24.009772
20
-75.840827
11
23.843966
21
-75.453581
0
LINE
8
Layer 1
10
23.843966
20
-75.453581
11
23.445327
21
-74.994160
0
LINE
8
Layer 1
10
23.445327
20
-74.994160
11
23.046689
21
-74.490773
0
LINE
8
Layer 1
10
23.046689
20
-74.490773
11
22.880883
21
-73.997563
0
LINE
8
Layer 1
10
22.880883
20
-73.997563
11
22.756529
21
-73.550834
0
LINE
8
Layer 1
10
22.756529
20
-73.550834
11
22.457550
21
-73.159716
0
LINE
8
Layer 1
10
22.457550
20
-73.159716
11
22.050542
21
-72.571865
0
LINE
8
Layer 1
10
22.050542
20
-72.571865
11
22.138418
21
-72.383647
0
LINE
8
Layer 1
10
22.138418
20
-72.383647
11
22.422272
21
-72.313049
0
LINE
8
Layer 1
10
22.422272
20
-72.313049
11
22.607276
21
-72.198442
0
LINE
8
Layer 1
10
22.607276
20
-72.198442
11
22.728621
21
-71.813402
0
LINE
8
Layer 1
10
22.728621
20
-71.813402
11
22.827966
21
-69.984716
0
LINE
8
Layer 1
10
22.827966
20
-69.984716
11
22.858743
21
-68.628528
0
LINE
8
Layer 1
10
22.858743
20
-68.628528
11
22.980197
21
-67.835812
0
LINE
8
Layer 1
10
22.980197
20
-67.835812
11
23.290119
21
-67.308363
0
LINE
8
Layer 1
10
23.290119
20
-67.308363
11
23.886300
21
-66.747980
0
LINE
8
Layer 1
10
23.886300
20
-66.747980
11
24.505472
21
-66.088770
0
LINE
8
Layer 1
10
24.505472
20
-66.088770
11
24.744782
21
-65.536246
0
LINE
8
Layer 1
10
24.744782
20
-65.536246
11
24.603358
21
-65.102315
0
LINE
8
Layer 1
10
24.603358
20
-65.102315
11
24.080327
21
-64.798883
0
LINE
8
Layer 1
10
24.080327
20
-64.798883
11
22.291123
21
-63.979685
0
LINE
8
Layer 1
10
22.291123
20
-63.979685
11
20.605466
21
-62.990897
0
LINE
8
Layer 1
10
20.605466
20
-62.990897
11
20.288132
21
-62.708086
0
LINE
8
Layer 1
10
20.288132
20
-62.708086
11
20.169738
21
-62.353530
0
LINE
8
Layer 1
10
20.169738
20
-62.353530
11
20.490814
21
-60.592008
0
LINE
8
Layer 1
10
20.490814
20
-60.592008
11
21.064077
21
-57.796244
0
LINE
8
Layer 1
10
21.064077
20
-57.796244
11
21.246142
21
-57.145997
0
LINE
8
Layer 1
10
21.246142
20
-57.145997
11
21.531508
21
-56.755549
0
LINE
8
Layer 1
10
21.531508
20
-56.755549
11
22.713314
21
-55.855966
0
LINE
8
Layer 1
10
22.713314
20
-55.855966
11
24.265536
21
-54.779994
0
LINE
8
Layer 1
10
24.265536
20
-54.779994
11
30.977132
21
-50.564299
0
LINE
8
Layer 1
10
30.977132
20
-50.564299
11
33.014423
21
-49.206105
0
LINE
8
Layer 1
10
33.014423
20
-49.206105
11
34.928243
21
-49.779369
0
LINE
8
Layer 1
10
34.928243
20
-49.779369
11
38.544215
21
-50.767147
0
LINE
8
Layer 1
10
38.544215
20
-50.767147
11
41.484157
21
-51.608748
0
LINE
8
Layer 1
10
41.484157
20
-51.608748
11
43.721229
21
-52.566313
0
LINE
8
Layer 1
10
43.721229
20
-52.566313
11
44.836648
21
-53.026222
0
LINE
8
Layer 1
10
44.836648
20
-53.026222
11
45.873173
21
-53.271869
0
LINE
8
Layer 1
10
45.873173
20
-53.271869
11
47.143173
21
-53.545272
0
LINE
8
Layer 1
10
47.143173
20
-53.545272
11
47.571111
21
-53.503234
0
LINE
8
Layer 1
10
47.571111
20
-53.503234
11
48.291017
21
-53.187286
0
LINE
8
Layer 1
10
48.291017
20
-53.187286
11
49.771368
21
-52.169438
0
LINE
8
Layer 1
10
49.771368
20
-52.169438
11
54.833729
21
-48.235966
0
LINE
8
Layer 1
10
54.833729
20
-48.235966
11
55.468567
21
-47.916210
0
LINE
8
Layer 1
10
55.468567
20
-47.916210
11
56.041993
21
-47.786174
0
LINE
8
Layer 1
10
56.041993
20
-47.786174
11
56.041993
21
-47.786160
0
LINE
8
Layer 1
10
102.114771
20
-48.086021
11
101.938382
21
-48.094827
0
LINE
8
Layer 1
10
101.938382
20
-48.094827
11
101.550326
21
-48.306493
0
LINE
8
Layer 1
10
101.550326
20
-48.306493
11
101.444493
21
-48.685729
0
LINE
8
Layer 1
10
101.444493
20
-48.685729
11
101.885465
21
-50.731841
0
LINE
8
Layer 1
10
101.885465
20
-50.731841
11
102.053034
21
-51.472674
0
LINE
8
Layer 1
10
102.053034
20
-51.472674
11
102.229198
21
-51.780279
0
LINE
8
Layer 1
10
102.229198
20
-51.780279
11
102.608659
21
-51.825452
0
LINE
8
Layer 1
10
102.608659
20
-51.825452
11
102.908521
21
-51.622604
0
LINE
8
Layer 1
10
102.908521
20
-51.622604
11
102.979076
21
-51.216910
0
LINE
8
Layer 1
10
102.979076
20
-51.216910
11
102.811507
21
-50.564271
0
LINE
8
Layer 1
10
102.811507
20
-50.564271
11
102.538104
21
-49.532396
0
LINE
8
Layer 1
10
102.538104
20
-49.532396
11
102.441090
21
-48.738646
0
LINE
8
Layer 1
10
102.441090
20
-48.738646
11
102.396993
21
-48.368229
0
LINE
8
Layer 1
10
102.396993
20
-48.368229
11
102.302935
21
-48.168572
0
LINE
8
Layer 1
10
102.302935
20
-48.168572
11
102.114771
21
-48.086007
0
LINE
8
Layer 1
10
102.114771
20
-48.086007
11
102.114771
21
-48.086021
0
LINE
8
Layer 1
10
92.951368
20
-48.394702
11
92.245812
21
-48.456438
0
LINE
8
Layer 1
10
92.245812
20
-48.456438
11
91.522618
21
-48.482882
0
LINE
8
Layer 1
10
91.522618
20
-48.482882
11
91.178659
21
-48.482882
0
LINE
8
Layer 1
10
91.178659
20
-48.482882
11
91.019909
21
-48.606354
0
LINE
8
Layer 1
10
91.019909
20
-48.606354
11
90.984632
21
-48.826841
0
LINE
8
Layer 1
10
90.984632
20
-48.826841
11
91.028729
21
-48.994410
0
LINE
8
Layer 1
10
91.028729
20
-48.994410
11
91.125743
21
-49.320729
0
LINE
8
Layer 1
10
91.125743
20
-49.320729
11
91.205118
21
-49.938091
0
LINE
8
Layer 1
10
91.205118
20
-49.938091
11
91.328590
21
-50.811216
0
LINE
8
Layer 1
10
91.328590
20
-50.811216
11
91.681368
21
-52.169410
0
LINE
8
Layer 1
10
91.681368
20
-52.169410
11
91.954771
21
-52.777952
0
LINE
8
Layer 1
10
91.954771
20
-52.777952
11
92.281090
21
-52.839688
0
LINE
8
Layer 1
10
92.281090
20
-52.839688
11
92.563312
21
-52.663299
0
LINE
8
Layer 1
10
92.563312
20
-52.663299
11
92.695604
21
-52.372257
0
LINE
8
Layer 1
10
92.695604
20
-52.372257
11
92.563312
21
-51.957743
0
LINE
8
Layer 1
10
92.563312
20
-51.957743
11
92.281090
21
-51.058160
0
LINE
8
Layer 1
10
92.281090
20
-51.058160
11
92.139979
21
-50.123299
0
LINE
8
Layer 1
10
92.139979
20
-50.123299
11
92.051784
21
-49.550035
0
LINE
8
Layer 1
10
92.051784
20
-49.550035
11
91.945951
21
-49.144341
0
LINE
8
Layer 1
10
91.945951
20
-49.144341
11
92.992873
21
-49.041708
0
LINE
8
Layer 1
10
92.992873
20
-49.041708
11
93.753937
21
-49.153146
0
LINE
8
Layer 1
10
93.753937
20
-49.153146
11
94.244694
21
-49.478298
0
LINE
8
Layer 1
10
94.244694
20
-49.478298
11
94.485951
21
-50.026271
0
LINE
8
Layer 1
10
94.485951
20
-50.026271
11
94.435761
21
-50.760352
0
LINE
8
Layer 1
10
94.435761
20
-50.760352
11
94.027340
21
-51.534396
0
LINE
8
Layer 1
10
94.027340
20
-51.534396
11
93.337646
21
-52.260726
0
LINE
8
Layer 1
10
93.337646
20
-52.260726
11
92.448659
21
-52.857313
0
LINE
8
Layer 1
10
92.448659
20
-52.857313
11
92.193456
21
-53.065400
0
LINE
8
Layer 1
10
92.193456
20
-53.065400
11
92.139979
21
-53.307104
0
LINE
8
Layer 1
10
92.139979
20
-53.307104
11
92.255074
21
-53.519799
0
LINE
8
Layer 1
10
92.255074
20
-53.519799
11
92.492757
21
-53.554049
0
LINE
8
Layer 1
10
92.492757
20
-53.554049
11
93.427618
21
-53.086618
0
LINE
8
Layer 1
10
93.427618
20
-53.086618
11
94.468312
21
-52.160576
0
LINE
8
Layer 1
10
94.468312
20
-52.160576
11
95.228061
21
-50.945844
0
LINE
8
Layer 1
10
95.228061
20
-50.945844
11
95.365816
21
-50.347097
0
LINE
8
Layer 1
10
95.365816
20
-50.347097
11
95.341437
21
-49.752868
0
LINE
8
Layer 1
10
95.341437
20
-49.752868
11
95.164648
21
-49.292736
0
LINE
8
Layer 1
10
95.164648
20
-49.292736
11
94.812271
21
-48.915021
0
LINE
8
Layer 1
10
94.812271
20
-48.915021
11
94.301656
21
-48.631895
0
LINE
8
Layer 1
10
94.301656
20
-48.631895
11
93.656923
21
-48.456410
0
LINE
8
Layer 1
10
93.656923
20
-48.456410
11
92.951368
21
-48.394674
0
LINE
8
Layer 1
10
92.951368
20
-48.394674
11
92.951368
21
-48.394702
0
LINE
8
Layer 1
10
97.122965
20
-48.624007
11
96.734909
21
-48.659285
0
LINE
8
Layer 1
10
96.734909
20
-48.659285
11
96.461507
21
-48.985605
0
LINE
8
Layer 1
10
96.461507
20
-48.985605
11
96.302757
21
-49.717619
0
LINE
8
Layer 1
10
96.302757
20
-49.717619
11
96.346854
21
-50.599563
0
LINE
8
Layer 1
10
96.346854
20
-50.599563
11
96.117548
21
-50.811230
0
LINE
8
Layer 1
10
96.117548
20
-50.811230
11
96.099909
21
-51.066994
0
LINE
8
Layer 1
10
96.099909
20
-51.066994
11
96.188104
21
-51.216924
0
LINE
8
Layer 1
10
96.188104
20
-51.216924
11
96.311576
21
-51.278660
0
LINE
8
Layer 1
10
96.311576
20
-51.278660
11
96.479146
21
-51.225744
0
LINE
8
Layer 1
10
96.479146
20
-51.225744
11
96.505590
21
-51.366855
0
LINE
8
Layer 1
10
96.505590
20
-51.366855
11
96.928923
21
-52.301716
0
LINE
8
Layer 1
10
96.928923
20
-52.301716
11
97.261865
21
-52.584339
0
LINE
8
Layer 1
10
97.261865
20
-52.584339
11
97.616840
21
-52.636855
0
LINE
8
Layer 1
10
97.616840
20
-52.636855
11
98.454687
21
-51.843105
0
LINE
8
Layer 1
10
98.454687
20
-51.843105
11
98.569340
21
-51.719632
0
LINE
8
Layer 1
10
98.569340
20
-51.719632
11
99.143695
21
-51.016964
0
LINE
8
Layer 1
10
99.143695
20
-51.016964
11
99.301354
21
-50.599563
0
LINE
8
Layer 1
10
99.301354
20
-50.599563
11
99.189188
21
-50.414858
0
LINE
8
Layer 1
10
99.189188
20
-50.414858
11
98.948576
21
-50.387896
0
LINE
8
Layer 1
10
98.948576
20
-50.387896
11
98.736909
21
-50.520188
0
LINE
8
Layer 1
10
98.736909
20
-50.520188
11
98.304756
21
-51.111091
0
LINE
8
Layer 1
10
98.304756
20
-51.111091
11
97.731493
21
-51.728452
0
LINE
8
Layer 1
10
97.731493
20
-51.728452
11
97.502187
21
-51.543244
0
LINE
8
Layer 1
10
97.502187
20
-51.543244
11
97.325798
21
-51.049355
0
LINE
8
Layer 1
10
97.325798
20
-51.049355
11
97.281701
21
-50.837688
0
LINE
8
Layer 1
10
97.281701
20
-50.837688
11
97.828506
21
-50.370257
0
LINE
8
Layer 1
10
97.828506
20
-50.370257
11
98.401770
21
-49.867549
0
LINE
8
Layer 1
10
98.401770
20
-49.867549
11
98.516423
21
-49.647063
0
LINE
8
Layer 1
10
98.516423
20
-49.647063
11
98.498784
21
-49.311924
0
LINE
8
Layer 1
10
98.498784
20
-49.311924
11
98.181284
21
-48.932688
0
LINE
8
Layer 1
10
98.181284
20
-48.932688
11
97.502187
21
-48.659285
0
LINE
8
Layer 1
10
97.502187
20
-48.659285
11
97.122951
21
-48.624007
0
LINE
8
Layer 1
10
97.122951
20
-48.624007
11
97.122965
21
-48.624007
0
LINE
8
Layer 1
10
97.237618
20
-49.329563
11
97.572757
21
-49.417757
0
LINE
8
Layer 1
10
97.572757
20
-49.417757
11
97.757965
21
-49.682341
0
LINE
8
Layer 1
10
97.757965
20
-49.682341
11
97.378729
21
-49.964563
0
LINE
8
Layer 1
10
97.378729
20
-49.964563
11
97.140604
21
-50.140952
0
LINE
8
Layer 1
10
97.140604
20
-50.140952
11
97.131799
21
-49.647063
0
LINE
8
Layer 1
10
97.131799
20
-49.647063
11
97.237632
21
-49.329563
0
LINE
8
Layer 1
10
97.237632
20
-49.329563
11
97.237618
21
-49.329563
0
LINE
8
Layer 1
10
83.294076
20
-49.408938
11
83.197062
21
-49.417743
0
LINE
8
Layer 1
10
83.197062
20
-49.417743
11
82.941298
21
-49.664688
0
LINE
8
Layer 1
10
82.941298
20
-49.664688
11
83.011854
21
-50.837674
0
LINE
8
Layer 1
10
83.011854
20
-50.837674
11
83.223521
21
-52.328160
0
LINE
8
Layer 1
10
83.223521
20
-52.328160
11
83.541021
21
-53.853924
0
LINE
8
Layer 1
10
83.541021
20
-53.853924
11
82.873867
21
-53.156787
0
LINE
8
Layer 1
10
82.873867
20
-53.156787
11
81.803590
21
-51.613785
0
LINE
8
Layer 1
10
81.803590
20
-51.613785
11
81.415534
21
-51.075799
0
LINE
8
Layer 1
10
81.415534
20
-51.075799
11
81.053937
21
-50.917049
0
LINE
8
Layer 1
10
81.053937
20
-50.917049
11
80.798173
21
-51.111077
0
LINE
8
Layer 1
10
80.798173
20
-51.111077
11
80.718798
21
-51.507952
0
LINE
8
Layer 1
10
80.718798
20
-51.507952
11
80.736437
21
-52.239966
0
LINE
8
Layer 1
10
80.736437
20
-52.239966
11
80.833451
21
-54.268438
0
LINE
8
Layer 1
10
80.833451
20
-54.268438
11
80.154354
21
-53.086632
0
LINE
8
Layer 1
10
80.154354
20
-53.086632
11
79.475257
21
-51.622604
0
LINE
8
Layer 1
10
79.475257
20
-51.622604
11
79.131298
21
-51.031702
0
LINE
8
Layer 1
10
79.131298
20
-51.031702
11
78.813798
21
-50.820035
0
LINE
8
Layer 1
10
78.813798
20
-50.820035
11
78.448503
21
-50.983950
0
LINE
8
Layer 1
10
78.448503
20
-50.983950
11
78.372826
21
-51.296285
0
LINE
8
Layer 1
10
78.372826
20
-51.296285
11
79.148937
21
-52.839688
0
LINE
8
Layer 1
10
79.148937
20
-52.839688
11
79.334146
21
-53.174827
0
LINE
8
Layer 1
10
79.334146
20
-53.174827
11
79.739840
21
-53.862743
0
LINE
8
Layer 1
10
79.739840
20
-53.862743
11
80.445396
21
-55.141563
0
LINE
8
Layer 1
10
80.445396
20
-55.141563
11
80.736437
21
-55.635452
0
LINE
8
Layer 1
10
80.736437
20
-55.635452
11
81.142132
21
-55.838299
0
LINE
8
Layer 1
10
81.142132
20
-55.838299
11
81.415534
21
-55.653091
0
LINE
8
Layer 1
10
81.415534
20
-55.653091
11
81.468451
21
-55.291493
0
LINE
8
Layer 1
10
81.468451
20
-55.291493
11
81.450812
21
-52.486910
0
LINE
8
Layer 1
10
81.450812
20
-52.486910
11
82.368034
21
-53.686354
0
LINE
8
Layer 1
10
82.368034
20
-53.686354
11
83.435187
21
-54.621216
0
LINE
8
Layer 1
10
83.435187
20
-54.621216
11
84.211298
21
-54.921077
0
LINE
8
Layer 1
10
84.211298
20
-54.921077
11
84.422965
21
-54.779966
0
LINE
8
Layer 1
10
84.422965
20
-54.779966
11
84.493521
21
-54.506563
0
LINE
8
Layer 1
10
84.493521
20
-54.506563
11
84.299493
21
-54.171424
0
LINE
8
Layer 1
10
84.299493
20
-54.171424
11
84.114284
21
-53.421771
0
LINE
8
Layer 1
10
84.114284
20
-53.421771
11
83.902618
21
-51.560868
0
LINE
8
Layer 1
10
83.902618
20
-51.560868
11
83.708590
21
-49.911632
0
LINE
8
Layer 1
10
83.708590
20
-49.911632
11
83.560171
21
-49.537396
0
LINE
8
Layer 1
10
83.560171
20
-49.537396
11
83.294076
21
-49.408924
0
LINE
8
Layer 1
10
83.294076
20
-49.408924
11
83.294076
21
-49.408938
0
LINE
8
Layer 1
10
86.063382
20
-50.599563
11
85.675326
21
-50.626007
0
LINE
8
Layer 1
10
85.675326
20
-50.626007
11
85.401923
21
-50.961146
0
LINE
8
Layer 1
10
85.401923
20
-50.961146
11
85.234354
21
-51.684341
0
LINE
8
Layer 1
10
85.234354
20
-51.684341
11
85.287271
21
-52.566285
0
LINE
8
Layer 1
10
85.287271
20
-52.566285
11
85.057965
21
-52.786771
0
LINE
8
Layer 1
10
85.057965
20
-52.786771
11
85.040326
21
-53.042535
0
LINE
8
Layer 1
10
85.040326
20
-53.042535
11
85.128521
21
-53.183646
0
LINE
8
Layer 1
10
85.128521
20
-53.183646
11
85.251993
21
-53.254202
0
LINE
8
Layer 1
10
85.251993
20
-53.254202
11
85.419562
21
-53.192466
0
LINE
8
Layer 1
10
85.419562
20
-53.192466
11
85.446006
21
-53.342396
0
LINE
8
Layer 1
10
85.446006
20
-53.342396
11
85.860520
21
-54.277257
0
LINE
8
Layer 1
10
85.860520
20
-54.277257
11
86.193462
21
-54.555470
0
LINE
8
Layer 1
10
86.193462
20
-54.555470
11
86.548437
21
-54.603577
0
LINE
8
Layer 1
10
86.548437
20
-54.603577
11
87.395104
21
-53.818646
0
LINE
8
Layer 1
10
87.395104
20
-53.818646
11
87.500937
21
-53.695174
0
LINE
8
Layer 1
10
87.500937
20
-53.695174
11
88.079702
21
-52.988096
0
LINE
8
Layer 1
10
88.079702
20
-52.988096
11
88.241770
21
-52.566285
0
LINE
8
Layer 1
10
88.241770
20
-52.566285
11
88.129604
21
-52.385990
0
LINE
8
Layer 1
10
88.129604
20
-52.385990
11
87.888993
21
-52.363438
0
LINE
8
Layer 1
10
87.888993
20
-52.363438
11
87.668506
21
-52.495729
0
LINE
8
Layer 1
10
87.668506
20
-52.495729
11
87.245173
21
-53.077813
0
LINE
8
Layer 1
10
87.245173
20
-53.077813
11
86.671909
21
-53.703993
0
LINE
8
Layer 1
10
86.671909
20
-53.703993
11
86.442604
21
-53.518785
0
LINE
8
Layer 1
10
86.442604
20
-53.518785
11
86.257395
21
-53.016077
0
LINE
8
Layer 1
10
86.257395
20
-53.016077
11
86.222118
21
-52.813229
0
LINE
8
Layer 1
10
86.222118
20
-52.813229
11
86.768923
21
-52.345799
0
LINE
8
Layer 1
10
86.768923
20
-52.345799
11
87.342187
21
-51.843091
0
LINE
8
Layer 1
10
87.342187
20
-51.843091
11
87.456840
21
-51.622604
0
LINE
8
Layer 1
10
87.456840
20
-51.622604
11
87.439201
21
-51.287466
0
LINE
8
Layer 1
10
87.439201
20
-51.287466
11
87.112881
21
-50.899410
0
LINE
8
Layer 1
10
87.112881
20
-50.899410
11
86.442604
21
-50.634827
0
LINE
8
Layer 1
10
86.442604
20
-50.634827
11
86.063368
21
-50.599549
0
LINE
8
Layer 1
10
86.063368
20
-50.599549
11
86.063382
21
-50.599563
0
LINE
8
Layer 1
10
86.266229
20
-51.296299
11
86.513173
21
-51.393313
0
LINE
8
Layer 1
10
86.513173
20
-51.393313
11
86.698382
21
-51.657896
0
LINE
8
Layer 1
10
86.698382
20
-51.657896
11
86.319146
21
-51.940119
0
LINE
8
Layer 1
10
86.319146
20
-51.940119
11
86.081021
21
-52.116507
0
LINE
8
Layer 1
10
86.081021
20
-52.116507
11
86.072215
21
-51.622619
0
LINE
8
Layer 1
10
86.072215
20
-51.622619
11
86.178049
21
-51.305119
0
LINE
8
Layer 1
10
86.178049
20
-51.305119
11
86.266243
21
-51.296313
0
LINE
8
Layer 1
10
86.266243
20
-51.296313
11
86.266229
21
-51.296299
0
LINE
8
Layer 1
10
56.756368
20
-52.866160
11
56.023068
21
-52.984003
0
LINE
8
Layer 1
10
56.023068
20
-52.984003
11
55.459909
21
-53.254216
0
LINE
8
Layer 1
10
55.459909
20
-53.254216
11
54.463312
21
-53.677549
0
LINE
8
Layer 1
10
54.463312
20
-53.677549
11
53.957090
21
-53.891068
0
LINE
8
Layer 1
10
53.957090
20
-53.891068
11
53.360882
21
-54.391924
0
LINE
8
Layer 1
10
53.360882
20
-54.391924
11
52.784618
21
-54.890223
0
LINE
8
Layer 1
10
52.784618
20
-54.890223
11
52.329007
21
-55.097480
0
LINE
8
Layer 1
10
52.329007
20
-55.097480
11
51.936577
21
-55.366914
0
LINE
8
Layer 1
10
51.936577
20
-55.366914
11
51.517618
21
-56.014702
0
LINE
8
Layer 1
10
51.517618
20
-56.014702
11
50.666694
21
-57.631746
0
LINE
8
Layer 1
10
50.666694
20
-57.631746
11
49.877201
21
-58.713452
0
LINE
8
Layer 1
10
49.877201
20
-58.713452
11
49.584176
21
-59.174984
0
LINE
8
Layer 1
10
49.584176
20
-59.174984
11
49.429064
21
-59.703569
0
LINE
8
Layer 1
10
49.429064
20
-59.703569
11
49.427465
21
-60.197911
0
LINE
8
Layer 1
10
49.427465
20
-60.197911
11
49.594979
21
-60.556716
0
LINE
8
Layer 1
10
49.594979
20
-60.556716
11
51.235396
21
-60.741924
0
LINE
8
Layer 1
10
51.235396
20
-60.741924
11
52.600796
21
-60.578837
0
LINE
8
Layer 1
10
52.600796
20
-60.578837
11
53.064317
21
-60.273198
0
LINE
8
Layer 1
10
53.064317
20
-60.273198
11
53.590187
21
-59.727688
0
LINE
8
Layer 1
10
53.590187
20
-59.727688
11
54.225314
21
-58.906708
0
LINE
8
Layer 1
10
54.225314
20
-58.906708
11
54.489771
21
-58.360674
0
LINE
8
Layer 1
10
54.489771
20
-58.360674
11
54.697027
21
-58.005091
0
LINE
8
Layer 1
10
54.697027
20
-58.005091
11
55.195326
21
-57.637480
0
LINE
8
Layer 1
10
55.195326
20
-57.637480
11
55.900882
21
-57.055396
0
LINE
8
Layer 1
10
55.900882
20
-57.055396
11
56.217331
21
-56.672626
0
LINE
8
Layer 1
10
56.217331
20
-56.672626
11
57.008596
21
-56.218080
0
LINE
8
Layer 1
10
57.008596
20
-56.218080
11
58.037549
21
-55.805161
0
LINE
8
Layer 1
10
58.037549
20
-55.805161
11
59.067062
21
-55.547271
0
LINE
8
Layer 1
10
59.067062
20
-55.547271
11
60.089175
21
-55.279571
0
LINE
8
Layer 1
10
60.089175
20
-55.279571
11
60.725118
21
-54.912271
0
LINE
8
Layer 1
10
60.725118
20
-54.912271
11
60.893512
21
-54.458307
0
LINE
8
Layer 1
10
60.893512
20
-54.458307
11
60.398798
21
-53.942132
0
LINE
8
Layer 1
10
60.398798
20
-53.942132
11
59.592766
21
-53.454471
0
LINE
8
Layer 1
10
59.592766
20
-53.454471
11
58.660131
21
-53.104509
0
LINE
8
Layer 1
10
58.660131
20
-53.104509
11
57.686222
21
-52.904365
0
LINE
8
Layer 1
10
57.686222
20
-52.904365
11
56.756368
21
-52.866160
0
LINE
8
Layer 1
10
56.756368
20
-52.866160
11
56.756368
21
-52.866160
0
LINE
8
Layer 1
10
39.673104
20
-53.968591
11
39.147095
21
-54.051494
0
LINE
8
Layer 1
10
39.147095
20
-54.051494
11
38.826437
21
-54.250813
0
LINE
8
Layer 1
10
38.826437
20
-54.250813
11
38.523531
21
-54.450132
0
LINE
8
Layer 1
10
38.523531
20
-54.450132
11
38.041507
21
-54.533035
0
LINE
8
Layer 1
10
38.041507
20
-54.533035
11
37.245382
21
-54.920519
0
LINE
8
Layer 1
10
37.245382
20
-54.920519
11
36.139541
21
-55.818415
0
LINE
8
Layer 1
10
36.139541
20
-55.818415
11
35.157859
21
-56.829888
0
LINE
8
Layer 1
10
35.157859
20
-56.829888
11
34.734215
21
-57.558105
0
LINE
8
Layer 1
10
34.734215
20
-57.558105
11
34.407896
21
-58.554702
0
LINE
8
Layer 1
10
34.407896
20
-58.554702
11
33.843451
21
-59.683591
0
LINE
8
Layer 1
10
33.843451
20
-59.683591
11
33.605326
21
-61.588591
0
LINE
8
Layer 1
10
33.605326
20
-61.588591
11
33.704027
21
-62.754193
0
LINE
8
Layer 1
10
33.704027
20
-62.754193
11
33.875115
21
-62.951733
0
LINE
8
Layer 1
10
33.875115
20
-62.951733
11
34.169771
21
-62.999702
0
LINE
8
Layer 1
10
34.169771
20
-62.999702
11
34.581465
21
-62.866879
0
LINE
8
Layer 1
10
34.581465
20
-62.866879
11
34.734215
21
-62.505813
0
LINE
8
Layer 1
10
34.734215
20
-62.505813
11
35.171934
21
-60.854010
0
LINE
8
Layer 1
10
35.171934
20
-60.854010
11
36.233521
21
-58.872202
0
LINE
8
Layer 1
10
36.233521
20
-58.872202
11
36.694009
21
-58.249246
0
LINE
8
Layer 1
10
36.694009
20
-58.249246
11
37.122712
21
-57.872307
0
LINE
8
Layer 1
10
37.122712
20
-57.872307
11
37.653626
21
-57.657971
0
LINE
8
Layer 1
10
37.653626
20
-57.657971
11
38.420743
21
-57.522827
0
LINE
8
Layer 1
10
38.420743
20
-57.522827
11
39.808742
21
-57.470579
0
LINE
8
Layer 1
10
39.808742
20
-57.470579
11
41.030793
21
-57.735535
0
LINE
8
Layer 1
10
41.030793
20
-57.735535
11
42.178131
21
-58.352748
0
LINE
8
Layer 1
10
42.178131
20
-58.352748
11
43.341993
21
-59.357271
0
LINE
8
Layer 1
10
43.341993
20
-59.357271
11
44.164735
21
-60.155965
0
LINE
8
Layer 1
10
44.164735
20
-60.155965
11
44.778879
21
-60.567235
0
LINE
8
Layer 1
10
44.778879
20
-60.567235
11
45.490378
21
-60.719686
0
LINE
8
Layer 1
10
45.490378
20
-60.719686
11
46.605187
21
-60.741924
0
LINE
8
Layer 1
10
46.605187
20
-60.741924
11
48.120300
21
-60.649537
0
LINE
8
Layer 1
10
48.120300
20
-60.649537
11
48.487574
21
-60.518926
0
LINE
8
Layer 1
10
48.487574
20
-60.518926
11
48.660118
21
-60.318591
0
LINE
8
Layer 1
10
48.660118
20
-60.318591
11
48.736431
21
-59.871046
0
LINE
8
Layer 1
10
48.736431
20
-59.871046
11
48.551693
21
-59.414689
0
LINE
8
Layer 1
10
48.551693
20
-59.414689
11
47.116715
21
-58.060813
0
LINE
8
Layer 1
10
47.116715
20
-58.060813
11
45.000048
21
-56.173452
0
LINE
8
Layer 1
10
45.000048
20
-56.173452
11
44.237808
21
-55.561664
0
LINE
8
Layer 1
10
44.237808
20
-55.561664
11
43.275253
21
-55.037268
0
LINE
8
Layer 1
10
43.275253
20
-55.037268
11
42.268897
21
-54.670859
0
LINE
8
Layer 1
10
42.268897
20
-54.670859
11
41.375257
21
-54.533035
0
LINE
8
Layer 1
10
41.375257
20
-54.533035
11
40.842581
21
-54.450132
0
LINE
8
Layer 1
10
40.842581
20
-54.450132
11
40.519771
21
-54.250813
0
LINE
8
Layer 1
10
40.519771
20
-54.250813
11
40.199112
21
-54.051494
0
LINE
8
Layer 1
10
40.199112
20
-54.051494
11
39.673104
21
-53.968591
0
LINE
8
Layer 1
10
39.673104
20
-53.968591
11
39.673104
21
-53.968591
0
LINE
8
Layer 1
10
31.647409
20
-58.201924
11
31.026766
21
-58.427473
0
LINE
8
Layer 1
10
31.026766
20
-58.427473
11
30.579789
21
-59.098105
0
LINE
8
Layer 1
10
30.579789
20
-59.098105
11
30.309435
21
-60.204796
0
LINE
8
Layer 1
10
30.309435
20
-60.204796
11
30.218659
21
-61.738521
0
LINE
8
Layer 1
10
30.218659
20
-61.738521
11
30.290625
21
-63.392608
0
LINE
8
Layer 1
10
30.290625
20
-63.392608
11
30.465604
21
-64.357896
0
LINE
8
Layer 1
10
30.465604
20
-64.357896
11
30.906576
21
-66.386369
0
LINE
8
Layer 1
10
30.906576
20
-66.386369
11
31.100604
21
-67.938591
0
LINE
8
Layer 1
10
31.100604
20
-67.938591
11
30.474423
21
-66.950813
0
LINE
8
Layer 1
10
30.474423
20
-66.950813
11
30.093172
21
-66.263820
0
LINE
8
Layer 1
10
30.093172
20
-66.263820
11
29.880188
21
-65.484309
0
LINE
8
Layer 1
10
29.880188
20
-65.484309
11
29.707132
21
-62.100119
0
LINE
8
Layer 1
10
29.707132
20
-62.100119
11
29.577930
21
-60.569285
0
LINE
8
Layer 1
10
29.577930
20
-60.569285
11
29.230152
21
-59.794619
0
LINE
8
Layer 1
10
29.230152
20
-59.794619
11
28.949009
21
-59.668709
0
LINE
8
Layer 1
10
28.949009
20
-59.668709
11
28.582878
21
-59.705273
0
LINE
8
Layer 1
10
28.582878
20
-59.705273
11
27.555189
21
-60.230396
0
LINE
8
Layer 1
10
27.555189
20
-60.230396
11
26.697943
21
-60.844515
0
LINE
8
Layer 1
10
26.697943
20
-60.844515
11
26.488228
21
-61.142853
0
LINE
8
Layer 1
10
26.488228
20
-61.142853
11
26.426998
21
-61.514251
0
LINE
8
Layer 1
10
26.426998
20
-61.514251
11
26.757631
21
-62.712841
0
LINE
8
Layer 1
10
26.757631
20
-62.712841
11
27.705119
21
-64.913521
0
LINE
8
Layer 1
10
27.705119
20
-64.913521
11
28.243104
21
-66.536299
0
LINE
8
Layer 1
10
28.243104
20
-66.536299
11
28.796187
21
-67.690612
0
LINE
8
Layer 1
10
28.796187
20
-67.690612
11
30.756646
21
-70.540327
0
LINE
8
Layer 1
10
30.756646
20
-70.540327
11
31.180135
21
-70.985135
0
LINE
8
Layer 1
10
31.180135
20
-70.985135
11
31.568034
21
-71.175327
0
LINE
8
Layer 1
10
31.568034
20
-71.175327
11
31.940091
21
-71.044912
0
LINE
8
Layer 1
10
31.940091
20
-71.044912
11
32.081868
21
-70.684815
0
LINE
8
Layer 1
10
32.081868
20
-70.684815
11
31.988776
21
-70.177509
0
LINE
8
Layer 1
10
31.988776
20
-70.177509
11
31.656229
21
-69.605466
0
LINE
8
Layer 1
10
31.656229
20
-69.605466
11
31.238578
21
-68.940267
0
LINE
8
Layer 1
10
31.238578
20
-68.940267
11
31.065326
21
-68.397202
0
LINE
8
Layer 1
10
31.065326
20
-68.397202
11
31.112427
21
-68.295666
0
LINE
8
Layer 1
10
31.112427
20
-68.295666
11
31.240483
21
-68.360685
0
LINE
8
Layer 1
10
31.240483
20
-68.360685
11
31.665048
21
-68.926369
0
LINE
8
Layer 1
10
31.665048
20
-68.926369
11
32.546452
21
-70.067557
0
LINE
8
Layer 1
10
32.546452
20
-70.067557
11
32.983402
21
-70.278729
0
LINE
8
Layer 1
10
32.983402
20
-70.278729
11
33.534771
21
-70.337480
0
LINE
8
Layer 1
10
33.534771
20
-70.337480
11
33.999791
21
-70.184047
0
LINE
8
Layer 1
10
33.999791
20
-70.184047
11
34.172531
21
-69.799969
0
LINE
8
Layer 1
10
34.172531
20
-69.799969
11
34.046234
21
-69.312026
0
LINE
8
Layer 1
10
34.046234
20
-69.312026
11
33.614146
21
-68.846994
0
LINE
8
Layer 1
10
33.614146
20
-68.846994
11
33.140334
21
-68.164591
0
LINE
8
Layer 1
10
33.140334
20
-68.164591
11
32.864493
21
-66.792063
0
LINE
8
Layer 1
10
32.864493
20
-66.792063
11
32.397062
21
-64.578382
0
LINE
8
Layer 1
10
32.397062
20
-64.578382
11
32.206770
21
-63.339699
0
LINE
8
Layer 1
10
32.206770
20
-63.339699
11
32.141298
21
-61.121160
0
LINE
8
Layer 1
10
32.141298
20
-61.121160
11
32.080356
21
-58.665779
0
LINE
8
Layer 1
10
32.080356
20
-58.665779
11
31.927704
21
-58.284643
0
LINE
8
Layer 1
10
31.927704
20
-58.284643
11
31.647409
21
-58.201924
0
LINE
8
Layer 1
10
31.647409
20
-58.201924
11
31.647409
21
-58.201924
0
LINE
8
Layer 1
10
120.062340
20
-62.955605
11
120.279770
21
-63.143452
0
LINE
8
Layer 1
10
120.279770
20
-63.143452
11
120.282826
21
-63.828730
0
LINE
8
Layer 1
10
120.282826
20
-63.828730
11
119.938868
21
-65.469146
0
LINE
8
Layer 1
10
119.938868
20
-65.469146
11
119.844231
21
-66.060860
0
LINE
8
Layer 1
10
119.844231
20
-66.060860
11
119.956754
21
-66.632074
0
LINE
8
Layer 1
10
119.956754
20
-66.632074
11
120.230108
21
-67.062796
0
LINE
8
Layer 1
10
120.230108
20
-67.062796
11
120.617965
21
-67.233035
0
LINE
8
Layer 1
10
120.617965
20
-67.233035
11
120.918156
21
-66.843988
0
LINE
8
Layer 1
10
120.918156
20
-66.843988
11
121.260608
21
-65.906739
0
LINE
8
Layer 1
10
121.260608
20
-65.906739
11
121.658659
21
-63.766994
0
LINE
8
Layer 1
10
121.658659
20
-63.766994
11
121.741451
21
-63.424298
0
LINE
8
Layer 1
10
121.741451
20
-63.424298
11
121.940882
21
-63.281924
0
LINE
8
Layer 1
10
121.940882
20
-63.281924
11
123.326642
21
-64.460318
0
LINE
8
Layer 1
10
123.326642
20
-64.460318
11
124.480882
21
-65.874841
0
LINE
8
Layer 1
10
124.480882
20
-65.874841
11
125.045326
21
-66.245257
0
LINE
8
Layer 1
10
125.045326
20
-66.245257
11
125.443965
21
-66.519397
0
LINE
8
Layer 1
10
125.443965
20
-66.519397
11
125.609771
21
-66.924355
0
LINE
8
Layer 1
10
125.609771
20
-66.924355
11
126.144971
21
-67.845166
0
LINE
8
Layer 1
10
126.144971
20
-67.845166
11
127.435396
21
-69.367341
0
LINE
8
Layer 1
10
127.435396
20
-69.367341
11
129.269840
21
-71.519285
0
LINE
8
Layer 1
10
129.269840
20
-71.519285
11
131.254215
21
-73.662410
0
LINE
8
Layer 1
10
131.254215
20
-73.662410
11
132.649451
21
-75.120658
0
LINE
8
Layer 1
10
132.649451
20
-75.120658
11
133.229771
21
-75.893730
0
LINE
8
Layer 1
10
133.229771
20
-75.893730
11
133.810090
21
-76.634788
0
LINE
8
Layer 1
10
133.810090
20
-76.634788
11
135.205326
21
-78.019216
0
LINE
8
Layer 1
10
135.205326
20
-78.019216
11
136.329371
21
-79.094020
0
LINE
8
Layer 1
10
136.329371
20
-79.094020
11
136.915623
21
-79.800525
0
LINE
8
Layer 1
10
136.915623
20
-79.800525
11
137.136206
21
-80.421150
0
LINE
8
Layer 1
10
137.136206
20
-80.421150
11
137.163243
21
-81.238313
0
LINE
8
Layer 1
10
137.163243
20
-81.238313
11
136.863382
21
-84.025257
0
LINE
8
Layer 1
10
136.863382
20
-84.025257
11
136.246021
21
-87.676507
0
LINE
8
Layer 1
10
136.246021
20
-87.676507
11
135.910882
21
-89.925466
0
LINE
8
Layer 1
10
135.910882
20
-89.925466
11
133.935326
21
-90.287063
0
LINE
8
Layer 1
10
133.935326
20
-90.287063
11
126.456437
21
-91.618799
0
LINE
8
Layer 1
10
126.456437
20
-91.618799
11
124.621993
21
-92.042132
0
LINE
8
Layer 1
10
124.621993
20
-92.042132
11
122.567062
21
-92.341994
0
LINE
8
Layer 1
10
122.567062
20
-92.341994
11
121.155951
21
-92.606577
0
LINE
8
Layer 1
10
121.155951
20
-92.606577
11
118.130882
21
-93.197480
0
LINE
8
Layer 1
10
118.130882
20
-93.197480
11
114.976174
21
-93.705968
0
LINE
8
Layer 1
10
114.976174
20
-93.705968
11
112.768659
21
-94.317549
0
LINE
8
Layer 1
10
112.768659
20
-94.317549
11
109.664215
21
-94.881994
0
LINE
8
Layer 1
10
109.664215
20
-94.881994
11
106.559771
21
-95.464077
0
LINE
8
Layer 1
10
106.559771
20
-95.464077
11
105.448389
21
-95.767111
0
LINE
8
Layer 1
10
105.448389
20
-95.767111
11
102.044215
21
-96.293105
0
LINE
8
Layer 1
10
102.044215
20
-96.293105
11
99.839809
21
-96.687976
0
LINE
8
Layer 1
10
99.839809
20
-96.687976
11
96.681993
21
-97.466091
0
LINE
8
Layer 1
10
96.681993
20
-97.466091
11
93.718659
21
-97.995257
0
LINE
8
Layer 1
10
93.718659
20
-97.995257
11
90.755326
21
-98.392132
0
LINE
8
Layer 1
10
90.755326
20
-98.392132
11
89.869124
21
-98.397467
0
LINE
8
Layer 1
10
89.869124
20
-98.397467
11
89.101325
21
-98.173552
0
LINE
8
Layer 1
10
89.101325
20
-98.173552
11
88.560805
21
-97.772295
0
LINE
8
Layer 1
10
88.560805
20
-97.772295
11
88.356437
21
-97.245605
0
LINE
8
Layer 1
10
88.356437
20
-97.245605
11
88.024826
21
-96.616112
0
LINE
8
Layer 1
10
88.024826
20
-96.616112
11
87.227548
21
-95.666924
0
LINE
8
Layer 1
10
87.227548
20
-95.666924
11
86.430271
21
-94.723744
0
LINE
8
Layer 1
10
86.430271
20
-94.723744
11
86.098659
21
-94.105882
0
LINE
8
Layer 1
10
86.098659
20
-94.105882
11
85.251993
21
-92.491924
0
LINE
8
Layer 1
10
85.251993
20
-92.491924
11
84.608390
21
-91.297609
0
LINE
8
Layer 1
10
84.608390
20
-91.297609
11
84.396507
21
-90.181230
0
LINE
8
Layer 1
10
84.396507
20
-90.181230
11
84.096646
21
-88.020466
0
LINE
8
Layer 1
10
84.096646
20
-88.020466
11
83.938930
21
-87.059720
0
LINE
8
Layer 1
10
83.938930
20
-87.059720
11
84.308312
21
-86.547619
0
LINE
8
Layer 1
10
84.308312
20
-86.547619
11
84.766938
21
-86.246813
0
LINE
8
Layer 1
10
84.766938
20
-86.246813
11
85.088760
21
-86.209915
0
LINE
8
Layer 1
10
85.088760
20
-86.209915
11
85.362112
21
-86.469750
0
LINE
8
Layer 1
10
85.362112
20
-86.469750
11
85.675326
21
-87.059146
0
LINE
8
Layer 1
10
85.675326
20
-87.059146
11
86.530659
21
-88.676191
0
LINE
8
Layer 1
10
86.530659
20
-88.676191
11
87.324562
21
-89.757896
0
LINE
8
Layer 1
10
87.324562
20
-89.757896
11
87.654974
21
-90.307215
0
LINE
8
Layer 1
10
87.654974
20
-90.307215
11
87.791993
21
-90.895605
0
LINE
8
Layer 1
10
87.791993
20
-90.895605
11
87.874896
21
-91.326261
0
LINE
8
Layer 1
10
87.874896
20
-91.326261
11
88.074215
21
-91.504146
0
LINE
8
Layer 1
10
88.074215
20
-91.504146
11
88.272688
21
-91.897934
0
LINE
8
Layer 1
10
88.272688
20
-91.897934
11
88.356437
21
-92.844702
0
LINE
8
Layer 1
10
88.356437
20
-92.844702
11
88.434356
21
-93.905278
0
LINE
8
Layer 1
10
88.434356
20
-93.905278
11
88.612201
21
-94.573313
0
LINE
8
Layer 1
10
88.612201
20
-94.573313
11
88.937093
21
-94.852485
0
LINE
8
Layer 1
10
88.937093
20
-94.852485
11
89.216289
21
-94.672668
0
LINE
8
Layer 1
10
89.216289
20
-94.672668
11
89.411722
21
-94.094806
0
LINE
8
Layer 1
10
89.411722
20
-94.094806
11
89.485326
21
-93.179841
0
LINE
8
Layer 1
10
89.485326
20
-93.179841
11
89.485326
21
-91.786369
0
LINE
8
Layer 1
10
89.485326
20
-91.786369
11
90.702409
21
-91.786369
0
LINE
8
Layer 1
10
90.702409
20
-91.786369
11
92.139979
21
-91.574702
0
LINE
8
Layer 1
10
92.139979
20
-91.574702
11
94.371298
21
-91.019077
0
LINE
8
Layer 1
10
94.371298
20
-91.019077
11
97.105326
21
-90.525188
0
LINE
8
Layer 1
10
97.105326
20
-90.525188
11
99.645326
21
-90.031299
0
LINE
8
Layer 1
10
99.645326
20
-90.031299
11
101.761993
21
-89.493313
0
LINE
8
Layer 1
10
101.761993
20
-89.493313
11
103.596437
21
-89.122896
0
LINE
8
Layer 1
10
103.596437
20
-89.122896
11
105.713104
21
-88.690744
0
LINE
8
Layer 1
10
105.713104
20
-88.690744
11
108.394215
21
-88.117480
0
LINE
8
Layer 1
10
108.394215
20
-88.117480
11
111.075326
21
-87.544216
0
LINE
8
Layer 1
10
111.075326
20
-87.544216
11
113.121437
21
-87.120882
0
LINE
8
Layer 1
10
113.121437
20
-87.120882
11
114.216642
21
-86.910297
0
LINE
8
Layer 1
10
114.216642
20
-86.910297
11
114.770673
21
-86.662271
0
LINE
8
Layer 1
10
114.770673
20
-86.662271
11
115.109891
21
-86.492532
0
LINE
8
Layer 1
10
115.109891
20
-86.492532
11
115.687896
21
-86.468244
0
LINE
8
Layer 1
10
115.687896
20
-86.468244
11
116.763868
21
-86.344771
0
LINE
8
Layer 1
10
116.763868
20
-86.344771
11
118.457201
21
-85.974355
0
LINE
8
Layer 1
10
118.457201
20
-85.974355
11
120.247548
21
-85.639216
0
LINE
8
Layer 1
10
120.247548
20
-85.639216
11
121.376437
21
-85.383452
0
LINE
8
Layer 1
10
121.376437
20
-85.383452
11
123.139166
21
-85.100019
0
LINE
8
Layer 1
10
123.139166
20
-85.100019
11
124.186690
21
-84.728729
0
LINE
8
Layer 1
10
124.186690
20
-84.728729
11
124.439557
21
-84.511735
0
LINE
8
Layer 1
10
124.439557
20
-84.511735
11
124.510390
21
-84.274696
0
LINE
8
Layer 1
10
124.510390
20
-84.274696
11
124.101646
21
-83.743035
0
LINE
8
Layer 1
10
124.101646
20
-83.743035
11
123.796582
21
-83.376569
0
LINE
8
Layer 1
10
123.796582
20
-83.376569
11
124.198659
21
-82.896369
0
LINE
8
Layer 1
10
124.198659
20
-82.896369
11
125.459840
21
-81.185396
0
LINE
8
Layer 1
10
125.459840
20
-81.185396
11
126.073701
21
-79.557806
0
LINE
8
Layer 1
10
126.073701
20
-79.557806
11
126.153717
21
-77.961531
0
LINE
8
Layer 1
10
126.153717
20
-77.961531
11
126.006467
21
-77.284607
0
LINE
8
Layer 1
10
126.006467
20
-77.284607
11
125.741274
21
-76.746876
0
LINE
8
Layer 1
10
125.741274
20
-76.746876
11
125.363313
21
-76.392127
0
LINE
8
Layer 1
10
125.363313
20
-76.392127
11
124.877757
21
-76.264146
0
LINE
8
Layer 1
10
124.877757
20
-76.264146
11
124.619575
21
-76.317183
0
LINE
8
Layer 1
10
124.619575
20
-76.317183
11
124.481715
21
-76.547424
0
LINE
8
Layer 1
10
124.481715
20
-76.547424
11
124.463243
21
-77.966299
0
LINE
8
Layer 1
10
124.463243
20
-77.966299
11
124.286389
21
-79.097999
0
LINE
8
Layer 1
10
124.286389
20
-79.097999
11
123.722409
21
-80.471021
0
LINE
8
Layer 1
10
123.722409
20
-80.471021
11
122.856999
21
-81.780987
0
LINE
8
Layer 1
10
122.856999
20
-81.780987
11
122.380223
21
-82.103659
0
LINE
8
Layer 1
10
122.380223
20
-82.103659
11
121.729215
21
-82.340744
0
LINE
8
Layer 1
10
121.729215
20
-82.340744
11
120.711944
21
-82.561773
0
LINE
8
Layer 1
10
120.711944
20
-82.561773
11
120.560603
21
-82.447470
0
LINE
8
Layer 1
10
120.560603
20
-82.447470
11
120.529771
21
-82.164355
0
LINE
8
Layer 1
10
120.529771
20
-82.164355
11
120.366109
21
-81.752049
0
LINE
8
Layer 1
10
120.366109
20
-81.752049
11
119.824215
21
-81.626369
0
LINE
8
Layer 1
10
119.824215
20
-81.626369
11
119.325916
21
-81.536465
0
LINE
8
Layer 1
10
119.325916
20
-81.536465
11
119.118659
21
-81.317688
0
LINE
8
Layer 1
10
119.118659
20
-81.317688
11
118.998869
21
-81.142006
0
LINE
8
Layer 1
10
118.998869
20
-81.142006
11
118.712965
21
-81.158938
0
LINE
8
Layer 1
10
118.712965
20
-81.158938
11
118.337325
21
-81.153997
0
LINE
8
Layer 1
10
118.337325
20
-81.153997
11
117.998590
21
-80.929632
0
LINE
8
Layer 1
10
117.998590
20
-80.929632
11
117.615239
21
-80.707479
0
LINE
8
Layer 1
10
117.615239
20
-80.707479
11
117.134284
21
-80.700327
0
LINE
8
Layer 1
10
117.134284
20
-80.700327
11
116.598855
21
-80.732778
0
LINE
8
Layer 1
10
116.598855
20
-80.732778
11
116.084771
21
-80.612132
0
LINE
8
Layer 1
10
116.084771
20
-80.612132
11
115.308659
21
-80.347549
0
LINE
8
Layer 1
10
115.308659
20
-80.347549
11
113.333104
21
-79.650813
0
LINE
8
Layer 1
10
113.333104
20
-79.650813
11
112.063104
21
-79.262757
0
LINE
8
Layer 1
10
112.063104
20
-79.262757
11
110.563798
21
-78.927619
0
LINE
8
Layer 1
10
110.563798
20
-78.927619
11
109.936825
21
-78.918122
0
LINE
8
Layer 1
10
109.936825
20
-78.918122
11
109.433864
21
-79.188997
0
LINE
8
Layer 1
10
109.433864
20
-79.188997
11
109.096790
21
-79.701805
0
LINE
8
Layer 1
10
109.096790
20
-79.701805
11
108.967479
21
-80.418105
0
LINE
8
Layer 1
10
108.967479
20
-80.418105
11
109.046228
21
-80.751704
0
LINE
8
Layer 1
10
109.046228
20
-80.751704
11
109.289842
21
-81.008754
0
LINE
8
Layer 1
10
109.289842
20
-81.008754
11
110.252233
21
-81.290956
0
LINE
8
Layer 1
10
110.252233
20
-81.290956
11
111.815788
21
-81.260204
0
LINE
8
Layer 1
10
111.815788
20
-81.260204
11
113.941646
21
-80.911994
0
LINE
8
Layer 1
10
113.941646
20
-80.911994
11
114.938764
21
-80.921431
0
LINE
8
Layer 1
10
114.938764
20
-80.921431
11
116.199423
21
-81.441160
0
LINE
8
Layer 1
10
116.199423
20
-81.441160
11
118.483659
21
-82.490674
0
LINE
8
Layer 1
10
118.483659
20
-82.490674
11
119.154872
21
-82.805896
0
LINE
8
Layer 1
10
119.154872
20
-82.805896
11
119.363365
21
-83.070242
0
LINE
8
Layer 1
10
119.363365
20
-83.070242
11
119.112162
21
-83.252062
0
LINE
8
Layer 1
10
119.112162
20
-83.252062
11
118.404284
21
-83.319702
0
LINE
8
Layer 1
10
118.404284
20
-83.319702
11
117.402237
21
-83.444056
0
LINE
8
Layer 1
10
117.402237
20
-83.444056
11
116.393451
21
-83.743035
0
LINE
8
Layer 1
10
116.393451
20
-83.743035
11
114.858868
21
-84.166369
0
LINE
8
Layer 1
10
114.858868
20
-84.166369
11
114.407999
21
-84.318775
0
LINE
8
Layer 1
10
114.407999
20
-84.318775
11
114.056298
21
-84.686716
0
LINE
8
Layer 1
10
114.056298
20
-84.686716
11
113.784991
21
-84.965002
0
LINE
8
Layer 1
10
113.784991
20
-84.965002
11
113.193725
21
-85.152964
0
LINE
8
Layer 1
10
113.193725
20
-85.152964
11
110.228659
21
-85.409910
0
LINE
8
Layer 1
10
110.228659
20
-85.409910
11
107.022283
21
-85.490589
0
LINE
8
Layer 1
10
107.022283
20
-85.490589
11
104.293173
21
-85.409910
0
LINE
8
Layer 1
10
104.293173
20
-85.409910
11
102.672437
21
-85.232961
0
LINE
8
Layer 1
10
102.672437
20
-85.232961
11
102.222659
21
-85.077307
0
LINE
8
Layer 1
10
102.222659
20
-85.077307
11
101.990315
21
-84.819579
0
LINE
8
Layer 1
10
101.990315
20
-84.819579
11
101.958185
21
-84.416809
0
LINE
8
Layer 1
10
101.958185
20
-84.416809
11
102.109049
21
-83.826032
0
LINE
8
Layer 1
10
102.109049
20
-83.826032
11
102.890882
21
-81.908591
0
LINE
8
Layer 1
10
102.890882
20
-81.908591
11
103.820257
21
-79.288364
0
LINE
8
Layer 1
10
103.820257
20
-79.288364
11
103.807556
21
-78.703506
0
LINE
8
Layer 1
10
103.807556
20
-78.703506
11
103.490604
21
-78.521924
0
LINE
8
Layer 1
10
103.490604
20
-78.521924
11
103.124386
21
-78.619150
0
LINE
8
Layer 1
10
103.124386
20
-78.619150
11
102.801415
21
-78.904665
0
LINE
8
Layer 1
10
102.801415
20
-78.904665
11
102.317618
21
-80.003591
0
LINE
8
Layer 1
10
102.317618
20
-80.003591
11
101.841368
21
-80.956091
0
LINE
8
Layer 1
10
101.841368
20
-80.956091
11
101.683035
21
-80.927333
0
LINE
8
Layer 1
10
101.683035
20
-80.927333
11
101.735534
21
-80.559216
0
LINE
8
Layer 1
10
101.735534
20
-80.559216
11
101.743567
21
-79.957544
0
LINE
8
Layer 1
10
101.743567
20
-79.957544
11
101.419172
21
-79.482074
0
LINE
8
Layer 1
10
101.419172
20
-79.482074
11
100.849468
21
-79.205626
0
LINE
8
Layer 1
10
100.849468
20
-79.205626
11
100.121576
21
-79.201021
0
LINE
8
Layer 1
10
100.121576
20
-79.201021
11
97.916715
21
-79.368591
0
LINE
8
Layer 1
10
97.916715
20
-79.368591
11
96.730922
21
-79.480291
0
LINE
8
Layer 1
10
96.730922
20
-79.480291
11
96.569152
21
-79.722456
0
LINE
8
Layer 1
10
96.569152
20
-79.722456
11
96.540882
21
-80.179980
0
LINE
8
Layer 1
10
96.540882
20
-80.179980
11
96.713664
21
-80.897384
0
LINE
8
Layer 1
10
96.713664
20
-80.897384
11
97.387548
21
-81.344146
0
LINE
8
Layer 1
10
97.387548
20
-81.344146
11
98.272993
21
-81.546083
0
LINE
8
Layer 1
10
98.272993
20
-81.546083
11
99.204354
21
-81.538174
0
LINE
8
Layer 1
10
99.204354
20
-81.538174
11
100.359471
21
-81.464831
0
LINE
8
Layer 1
10
100.359471
20
-81.464831
11
101.070287
21
-81.662492
0
LINE
8
Layer 1
10
101.070287
20
-81.662492
11
101.284698
21
-82.095651
0
LINE
8
Layer 1
10
101.284698
20
-82.095651
11
100.950604
21
-82.728799
0
LINE
8
Layer 1
10
100.950604
20
-82.728799
11
100.289146
21
-84.025257
0
LINE
8
Layer 1
10
100.289146
20
-84.025257
11
100.049270
21
-84.568345
0
LINE
8
Layer 1
10
100.049270
20
-84.568345
11
99.618980
21
-84.777943
0
LINE
8
Layer 1
10
99.618980
20
-84.777943
11
98.727817
21
-84.677344
0
LINE
8
Layer 1
10
98.727817
20
-84.677344
11
97.105326
21
-84.289841
0
LINE
8
Layer 1
10
97.105326
20
-84.289841
11
93.180673
21
-83.593105
0
LINE
8
Layer 1
10
93.180673
20
-83.593105
11
91.622563
21
-83.337552
0
LINE
8
Layer 1
10
91.622563
20
-83.337552
11
90.799423
21
-83.055119
0
LINE
8
Layer 1
10
90.799423
20
-83.055119
11
89.988034
21
-82.755257
0
LINE
8
Layer 1
10
89.988034
20
-82.755257
11
89.622041
21
-82.720557
0
LINE
8
Layer 1
10
89.622041
20
-82.720557
11
89.515917
21
-82.587757
0
LINE
8
Layer 1
10
89.515917
20
-82.587757
11
90.102687
21
-81.855674
0
LINE
8
Layer 1
10
90.102687
20
-81.855674
11
90.820858
21
-81.388296
0
LINE
8
Layer 1
10
90.820858
20
-81.388296
11
91.787201
21
-81.308869
0
LINE
8
Layer 1
10
91.787201
20
-81.308869
11
92.780476
21
-81.317202
0
LINE
8
Layer 1
10
92.780476
20
-81.317202
11
93.469496
21
-81.170823
0
LINE
8
Layer 1
10
93.469496
20
-81.170823
11
93.870790
21
-80.861956
0
LINE
8
Layer 1
10
93.870790
20
-80.861956
11
94.000882
21
-80.382827
0
LINE
8
Layer 1
10
94.000882
20
-80.382827
11
93.861370
21
-79.781889
0
LINE
8
Layer 1
10
93.861370
20
-79.781889
11
93.464222
21
-79.289032
0
LINE
8
Layer 1
10
93.464222
20
-79.289032
11
92.841514
21
-78.930764
0
LINE
8
Layer 1
10
92.841514
20
-78.930764
11
92.025326
21
-78.733591
0
LINE
8
Layer 1
10
92.025326
20
-78.733591
11
91.467594
21
-78.619436
0
LINE
8
Layer 1
10
91.467594
20
-78.619436
11
92.448659
21
-78.530744
0
LINE
8
Layer 1
10
92.448659
20
-78.530744
11
98.592373
21
-78.104360
0
LINE
8
Layer 1
10
98.592373
20
-78.104360
11
99.414246
21
-77.861921
0
LINE
8
Layer 1
10
99.414246
20
-77.861921
11
99.592409
21
-77.472410
0
LINE
8
Layer 1
10
99.592409
20
-77.472410
11
99.515884
21
-76.954190
0
LINE
8
Layer 1
10
99.515884
20
-76.954190
11
99.027965
21
-76.705119
0
LINE
8
Layer 1
10
99.027965
20
-76.705119
11
96.890122
21
-76.675866
0
LINE
8
Layer 1
10
96.890122
20
-76.675866
11
93.683382
21
-76.978521
0
LINE
8
Layer 1
10
93.683382
20
-76.978521
11
92.531785
21
-77.022287
0
LINE
8
Layer 1
10
92.531785
20
-77.022287
11
92.333204
21
-76.784623
0
LINE
8
Layer 1
10
92.333204
20
-76.784623
11
92.210534
21
-76.290605
0
LINE
8
Layer 1
10
92.210534
20
-76.290605
11
91.928260
21
-75.591695
0
LINE
8
Layer 1
10
91.928260
20
-75.591695
11
91.319771
21
-75.417480
0
LINE
8
Layer 1
10
91.319771
20
-75.417480
11
90.653785
21
-75.315676
0
LINE
8
Layer 1
10
90.653785
20
-75.315676
11
90.058590
21
-75.073521
0
LINE
8
Layer 1
10
90.058590
20
-75.073521
11
89.505618
21
-74.902707
0
LINE
8
Layer 1
10
89.505618
20
-74.902707
11
88.929701
21
-75.267549
0
LINE
8
Layer 1
10
88.929701
20
-75.267549
11
88.473397
21
-75.586707
0
LINE
8
Layer 1
10
88.473397
20
-75.586707
11
88.188868
21
-75.620327
0
LINE
8
Layer 1
10
88.188868
20
-75.620327
11
88.286891
21
-75.298746
0
LINE
8
Layer 1
10
88.286891
20
-75.298746
11
88.773253
21
-74.811629
0
LINE
8
Layer 1
10
88.773253
20
-74.811629
11
89.415010
21
-74.354034
0
LINE
8
Layer 1
10
89.415010
20
-74.354034
11
89.979215
21
-74.121021
0
LINE
8
Layer 1
10
89.979215
20
-74.121021
11
91.460882
21
-73.732966
0
LINE
8
Layer 1
10
91.460882
20
-73.732966
11
94.947737
21
-72.739563
0
LINE
8
Layer 1
10
94.947737
20
-72.739563
11
97.828521
21
-72.145466
0
LINE
8
Layer 1
10
97.828521
20
-72.145466
11
98.819321
21
-72.165762
0
LINE
8
Layer 1
10
98.819321
20
-72.165762
11
99.433659
21
-72.524702
0
LINE
8
Layer 1
10
99.433659
20
-72.524702
11
101.506229
21
-74.597271
0
LINE
8
Layer 1
10
101.506229
20
-74.597271
11
102.996715
21
-76.114216
0
LINE
8
Layer 1
10
102.996715
20
-76.114216
11
103.887235
21
-76.969705
0
LINE
8
Layer 1
10
103.887235
20
-76.969705
11
104.132389
21
-76.928477
0
LINE
8
Layer 1
10
104.132389
20
-76.928477
11
104.407826
21
-76.634563
0
LINE
8
Layer 1
10
104.407826
20
-76.634563
11
105.007174
21
-76.216615
0
LINE
8
Layer 1
10
105.007174
20
-76.216615
11
105.836576
21
-76.017202
0
LINE
8
Layer 1
10
105.836576
20
-76.017202
11
106.915320
21
-75.716007
0
LINE
8
Layer 1
10
106.915320
20
-75.716007
11
107.628007
21
-75.075610
0
LINE
8
Layer 1
10
107.628007
20
-75.075610
11
107.857287
21
-74.275419
0
LINE
8
Layer 1
10
107.857287
20
-74.275419
11
107.753979
21
-73.871465
0
LINE
8
Layer 1
10
107.753979
20
-73.871465
11
107.485812
21
-73.494841
0
LINE
8
Layer 1
10
107.485812
20
-73.494841
11
106.869399
21
-73.253073
0
LINE
8
Layer 1
10
106.869399
20
-73.253073
11
105.839740
21
-73.168994
0
LINE
8
Layer 1
10
105.839740
20
-73.168994
11
104.665183
21
-73.243429
0
LINE
8
Layer 1
10
104.665183
20
-73.243429
11
103.614076
21
-73.477202
0
LINE
8
Layer 1
10
103.614076
20
-73.477202
11
103.082207
21
-73.627236
0
LINE
8
Layer 1
10
103.082207
20
-73.627236
11
102.670164
21
-73.588055
0
LINE
8
Layer 1
10
102.670164
20
-73.588055
11
101.576784
21
-72.701091
0
LINE
8
Layer 1
10
101.576784
20
-72.701091
11
100.456715
21
-71.607480
0
LINE
8
Layer 1
10
100.456715
20
-71.607480
11
102.802687
21
-71.395813
0
LINE
8
Layer 1
10
102.802687
20
-71.395813
11
108.664123
21
-70.980788
0
LINE
8
Layer 1
10
108.664123
20
-70.980788
11
110.240967
21
-70.989734
0
LINE
8
Layer 1
10
110.240967
20
-70.989734
11
111.040048
21
-71.140049
0
LINE
8
Layer 1
10
111.040048
20
-71.140049
11
112.345326
21
-71.554563
0
LINE
8
Layer 1
10
112.345326
20
-71.554563
11
112.804494
21
-71.679237
0
LINE
8
Layer 1
10
112.804494
20
-71.679237
11
112.124840
21
-71.880882
0
LINE
8
Layer 1
10
112.124840
20
-71.880882
11
111.397574
21
-72.122452
0
LINE
8
Layer 1
10
111.397574
20
-72.122452
11
111.051459
21
-72.415889
0
LINE
8
Layer 1
10
111.051459
20
-72.415889
11
111.081079
21
-72.772552
0
LINE
8
Layer 1
10
111.081079
20
-72.772552
11
111.481021
21
-73.203799
0
LINE
8
Layer 1
10
111.481021
20
-73.203799
11
112.456924
21
-73.681687
0
LINE
8
Layer 1
10
112.456924
20
-73.681687
11
113.412633
21
-73.691808
0
LINE
8
Layer 1
10
113.412633
20
-73.691808
11
114.099272
21
-73.292560
0
LINE
8
Layer 1
10
114.099272
20
-73.292560
11
114.263916
21
-72.957672
0
LINE
8
Layer 1
10
114.263916
20
-72.957672
11
114.267965
21
-72.542341
0
LINE
8
Layer 1
10
114.267965
20
-72.542341
11
114.219586
21
-72.155590
0
LINE
8
Layer 1
10
114.219586
20
-72.155590
11
114.351449
21
-71.975462
0
LINE
8
Layer 1
10
114.351449
20
-71.975462
11
115.661437
21
-72.066091
0
LINE
8
Layer 1
10
115.661437
20
-72.066091
11
116.885163
21
-72.343550
0
LINE
8
Layer 1
10
116.885163
20
-72.343550
11
117.681090
21
-72.718730
0
LINE
8
Layer 1
10
117.681090
20
-72.718730
11
118.181947
21
-73.047729
0
LINE
8
Layer 1
10
118.181947
20
-73.047729
11
118.642775
21
-73.146159
0
LINE
8
Layer 1
10
118.642775
20
-73.146159
11
118.977742
21
-73.017645
0
LINE
8
Layer 1
10
118.977742
20
-73.017645
11
119.101021
21
-72.665813
0
LINE
8
Layer 1
10
119.101021
20
-72.665813
11
118.801150
21
-72.141128
0
LINE
8
Layer 1
10
118.801150
20
-72.141128
11
118.091337
21
-71.547323
0
LINE
8
Layer 1
10
118.091337
20
-71.547323
11
117.224907
21
-71.058561
0
LINE
8
Layer 1
10
117.224907
20
-71.058561
11
116.455187
21
-70.849007
0
LINE
8
Layer 1
10
116.455187
20
-70.849007
11
115.308659
21
-70.628521
0
LINE
8
Layer 1
10
115.308659
20
-70.628521
11
113.848406
21
-70.130463
0
LINE
8
Layer 1
10
113.848406
20
-70.130463
11
112.547206
21
-69.826874
0
LINE
8
Layer 1
10
112.547206
20
-69.826874
11
109.240882
21
-69.605466
0
LINE
8
Layer 1
10
109.240882
20
-69.605466
11
105.362956
21
-69.617124
0
LINE
8
Layer 1
10
105.362956
20
-69.617124
11
102.207367
21
-69.760556
0
LINE
8
Layer 1
10
102.207367
20
-69.760556
11
100.013101
21
-70.018266
0
LINE
8
Layer 1
10
100.013101
20
-70.018266
11
99.019146
21
-70.372757
0
LINE
8
Layer 1
10
99.019146
20
-70.372757
11
98.326951
21
-70.757807
0
LINE
8
Layer 1
10
98.326951
20
-70.757807
11
97.105326
21
-71.016577
0
LINE
8
Layer 1
10
97.105326
20
-71.016577
11
94.422145
21
-71.429043
0
LINE
8
Layer 1
10
94.422145
20
-71.429043
11
91.968610
21
-71.983103
0
LINE
8
Layer 1
10
91.968610
20
-71.983103
11
90.178433
21
-72.563223
0
LINE
8
Layer 1
10
90.178433
20
-72.563223
11
89.667638
21
-72.826951
0
LINE
8
Layer 1
10
89.667638
20
-72.826951
11
89.485326
21
-73.053869
0
LINE
8
Layer 1
10
89.485326
20
-73.053869
11
89.296313
21
-73.329638
0
LINE
8
Layer 1
10
89.296313
20
-73.329638
11
88.832687
21
-73.441924
0
LINE
8
Layer 1
10
88.832687
20
-73.441924
11
88.177807
21
-73.664328
0
LINE
8
Layer 1
10
88.177807
20
-73.664328
11
87.467111
21
-74.206982
0
LINE
8
Layer 1
10
87.467111
20
-74.206982
11
86.896807
21
-74.883043
0
LINE
8
Layer 1
10
86.896807
20
-74.883043
11
86.663104
21
-75.505674
0
LINE
8
Layer 1
10
86.663104
20
-75.505674
11
86.792229
21
-75.842478
0
LINE
8
Layer 1
10
86.792229
20
-75.842478
11
87.104076
21
-75.981924
0
LINE
8
Layer 1
10
87.104076
20
-75.981924
11
87.414940
21
-76.139258
0
LINE
8
Layer 1
10
87.414940
20
-76.139258
11
87.456854
21
-76.616924
0
LINE
8
Layer 1
10
87.456854
20
-76.616924
11
87.227627
21
-77.110039
0
LINE
8
Layer 1
10
87.227627
20
-77.110039
11
86.583729
21
-77.172549
0
LINE
8
Layer 1
10
86.583729
20
-77.172549
11
85.996131
21
-77.235504
0
LINE
8
Layer 1
10
85.996131
20
-77.235504
11
85.643719
21
-77.530118
0
LINE
8
Layer 1
10
85.643719
20
-77.530118
11
85.560669
21
-77.996520
0
LINE
8
Layer 1
10
85.560669
20
-77.996520
11
85.781159
21
-78.574841
0
LINE
8
Layer 1
10
85.781159
20
-78.574841
11
85.922437
21
-78.895136
0
LINE
8
Layer 1
10
85.922437
20
-78.895136
11
85.896632
21
-79.221741
0
LINE
8
Layer 1
10
85.896632
20
-79.221741
11
85.234354
21
-80.232896
0
LINE
8
Layer 1
10
85.234354
20
-80.232896
11
84.190763
21
-81.281562
0
LINE
8
Layer 1
10
84.190763
20
-81.281562
11
83.928541
21
-81.277666
0
LINE
8
Layer 1
10
83.928541
20
-81.277666
11
83.840882
21
-80.920813
0
LINE
8
Layer 1
10
83.840882
20
-80.920813
11
83.747910
21
-80.621834
0
LINE
8
Layer 1
10
83.747910
20
-80.621834
11
83.523382
21
-80.497480
0
LINE
8
Layer 1
10
83.523382
20
-80.497480
11
83.345139
21
-80.389935
0
LINE
8
Layer 1
10
83.345139
20
-80.389935
11
83.265723
21
-80.094817
0
LINE
8
Layer 1
10
83.265723
20
-80.094817
11
83.367419
21
-79.106947
0
LINE
8
Layer 1
10
83.367419
20
-79.106947
11
83.756558
21
-77.864048
0
LINE
8
Layer 1
10
83.756558
20
-77.864048
11
84.361229
21
-76.696299
0
LINE
8
Layer 1
10
84.361229
20
-76.696299
11
85.251993
21
-75.223452
0
LINE
8
Layer 1
10
85.251993
20
-75.223452
11
85.701526
21
-74.627063
0
LINE
8
Layer 1
10
85.701526
20
-74.627063
11
86.758694
21
-73.635293
0
LINE
8
Layer 1
10
86.758694
20
-73.635293
11
87.986348
21
-72.630623
0
LINE
8
Layer 1
10
87.986348
20
-72.630623
11
88.947340
21
-71.995535
0
LINE
8
Layer 1
10
88.947340
20
-71.995535
11
90.824163
21
-71.165883
0
LINE
8
Layer 1
10
90.824163
20
-71.165883
11
92.025326
21
-70.804910
0
LINE
8
Layer 1
10
92.025326
20
-70.804910
11
93.718659
21
-70.372757
0
LINE
8
Layer 1
10
93.718659
20
-70.372757
11
98.101923
21
-69.243869
0
LINE
8
Layer 1
10
98.101923
20
-69.243869
11
99.557132
21
-68.838174
0
LINE
8
Layer 1
10
99.557132
20
-68.838174
11
101.271481
21
-68.690445
0
LINE
8
Layer 1
10
101.271481
20
-68.690445
11
104.945812
21
-68.608869
0
LINE
8
Layer 1
10
104.945812
20
-68.608869
11
108.272791
21
-68.650611
0
LINE
8
Layer 1
10
108.272791
20
-68.650611
11
111.017378
21
-68.821432
0
LINE
8
Layer 1
10
111.017378
20
-68.821432
11
113.085383
21
-69.113072
0
LINE
8
Layer 1
10
113.085383
20
-69.113072
11
114.382618
21
-69.517271
0
LINE
8
Layer 1
10
114.382618
20
-69.517271
11
115.493868
21
-69.773035
0
LINE
8
Layer 1
10
115.493868
20
-69.773035
11
116.990252
21
-70.057664
0
LINE
8
Layer 1
10
116.990252
20
-70.057664
11
118.615951
21
-70.654980
0
LINE
8
Layer 1
10
118.615951
20
-70.654980
11
119.568451
21
-70.901924
0
LINE
8
Layer 1
10
119.568451
20
-70.901924
11
120.452014
21
-71.169455
0
LINE
8
Layer 1
10
120.452014
20
-71.169455
11
121.782210
21
-71.793933
0
LINE
8
Layer 1
10
121.782210
20
-71.793933
11
123.041811
21
-72.508188
0
LINE
8
Layer 1
10
123.041811
20
-72.508188
11
123.713590
21
-73.045049
0
LINE
8
Layer 1
10
123.713590
20
-73.045049
11
124.180207
21
-73.484053
0
LINE
8
Layer 1
10
124.180207
20
-73.484053
11
124.983590
21
-73.979910
0
LINE
8
Layer 1
10
124.983590
20
-73.979910
11
125.862869
21
-74.555370
0
LINE
8
Layer 1
10
125.862869
20
-74.555370
11
126.586281
21
-75.335920
0
LINE
8
Layer 1
10
126.586281
20
-75.335920
11
127.213903
21
-76.404194
0
LINE
8
Layer 1
10
127.213903
20
-76.404194
11
127.805812
21
-77.842827
0
LINE
8
Layer 1
10
127.805812
20
-77.842827
11
128.228136
21
-79.100591
0
LINE
8
Layer 1
10
128.228136
20
-79.100591
11
128.388348
21
-79.959028
0
LINE
8
Layer 1
10
128.388348
20
-79.959028
11
128.296980
21
-80.689816
0
LINE
8
Layer 1
10
128.296980
20
-80.689816
11
127.964562
21
-81.564632
0
LINE
8
Layer 1
10
127.964562
20
-81.564632
11
127.522041
21
-82.305800
0
LINE
8
Layer 1
10
127.522041
20
-82.305800
11
126.931000
21
-82.857223
0
LINE
8
Layer 1
10
126.931000
20
-82.857223
11
126.217330
21
-83.201118
0
LINE
8
Layer 1
10
126.217330
20
-83.201118
11
125.406923
21
-83.319702
0
LINE
8
Layer 1
10
125.406923
20
-83.319702
11
125.000892
21
-83.358785
0
LINE
8
Layer 1
10
125.000892
20
-83.358785
11
124.805255
21
-83.489335
0
LINE
8
Layer 1
10
124.805255
20
-83.489335
11
125.001229
21
-84.104632
0
LINE
8
Layer 1
10
125.001229
20
-84.104632
11
125.497427
21
-84.295709
0
LINE
8
Layer 1
10
125.497427
20
-84.295709
11
126.363502
21
-84.294191
0
LINE
8
Layer 1
10
126.363502
20
-84.294191
11
127.234152
21
-84.133953
0
LINE
8
Layer 1
10
127.234152
20
-84.133953
11
127.744076
21
-83.848869
0
LINE
8
Layer 1
10
127.744076
20
-83.848869
11
128.146477
21
-83.674833
0
LINE
8
Layer 1
10
128.146477
20
-83.674833
11
128.899423
21
-83.601924
0
LINE
8
Layer 1
10
128.899423
20
-83.601924
11
129.644556
21
-83.515482
0
LINE
8
Layer 1
10
129.644556
20
-83.515482
11
129.771224
21
-83.395536
0
LINE
8
Layer 1
10
129.771224
20
-83.395536
11
129.754909
21
-83.213869
0
LINE
8
Layer 1
10
129.754909
20
-83.213869
11
129.772867
21
-82.576235
0
LINE
8
Layer 1
10
129.772867
20
-82.576235
11
130.028312
21
-81.591091
0
LINE
8
Layer 1
10
130.028312
20
-81.591091
11
130.247933
21
-80.662799
0
LINE
8
Layer 1
10
130.247933
20
-80.662799
11
130.288258
21
-79.685206
0
LINE
8
Layer 1
10
130.288258
20
-79.685206
11
130.154012
21
-78.670999
0
LINE
8
Layer 1
10
130.154012
20
-78.670999
11
129.849925
21
-77.632866
0
LINE
8
Layer 1
10
129.849925
20
-77.632866
11
128.751134
21
-75.535576
0
LINE
8
Layer 1
10
128.751134
20
-75.535576
11
127.029701
21
-73.494841
0
LINE
8
Layer 1
10
127.029701
20
-73.494841
11
125.503735
21
-72.172942
0
LINE
8
Layer 1
10
125.503735
20
-72.172942
11
123.824366
21
-70.975835
0
LINE
8
Layer 1
10
123.824366
20
-70.975835
11
122.307889
21
-70.107779
0
LINE
8
Layer 1
10
122.307889
20
-70.107779
11
121.270604
21
-69.773035
0
LINE
8
Layer 1
10
121.270604
20
-69.773035
11
120.309284
21
-69.526091
0
LINE
8
Layer 1
10
120.309284
20
-69.526091
11
118.815745
21
-68.877481
0
LINE
8
Layer 1
10
118.815745
20
-68.877481
11
117.425326
21
-68.529494
0
LINE
8
Layer 1
10
117.425326
20
-68.529494
11
115.590882
21
-68.238452
0
LINE
8
Layer 1
10
115.590882
20
-68.238452
11
114.038659
21
-67.938591
0
LINE
8
Layer 1
10
114.038659
20
-67.938591
11
111.216437
21
-67.488799
0
LINE
8
Layer 1
10
111.216437
20
-67.488799
11
108.746993
21
-67.091924
0
LINE
8
Layer 1
10
108.746993
20
-67.091924
11
105.783659
21
-66.959632
0
LINE
8
Layer 1
10
105.783659
20
-66.959632
11
102.535625
21
-67.132314
0
LINE
8
Layer 1
10
102.535625
20
-67.132314
11
97.387548
21
-67.947410
0
LINE
8
Layer 1
10
97.387548
20
-67.947410
11
94.706437
21
-68.361924
0
LINE
8
Layer 1
10
94.706437
20
-68.361924
11
92.025326
21
-68.970466
0
LINE
8
Layer 1
10
92.025326
20
-68.970466
11
90.755326
21
-69.490813
0
LINE
8
Layer 1
10
90.755326
20
-69.490813
11
89.192937
21
-70.143373
0
LINE
8
Layer 1
10
89.192937
20
-70.143373
11
87.718267
21
-70.916941
0
LINE
8
Layer 1
10
87.718267
20
-70.916941
11
86.439210
21
-71.749146
0
LINE
8
Layer 1
10
86.439210
20
-71.749146
11
85.463659
21
-72.577619
0
LINE
8
Layer 1
10
85.463659
20
-72.577619
11
84.378868
21
-73.441924
0
LINE
8
Layer 1
10
84.378868
20
-73.441924
11
84.068656
21
-73.711358
0
LINE
8
Layer 1
10
84.068656
20
-73.711358
11
83.664493
21
-74.359146
0
LINE
8
Layer 1
10
83.664493
20
-74.359146
11
82.350396
21
-76.352341
0
LINE
8
Layer 1
10
82.350396
20
-76.352341
11
81.512548
21
-77.419494
0
LINE
8
Layer 1
10
81.512548
20
-77.419494
11
81.071576
21
-76.775674
0
LINE
8
Layer 1
10
81.071576
20
-76.775674
11
80.510953
21
-76.083717
0
LINE
8
Layer 1
10
80.510953
20
-76.083717
11
80.044568
21
-75.748559
0
LINE
8
Layer 1
10
80.044568
20
-75.748559
11
79.725680
21
-75.790257
0
LINE
8
Layer 1
10
79.725680
20
-75.790257
11
79.607548
21
-76.228869
0
LINE
8
Layer 1
10
79.607548
20
-76.228869
11
79.759313
21
-76.798339
0
LINE
8
Layer 1
10
79.759313
20
-76.798339
11
80.127896
21
-77.428313
0
LINE
8
Layer 1
10
80.127896
20
-77.428313
11
80.877548
21
-78.804146
0
LINE
8
Layer 1
10
80.877548
20
-78.804146
11
81.759493
21
-80.382827
0
LINE
8
Layer 1
10
81.759493
20
-80.382827
11
82.429771
21
-81.555813
0
LINE
8
Layer 1
10
82.429771
20
-81.555813
11
82.554125
21
-81.812651
0
LINE
8
Layer 1
10
82.554125
20
-81.812651
11
82.853104
21
-82.014424
0
LINE
8
Layer 1
10
82.853104
20
-82.014424
11
83.216857
21
-82.239772
0
LINE
8
Layer 1
10
83.216857
20
-82.239772
11
83.205701
21
-82.487769
0
LINE
8
Layer 1
10
83.205701
20
-82.487769
11
82.076993
21
-83.028660
0
LINE
8
Layer 1
10
82.076993
20
-83.028660
11
79.969146
21
-83.831230
0
LINE
8
Layer 1
10
79.969146
20
-83.831230
11
78.972548
21
-84.157549
0
LINE
8
Layer 1
10
78.972548
20
-84.157549
11
77.411507
21
-82.287827
0
LINE
8
Layer 1
10
77.411507
20
-82.287827
11
75.938659
21
-80.541577
0
LINE
8
Layer 1
10
75.938659
20
-80.541577
11
75.938659
21
-75.461577
0
LINE
8
Layer 1
10
75.938659
20
-75.461577
11
75.938659
21
-70.381577
0
LINE
8
Layer 1
10
75.938659
20
-70.381577
11
77.984771
21
-70.240466
0
LINE
8
Layer 1
10
77.984771
20
-70.240466
11
81.441993
21
-69.808313
0
LINE
8
Layer 1
10
81.441993
20
-69.808313
11
84.123104
21
-69.261507
0
LINE
8
Layer 1
10
84.123104
20
-69.261507
11
85.816437
21
-68.838174
0
LINE
8
Layer 1
10
85.816437
20
-68.838174
11
87.933104
21
-68.529494
0
LINE
8
Layer 1
10
87.933104
20
-68.529494
11
90.318312
21
-68.234117
0
LINE
8
Layer 1
10
90.318312
20
-68.234117
11
91.884215
21
-67.797480
0
LINE
8
Layer 1
10
91.884215
20
-67.797480
11
95.553104
21
-67.215396
0
LINE
8
Layer 1
10
95.553104
20
-67.215396
11
97.832598
21
-66.901737
0
LINE
8
Layer 1
10
97.832598
20
-66.901737
11
98.957409
21
-66.633313
0
LINE
8
Layer 1
10
98.957409
20
-66.633313
11
99.713125
21
-66.431137
0
LINE
8
Layer 1
10
99.713125
20
-66.431137
11
101.100534
21
-66.280535
0
LINE
8
Layer 1
10
101.100534
20
-66.280535
11
102.558725
21
-66.122048
0
LINE
8
Layer 1
10
102.558725
20
-66.122048
11
103.481784
21
-65.892480
0
LINE
8
Layer 1
10
103.481784
20
-65.892480
11
105.854215
21
-65.398591
0
LINE
8
Layer 1
10
105.854215
20
-65.398591
11
107.979701
21
-64.957619
0
LINE
8
Layer 1
10
107.979701
20
-64.957619
11
108.778925
21
-64.751867
0
LINE
8
Layer 1
10
108.778925
20
-64.751867
11
110.281576
21
-64.596021
0
LINE
8
Layer 1
10
110.281576
20
-64.596021
11
112.618729
21
-64.278521
0
LINE
8
Layer 1
10
112.618729
20
-64.278521
11
113.703521
21
-63.969841
0
LINE
8
Layer 1
10
113.703521
20
-63.969841
11
119.956507
21
-62.973244
0
LINE
8
Layer 1
10
119.956507
20
-62.973244
11
120.062340
21
-62.955605
0
LINE
8
Layer 1
10
120.062340
20
-62.955605
11
120.062340
21
-62.955605
0
LINE
8
Layer 1
10
41.481090
20
-63.846369
11
40.151355
21
-64.591474
0
LINE
8
Layer 1
10
40.151355
20
-64.591474
11
38.923451
21
-65.627896
0
LINE
8
Layer 1
10
38.923451
20
-65.627896
11
38.673145
21
-66.400898
0
LINE
8
Layer 1
10
38.673145
20
-66.400898
11
38.519722
21
-67.527811
0
LINE
8
Layer 1
10
38.519722
20
-67.527811
11
38.553034
21
-70.214007
0
LINE
8
Layer 1
10
38.553034
20
-70.214007
11
38.861976
21
-71.863556
0
LINE
8
Layer 1
10
38.861976
20
-71.863556
11
39.149945
21
-72.267730
0
LINE
8
Layer 1
10
39.149945
20
-72.267730
11
39.620187
21
-72.604077
0
LINE
8
Layer 1
10
39.620187
20
-72.604077
11
40.484493
21
-73.133244
0
LINE
8
Layer 1
10
40.484493
20
-73.133244
11
39.708382
21
-73.433105
0
LINE
8
Layer 1
10
39.708382
20
-73.433105
11
38.129701
21
-73.724146
0
LINE
8
Layer 1
10
38.129701
20
-73.724146
11
37.507348
21
-73.833724
0
LINE
8
Layer 1
10
37.507348
20
-73.833724
11
37.038158
21
-74.122188
0
LINE
8
Layer 1
10
37.038158
20
-74.122188
11
36.784011
21
-74.529130
0
LINE
8
Layer 1
10
36.784011
20
-74.529130
11
36.806784
21
-74.994146
0
LINE
8
Layer 1
10
36.806784
20
-74.994146
11
37.004772
21
-75.203383
0
LINE
8
Layer 1
10
37.004772
20
-75.203383
11
37.469487
21
-75.333287
0
LINE
8
Layer 1
10
37.469487
20
-75.333287
11
39.593729
21
-75.417480
0
LINE
8
Layer 1
10
39.593729
20
-75.417480
11
41.910030
21
-75.305237
0
LINE
8
Layer 1
10
41.910030
20
-75.305237
11
42.514380
21
-75.105489
0
LINE
8
Layer 1
10
42.514380
20
-75.105489
11
43.033312
21
-74.756021
0
LINE
8
Layer 1
10
43.033312
20
-74.756021
11
43.540634
21
-74.196466
0
LINE
8
Layer 1
10
43.540634
20
-74.196466
11
43.688305
21
-73.682190
0
LINE
8
Layer 1
10
43.688305
20
-73.682190
11
43.482022
21
-73.305750
0
LINE
8
Layer 1
10
43.482022
20
-73.305750
11
42.927479
21
-73.159702
0
LINE
8
Layer 1
10
42.927479
20
-73.159702
11
42.510650
21
-73.112715
0
LINE
8
Layer 1
10
42.510650
20
-73.112715
11
42.390875
21
-72.949883
0
LINE
8
Layer 1
10
42.390875
20
-72.949883
11
43.059771
21
-72.145466
0
LINE
8
Layer 1
10
43.059771
20
-72.145466
11
43.626312
21
-71.344376
0
LINE
8
Layer 1
10
43.626312
20
-71.344376
11
43.765326
21
-70.090535
0
LINE
8
Layer 1
10
43.765326
20
-70.090535
11
43.670491
21
-69.033662
0
LINE
8
Layer 1
10
43.670491
20
-69.033662
11
43.412548
21
-68.564771
0
LINE
8
Layer 1
10
43.412548
20
-68.564771
11
43.200882
21
-68.386796
0
LINE
8
Layer 1
10
43.200882
20
-68.386796
11
43.412548
21
-68.062063
0
LINE
8
Layer 1
10
43.412548
20
-68.062063
11
43.737043
21
-67.450585
0
LINE
8
Layer 1
10
43.737043
20
-67.450585
11
43.726252
21
-66.699727
0
LINE
8
Layer 1
10
43.726252
20
-66.699727
11
43.391040
21
-65.858336
0
LINE
8
Layer 1
10
43.391040
20
-65.858336
11
42.742271
21
-64.975257
0
LINE
8
Layer 1
10
42.742271
20
-64.975257
11
41.481090
21
-63.846369
0
LINE
8
Layer 1
10
41.481090
20
-63.846369
11
41.481090
21
-63.846369
0
LINE
8
Layer 1
10
55.257062
20
-64.507827
11
54.695521
21
-64.566027
0
LINE
8
Layer 1
10
54.695521
20
-64.566027
11
54.202826
21
-64.764374
0
LINE
8
Layer 1
10
54.202826
20
-64.764374
11
53.431404
21
-65.569709
0
LINE
8
Layer 1
10
53.431404
20
-65.569709
11
52.957655
21
-66.900231
0
LINE
8
Layer 1
10
52.957655
20
-66.900231
11
52.796437
21
-68.732341
0
LINE
8
Layer 1
10
52.796437
20
-68.732341
11
52.889724
21
-70.375971
0
LINE
8
Layer 1
10
52.889724
20
-70.375971
11
53.195867
21
-71.555033
0
LINE
8
Layer 1
10
53.195867
20
-71.555033
11
53.754291
21
-72.356829
0
LINE
8
Layer 1
10
53.754291
20
-72.356829
11
54.604423
21
-72.868660
0
LINE
8
Layer 1
10
54.604423
20
-72.868660
11
55.209816
21
-73.179718
0
LINE
8
Layer 1
10
55.209816
20
-73.179718
11
55.417288
21
-73.454081
0
LINE
8
Layer 1
10
55.417288
20
-73.454081
11
55.224939
21
-73.649606
0
LINE
8
Layer 1
10
55.224939
20
-73.649606
11
54.630868
21
-73.724146
0
LINE
8
Layer 1
10
54.630868
20
-73.724146
11
54.106178
21
-73.895616
0
LINE
8
Layer 1
10
54.106178
20
-73.895616
11
53.769442
21
-74.301932
0
LINE
8
Layer 1
10
53.769442
20
-74.301932
11
53.695849
21
-74.780952
0
LINE
8
Layer 1
10
53.695849
20
-74.780952
11
53.960590
21
-75.170535
0
LINE
8
Layer 1
10
53.960590
20
-75.170535
11
54.630868
21
-75.408660
0
LINE
8
Layer 1
10
54.630868
20
-75.408660
11
55.898870
21
-75.054278
0
LINE
8
Layer 1
10
55.898870
20
-75.054278
11
57.232604
21
-74.482619
0
LINE
8
Layer 1
10
57.232604
20
-74.482619
11
57.769931
21
-74.380566
0
LINE
8
Layer 1
10
57.769931
20
-74.380566
11
58.573159
21
-74.447341
0
LINE
8
Layer 1
10
58.573159
20
-74.447341
11
59.396261
21
-74.503116
0
LINE
8
Layer 1
10
59.396261
20
-74.503116
11
59.535839
21
-74.357728
0
LINE
8
Layer 1
10
59.535839
20
-74.357728
11
59.569756
21
-74.068105
0
LINE
8
Layer 1
10
59.569756
20
-74.068105
11
59.274137
21
-73.494748
0
LINE
8
Layer 1
10
59.274137
20
-73.494748
11
58.580796
21
-73.009609
0
LINE
8
Layer 1
10
58.580796
20
-73.009609
11
57.780008
21
-72.756062
0
LINE
8
Layer 1
10
57.780008
20
-72.756062
11
57.162048
21
-72.877480
0
LINE
8
Layer 1
10
57.162048
20
-72.877480
11
56.735772
21
-73.079640
0
LINE
8
Layer 1
10
56.735772
20
-73.079640
11
56.262465
21
-73.106785
0
LINE
8
Layer 1
10
56.262465
20
-73.106785
11
56.065823
21
-73.029446
0
LINE
8
Layer 1
10
56.065823
20
-73.029446
11
56.076942
21
-72.896471
0
LINE
8
Layer 1
10
56.076942
20
-72.896471
11
56.782812
21
-72.374771
0
LINE
8
Layer 1
10
56.782812
20
-72.374771
11
57.542701
21
-71.720287
0
LINE
8
Layer 1
10
57.542701
20
-71.720287
11
57.967848
21
-70.942328
0
LINE
8
Layer 1
10
57.967848
20
-70.942328
11
58.036397
21
-70.113298
0
LINE
8
Layer 1
10
58.036397
20
-70.113298
11
57.726493
21
-69.305605
0
LINE
8
Layer 1
10
57.726493
20
-69.305605
11
57.440746
21
-68.649359
0
LINE
8
Layer 1
10
57.440746
20
-68.649359
11
57.708854
21
-68.009146
0
LINE
8
Layer 1
10
57.708854
20
-68.009146
11
57.938411
21
-67.488739
0
LINE
8
Layer 1
10
57.938411
20
-67.488739
11
57.994999
21
-66.941767
0
LINE
8
Layer 1
10
57.994999
20
-66.941767
11
57.652210
21
-65.870426
0
LINE
8
Layer 1
10
57.652210
20
-65.870426
11
56.806371
21
-64.999731
0
LINE
8
Layer 1
10
56.806371
20
-64.999731
11
56.234147
21
-64.703564
0
LINE
8
Layer 1
10
56.234147
20
-64.703564
11
55.583368
21
-64.534285
0
LINE
8
Layer 1
10
55.583368
20
-64.534285
11
55.257048
21
-64.507841
0
LINE
8
Layer 1
10
55.257048
20
-64.507841
11
55.257062
21
-64.507827
0
LINE
8
Layer 1
10
62.683034
20
-68.670605
11
63.247479
21
-69.146855
0
LINE
8
Layer 1
10
63.247479
20
-69.146855
11
63.614379
21
-69.892513
0
LINE
8
Layer 1
10
63.614379
20
-69.892513
11
63.697271
21
-70.822549
0
LINE
8
Layer 1
10
63.697271
20
-70.822549
11
63.545681
21
-71.700529
0
LINE
8
Layer 1
10
63.545681
20
-71.700529
11
63.285439
21
-71.920441
0
LINE
8
Layer 1
10
63.285439
20
-71.920441
11
62.975349
21
-71.503212
0
LINE
8
Layer 1
10
62.975349
20
-71.503212
11
62.674215
21
-70.469771
0
LINE
8
Layer 1
10
62.674215
20
-70.469771
11
62.485794
21
-69.172299
0
LINE
8
Layer 1
10
62.485794
20
-69.172299
11
62.630118
21
-68.679424
0
LINE
8
Layer 1
10
62.630118
20
-68.679424
11
62.683034
21
-68.670619
0
LINE
8
Layer 1
10
62.683034
20
-68.670619
11
62.683034
21
-68.670605
0
LINE
8
Layer 1
10
96.117548
20
-72.930396
11
95.786199
21
-73.028125
0
LINE
8
Layer 1
10
95.786199
20
-73.028125
11
95.509007
21
-73.309632
0
LINE
8
Layer 1
10
95.509007
20
-73.309632
11
95.233014
21
-73.779881
0
LINE
8
Layer 1
10
95.233014
20
-73.779881
11
95.150188
21
-74.193773
0
LINE
8
Layer 1
10
95.150188
20
-74.193773
11
95.262205
21
-74.582313
0
LINE
8
Layer 1
10
95.262205
20
-74.582313
11
95.570743
21
-74.976507
0
LINE
8
Layer 1
10
95.570743
20
-74.976507
11
96.273238
21
-75.306965
0
LINE
8
Layer 1
10
96.273238
20
-75.306965
11
97.475743
21
-75.417480
0
LINE
8
Layer 1
10
97.475743
20
-75.417480
11
99.092121
21
-75.239544
0
LINE
8
Layer 1
10
99.092121
20
-75.239544
11
99.479607
21
-74.960659
0
LINE
8
Layer 1
10
99.479607
20
-74.960659
11
99.724701
21
-74.500257
0
LINE
8
Layer 1
10
99.724701
20
-74.500257
11
99.762108
21
-74.244229
0
LINE
8
Layer 1
10
99.762108
20
-74.244229
11
99.651949
21
-74.024106
0
LINE
8
Layer 1
10
99.651949
20
-74.024106
11
98.904493
21
-73.591855
0
LINE
8
Layer 1
10
98.904493
20
-73.591855
11
97.713868
21
-73.212619
0
LINE
8
Layer 1
10
97.713868
20
-73.212619
11
96.708451
21
-73.027410
0
LINE
8
Layer 1
10
96.708451
20
-73.027410
11
96.117548
21
-72.930396
0
LINE
8
Layer 1
10
96.117548
20
-72.930396
11
96.117548
21
-72.930396
0
LINE
8
Layer 1
10
35.422132
20
-74.323869
11
34.954701
21
-74.517896
0
LINE
8
Layer 1
10
34.954701
20
-74.517896
11
34.791524
21
-74.859112
0
LINE
8
Layer 1
10
34.791524
20
-74.859112
11
34.822409
21
-75.258730
0
LINE
8
Layer 1
10
34.822409
20
-75.258730
11
35.137649
21
-75.618770
0
LINE
8
Layer 1
10
35.137649
20
-75.618770
11
35.580342
21
-75.704998
0
LINE
8
Layer 1
10
35.580342
20
-75.704998
11
35.974798
21
-75.535019
0
LINE
8
Layer 1
10
35.974798
20
-75.535019
11
36.145326
21
-75.126438
0
LINE
8
Layer 1
10
36.145326
20
-75.126438
11
35.919901
21
-74.559497
0
LINE
8
Layer 1
10
35.919901
20
-74.559497
11
35.422132
21
-74.323869
0
LINE
8
Layer 1
10
35.422132
20
-74.323869
11
35.422132
21
-74.323869
0
LINE
8
Layer 1
10
93.983243
20
-74.570813
11
93.823888
21
-74.653716
0
LINE
8
Layer 1
10
93.823888
20
-74.653716
11
93.859771
21
-74.853035
0
LINE
8
Layer 1
10
93.859771
20
-74.853035
11
94.159632
21
-75.135257
0
LINE
8
Layer 1
10
94.159632
20
-75.135257
11
94.283104
21
-74.853035
0
LINE
8
Layer 1
10
94.283104
20
-74.853035
11
94.194817
21
-74.653716
0
LINE
8
Layer 1
10
94.194817
20
-74.653716
11
93.983243
21
-74.570813
0
LINE
8
Layer 1
10
93.983243
20
-74.570813
11
93.983243
21
-74.570813
0
LINE
8
Layer 1
10
79.166576
20
-74.853035
11
79.043104
21
-75.135257
0
LINE
8
Layer 1
10
79.043104
20
-75.135257
11
79.131391
21
-75.334577
0
LINE
8
Layer 1
10
79.131391
20
-75.334577
11
79.342965
21
-75.417480
0
LINE
8
Layer 1
10
79.342965
20
-75.417480
11
79.502320
21
-75.334577
0
LINE
8
Layer 1
10
79.502320
20
-75.334577
11
79.466437
21
-75.135257
0
LINE
8
Layer 1
10
79.466437
20
-75.135257
11
79.166576
21
-74.853035
0
LINE
8
Layer 1
10
79.166576
20
-74.853035
11
79.166576
21
-74.853035
0
LINE
8
Layer 1
10
113.050882
20
-75.443938
11
112.480710
21
-75.541497
0
LINE
8
Layer 1
10
112.480710
20
-75.541497
11
112.177757
21
-75.805535
0
LINE
8
Layer 1
10
112.177757
20
-75.805535
11
112.142181
21
-76.246293
0
LINE
8
Layer 1
10
112.142181
20
-76.246293
11
112.341960
21
-76.661291
0
LINE
8
Layer 1
10
112.341960
20
-76.661291
11
112.735244
21
-76.996779
0
LINE
8
Layer 1
10
112.735244
20
-76.996779
11
113.280187
21
-77.199007
0
LINE
8
Layer 1
10
113.280187
20
-77.199007
11
115.282598
21
-77.267711
0
LINE
8
Layer 1
10
115.282598
20
-77.267711
11
116.112354
21
-77.133718
0
LINE
8
Layer 1
10
116.112354
20
-77.133718
11
116.499284
21
-76.916785
0
LINE
8
Layer 1
10
116.499284
20
-76.916785
11
116.474896
21
-76.644638
0
LINE
8
Layer 1
10
116.474896
20
-76.644638
11
116.250212
21
-76.376041
0
LINE
8
Layer 1
10
116.250212
20
-76.376041
11
115.368169
21
-75.892703
0
LINE
8
Layer 1
10
115.368169
20
-75.892703
11
114.189583
21
-75.553195
0
LINE
8
Layer 1
10
114.189583
20
-75.553195
11
113.050882
21
-75.443938
0
LINE
8
Layer 1
10
113.050882
20
-75.443938
11
113.050882
21
-75.443938
0
LINE
8
Layer 1
10
46.808034
20
-75.549771
11
46.499354
21
-75.585049
0
LINE
8
Layer 1
10
46.499354
20
-75.585049
11
46.084813
21
-75.901554
0
LINE
8
Layer 1
10
46.084813
20
-75.901554
11
46.088126
21
-76.368395
0
LINE
8
Layer 1
10
46.088126
20
-76.368395
11
46.460213
21
-76.860281
0
LINE
8
Layer 1
10
46.460213
20
-76.860281
11
47.151993
21
-77.251924
0
LINE
8
Layer 1
10
47.151993
20
-77.251924
11
48.384825
21
-77.585061
0
LINE
8
Layer 1
10
48.384825
20
-77.585061
11
49.224156
21
-77.585031
0
LINE
8
Layer 1
10
49.224156
20
-77.585031
11
49.605079
21
-77.268517
0
LINE
8
Layer 1
10
49.605079
20
-77.268517
11
49.462687
21
-76.652202
0
LINE
8
Layer 1
10
49.462687
20
-76.652202
11
49.046748
21
-76.267062
0
LINE
8
Layer 1
10
49.046748
20
-76.267062
11
48.343910
21
-75.911426
0
LINE
8
Layer 1
10
48.343910
20
-75.911426
11
46.808034
21
-75.549771
0
LINE
8
Layer 1
10
46.808034
20
-75.549771
11
46.808034
21
-75.549771
0
LINE
8
Layer 1
10
27.581647
20
-76.546369
11
27.109722
21
-76.713377
0
LINE
8
Layer 1
10
27.109722
20
-76.713377
11
26.707714
21
-77.185746
0
LINE
8
Layer 1
10
26.707714
20
-77.185746
11
26.383513
21
-77.920487
0
LINE
8
Layer 1
10
26.383513
20
-77.920487
11
26.145010
21
-78.874615
0
LINE
8
Layer 1
10
26.145010
20
-78.874615
11
25.956667
21
-81.269084
0
LINE
8
Layer 1
10
25.956667
20
-81.269084
11
26.205814
21
-84.025257
0
LINE
8
Layer 1
10
26.205814
20
-84.025257
11
26.856187
21
-86.589590
0
LINE
8
Layer 1
10
26.856187
20
-86.589590
11
27.302653
21
-87.454014
0
LINE
8
Layer 1
10
27.302653
20
-87.454014
11
27.890327
21
-88.188035
0
LINE
8
Layer 1
10
27.890327
20
-88.188035
11
28.764034
21
-88.917368
0
LINE
8
Layer 1
10
28.764034
20
-88.917368
11
29.044272
21
-88.865452
0
LINE
8
Layer 1
10
29.044272
20
-88.865452
11
29.345534
21
-88.567271
0
LINE
8
Layer 1
10
29.345534
20
-88.567271
11
29.501279
21
-88.143816
0
LINE
8
Layer 1
10
29.501279
20
-88.143816
11
29.142687
21
-87.650049
0
LINE
8
Layer 1
10
29.142687
20
-87.650049
11
28.654444
21
-86.742577
0
LINE
8
Layer 1
10
28.654444
20
-86.742577
11
28.260743
21
-85.154146
0
LINE
8
Layer 1
10
28.260743
20
-85.154146
11
27.652202
21
-82.314285
0
LINE
8
Layer 1
10
27.652202
20
-82.314285
11
27.459836
21
-81.335563
0
LINE
8
Layer 1
10
27.459836
20
-81.335563
11
27.401957
21
-80.282602
0
LINE
8
Layer 1
10
27.401957
20
-80.282602
11
27.475811
21
-79.403225
0
LINE
8
Layer 1
10
27.475811
20
-79.403225
11
27.678647
21
-78.945257
0
LINE
8
Layer 1
10
27.678647
20
-78.945257
11
27.912842
21
-78.455569
0
LINE
8
Layer 1
10
27.912842
20
-78.455569
11
27.964683
21
-77.643713
0
LINE
8
Layer 1
10
27.964683
20
-77.643713
11
27.849253
21
-76.882908
0
LINE
8
Layer 1
10
27.849253
20
-76.882908
11
27.581633
21
-76.546369
0
LINE
8
Layer 1
10
27.581633
20
-76.546369
11
27.581647
21
-76.546369
0
LINE
8
Layer 1
10
53.907687
20
-76.890327
11
53.489013
21
-77.183066
0
LINE
8
Layer 1
10
53.489013
20
-77.183066
11
53.412939
21
-77.489870
0
LINE
8
Layer 1
10
53.412939
20
-77.489870
11
53.475534
21
-77.851646
0
LINE
8
Layer 1
10
53.475534
20
-77.851646
11
53.702895
21
-78.198135
0
LINE
8
Layer 1
10
53.702895
20
-78.198135
11
54.128173
21
-77.869285
0
LINE
8
Layer 1
10
54.128173
20
-77.869285
11
54.432185
21
-77.425297
0
LINE
8
Layer 1
10
54.432185
20
-77.425297
11
54.260465
21
-77.057896
0
LINE
8
Layer 1
10
54.260465
20
-77.057896
11
53.907687
21
-76.890327
0
LINE
8
Layer 1
10
53.907687
20
-76.890327
11
53.907687
21
-76.890327
0
LINE
8
Layer 1
10
88.912062
20
-77.154910
11
89.124315
21
-77.429306
0
LINE
8
Layer 1
10
89.124315
20
-77.429306
11
89.203104
21
-78.222063
0
LINE
8
Layer 1
10
89.203104
20
-78.222063
11
89.118813
21
-79.440977
0
LINE
8
Layer 1
10
89.118813
20
-79.440977
11
88.639516
21
-80.491086
0
LINE
8
Layer 1
10
88.639516
20
-80.491086
11
87.425571
21
-81.855278
0
LINE
8
Layer 1
10
87.425571
20
-81.855278
11
85.137340
21
-84.016438
0
LINE
8
Layer 1
10
85.137340
20
-84.016438
11
83.523382
21
-85.295257
0
LINE
8
Layer 1
10
83.523382
20
-85.295257
11
82.582214
21
-86.020111
0
LINE
8
Layer 1
10
82.582214
20
-86.020111
11
81.865326
21
-86.970952
0
LINE
8
Layer 1
10
81.865326
20
-86.970952
11
82.279840
21
-88.011646
0
LINE
8
Layer 1
10
82.279840
20
-88.011646
11
82.600998
21
-89.315686
0
LINE
8
Layer 1
10
82.600998
20
-89.315686
11
82.703173
21
-91.698174
0
LINE
8
Layer 1
10
82.703173
20
-91.698174
11
82.806282
21
-93.785772
0
LINE
8
Layer 1
10
82.806282
20
-93.785772
11
83.144953
21
-95.281349
0
LINE
8
Layer 1
10
83.144953
20
-95.281349
11
83.767647
21
-96.317074
0
LINE
8
Layer 1
10
83.767647
20
-96.317074
11
84.722826
21
-97.025119
0
LINE
8
Layer 1
10
84.722826
20
-97.025119
11
85.296140
21
-97.467944
0
LINE
8
Layer 1
10
85.296140
20
-97.467944
11
85.534215
21
-97.942341
0
LINE
8
Layer 1
10
85.534215
20
-97.942341
11
85.886552
21
-98.564206
0
LINE
8
Layer 1
10
85.886552
20
-98.564206
11
86.733659
21
-99.362271
0
LINE
8
Layer 1
10
86.733659
20
-99.362271
11
87.462343
21
-99.888584
0
LINE
8
Layer 1
10
87.462343
20
-99.888584
11
88.088974
21
-100.147368
0
LINE
8
Layer 1
10
88.088974
20
-100.147368
11
90.331993
21
-100.147202
0
LINE
8
Layer 1
10
90.331993
20
-100.147202
11
93.970998
21
-99.826912
0
LINE
8
Layer 1
10
93.970998
20
-99.826912
11
95.861784
21
-99.362271
0
LINE
8
Layer 1
10
95.861784
20
-99.362271
11
96.440032
21
-99.189110
0
LINE
8
Layer 1
10
96.440032
20
-99.189110
11
96.990673
21
-99.185882
0
LINE
8
Layer 1
10
96.990673
20
-99.185882
11
97.192041
21
-99.265274
0
LINE
8
Layer 1
10
97.192041
20
-99.265274
11
97.177484
21
-99.379349
0
LINE
8
Layer 1
10
97.177484
20
-99.379349
11
96.435048
21
-99.776785
0
LINE
8
Layer 1
10
96.435048
20
-99.776785
11
94.688798
21
-100.253035
0
LINE
8
Layer 1
10
94.688798
20
-100.253035
11
94.179591
21
-100.325596
0
LINE
8
Layer 1
10
94.179591
20
-100.325596
11
93.877409
21
-100.499980
0
LINE
8
Layer 1
10
93.877409
20
-100.499980
11
93.332404
21
-100.726681
0
LINE
8
Layer 1
10
93.332404
20
-100.726681
11
92.236993
21
-100.923313
0
LINE
8
Layer 1
10
92.236993
20
-100.923313
11
89.274241
21
-101.318994
0
LINE
8
Layer 1
10
89.274241
20
-101.318994
11
87.933104
21
-101.664146
0
LINE
8
Layer 1
10
87.933104
20
-101.664146
11
86.813034
21
-101.999285
0
LINE
8
Layer 1
10
86.813034
20
-101.999285
11
86.144271
21
-102.557111
0
LINE
8
Layer 1
10
86.144271
20
-102.557111
11
85.260812
21
-103.966021
0
LINE
8
Layer 1
10
85.260812
20
-103.966021
11
83.606102
21
-106.793189
0
LINE
8
Layer 1
10
83.606102
20
-106.793189
11
81.459632
21
-109.848591
0
LINE
8
Layer 1
10
81.459632
20
-109.848591
11
80.101437
21
-111.683049
0
LINE
8
Layer 1
10
80.101437
20
-111.683049
11
77.429146
21
-115.052077
0
LINE
8
Layer 1
10
77.429146
20
-115.052077
11
76.467826
21
-116.445549
0
LINE
8
Layer 1
10
76.467826
20
-116.445549
11
75.360238
21
-118.026851
0
LINE
8
Layer 1
10
75.360238
20
-118.026851
11
73.195812
21
-120.440744
0
LINE
8
Layer 1
10
73.195812
20
-120.440744
11
72.063351
21
-121.452913
0
LINE
8
Layer 1
10
72.063351
20
-121.452913
11
71.564790
21
-121.660707
0
LINE
8
Layer 1
10
71.564790
20
-121.660707
11
71.052798
21
-121.657026
0
LINE
8
Layer 1
10
71.052798
20
-121.657026
11
70.483465
21
-121.432409
0
LINE
8
Layer 1
10
70.483465
20
-121.432409
11
69.812884
21
-120.977394
0
LINE
8
Layer 1
10
69.812884
20
-120.977394
11
67.992340
21
-119.338327
0
LINE
8
Layer 1
10
67.992340
20
-119.338327
11
65.240673
21
-116.401438
0
LINE
8
Layer 1
10
65.240673
20
-116.401438
11
64.988888
21
-115.660991
0
LINE
8
Layer 1
10
64.988888
20
-115.660991
11
64.948055
21
-114.863006
0
LINE
8
Layer 1
10
64.948055
20
-114.863006
11
65.108654
21
-114.122070
0
LINE
8
Layer 1
10
65.108654
20
-114.122070
11
65.461159
21
-113.552772
0
LINE
8
Layer 1
10
65.461159
20
-113.552772
11
65.794717
21
-113.264364
0
LINE
8
Layer 1
10
65.794717
20
-113.264364
11
66.142095
21
-113.197288
0
LINE
8
Layer 1
10
66.142095
20
-113.197288
11
67.648382
21
-113.826160
0
LINE
8
Layer 1
10
67.648382
20
-113.826160
11
69.463498
21
-114.507253
0
LINE
8
Layer 1
10
69.463498
20
-114.507253
11
70.882845
21
-114.595226
0
LINE
8
Layer 1
10
70.882845
20
-114.595226
11
71.437224
21
-114.417899
0
LINE
8
Layer 1
10
71.437224
20
-114.417899
11
71.884404
21
-114.093618
0
LINE
8
Layer 1
10
71.884404
20
-114.093618
11
72.221633
21
-113.622827
0
LINE
8
Layer 1
10
72.221633
20
-113.622827
11
72.446159
21
-113.005966
0
LINE
8
Layer 1
10
72.446159
20
-113.005966
11
72.832616
21
-112.172267
0
LINE
8
Layer 1
10
72.832616
20
-112.172267
11
73.504493
21
-111.233244
0
LINE
8
Layer 1
10
73.504493
20
-111.233244
11
74.871507
21
-109.398799
0
LINE
8
Layer 1
10
74.871507
20
-109.398799
11
78.214076
21
-104.627480
0
LINE
8
Layer 1
10
78.214076
20
-104.627480
11
79.714698
21
-102.385068
0
LINE
8
Layer 1
10
79.714698
20
-102.385068
11
81.768312
21
-98.903660
0
LINE
8
Layer 1
10
81.768312
20
-98.903660
11
82.203805
21
-97.973741
0
LINE
8
Layer 1
10
82.203805
20
-97.973741
11
82.288659
21
-97.430813
0
LINE
8
Layer 1
10
82.288659
20
-97.430813
11
80.930465
21
-96.628244
0
LINE
8
Layer 1
10
80.930465
20
-96.628244
11
79.804428
21
-95.942445
0
LINE
8
Layer 1
10
79.804428
20
-95.942445
11
78.760882
21
-95.049563
0
LINE
8
Layer 1
10
78.760882
20
-95.049563
11
77.773104
21
-94.008869
0
LINE
8
Layer 1
10
77.773104
20
-94.008869
11
77.773104
21
-91.274841
0
LINE
8
Layer 1
10
77.773104
20
-91.274841
11
77.972846
21
-88.688612
0
LINE
8
Layer 1
10
77.972846
20
-88.688612
11
78.245392
21
-87.687030
0
LINE
8
Layer 1
10
78.245392
20
-87.687030
11
78.653382
21
-86.847488
0
LINE
8
Layer 1
10
78.653382
20
-86.847488
11
79.212063
21
-86.145748
0
LINE
8
Layer 1
10
79.212063
20
-86.145748
11
79.936679
21
-85.557575
0
LINE
8
Layer 1
10
79.936679
20
-85.557575
11
81.944701
21
-84.624980
0
LINE
8
Layer 1
10
81.944701
20
-84.624980
11
83.237759
21
-84.086472
0
LINE
8
Layer 1
10
83.237759
20
-84.086472
11
84.378782
21
-83.422067
0
LINE
8
Layer 1
10
84.378782
20
-83.422067
11
85.275108
21
-82.695454
0
LINE
8
Layer 1
10
85.275108
20
-82.695454
11
85.834076
21
-81.970327
0
LINE
8
Layer 1
10
85.834076
20
-81.970327
11
86.998243
21
-80.215257
0
LINE
8
Layer 1
10
86.998243
20
-80.215257
11
88.206507
21
-78.169146
0
LINE
8
Layer 1
10
88.206507
20
-78.169146
11
88.599398
21
-77.401455
0
LINE
8
Layer 1
10
88.599398
20
-77.401455
11
88.912062
21
-77.154910
0
LINE
8
Layer 1
10
88.912062
20
-77.154910
11
88.912062
21
-77.154910
0
LINE
8
Layer 1
10
119.762479
20
-77.278382
11
117.980378
21
-77.519432
0
LINE
8
Layer 1
10
117.980378
20
-77.519432
11
117.225062
21
-77.779350
0
LINE
8
Layer 1
10
117.225062
20
-77.779350
11
116.790326
21
-78.080952
0
LINE
8
Layer 1
10
116.790326
20
-78.080952
11
116.606280
21
-78.473118
0
LINE
8
Layer 1
10
116.606280
20
-78.473118
11
116.619012
21
-78.828367
0
LINE
8
Layer 1
10
116.619012
20
-78.828367
11
116.823234
21
-79.131819
0
LINE
8
Layer 1
10
116.823234
20
-79.131819
11
117.213659
21
-79.368591
0
LINE
8
Layer 1
10
117.213659
20
-79.368591
11
118.118093
21
-79.536143
0
LINE
8
Layer 1
10
118.118093
20
-79.536143
11
119.400882
21
-79.571438
0
LINE
8
Layer 1
10
119.400882
20
-79.571438
11
120.953104
21
-79.509702
0
LINE
8
Layer 1
10
120.953104
20
-79.509702
11
121.032479
21
-78.486646
0
LINE
8
Layer 1
10
121.032479
20
-78.486646
11
121.057384
21
-77.917067
0
LINE
8
Layer 1
10
121.057384
20
-77.917067
11
120.968006
21
-77.592203
0
LINE
8
Layer 1
10
120.968006
20
-77.592203
11
120.699198
21
-77.421314
0
LINE
8
Layer 1
10
120.699198
20
-77.421314
11
120.185812
21
-77.313660
0
LINE
8
Layer 1
10
120.185812
20
-77.313660
11
119.762479
21
-77.278382
0
LINE
8
Layer 1
10
119.762479
20
-77.278382
11
119.762479
21
-77.278382
0
LINE
8
Layer 1
10
45.361646
20
-77.445952
11
45.176437
21
-77.454757
0
LINE
8
Layer 1
10
45.176437
20
-77.454757
11
44.617307
21
-77.654231
0
LINE
8
Layer 1
10
44.617307
20
-77.654231
11
44.405213
21
-78.045675
0
LINE
8
Layer 1
10
44.405213
20
-78.045675
11
44.545658
21
-78.562788
0
LINE
8
Layer 1
10
44.545658
20
-78.562788
11
45.044146
21
-79.139271
0
LINE
8
Layer 1
10
45.044146
20
-79.139271
11
46.005465
21
-80.329896
0
LINE
8
Layer 1
10
46.005465
20
-80.329896
11
46.429796
21
-80.809009
0
LINE
8
Layer 1
10
46.429796
20
-80.809009
11
47.169632
21
-81.211841
0
LINE
8
Layer 1
10
47.169632
20
-81.211841
11
48.517289
21
-81.466773
0
LINE
8
Layer 1
10
48.517289
20
-81.466773
11
50.397548
21
-81.591077
0
LINE
8
Layer 1
10
50.397548
20
-81.591077
11
52.467695
21
-81.448675
0
LINE
8
Layer 1
10
52.467695
20
-81.448675
11
53.820354
21
-80.958039
0
LINE
8
Layer 1
10
53.820354
20
-80.958039
11
54.222951
21
-80.585230
0
LINE
8
Layer 1
10
54.222951
20
-80.585230
11
54.440568
21
-80.129078
0
LINE
8
Layer 1
10
54.440568
20
-80.129078
11
54.471335
21
-79.590822
0
LINE
8
Layer 1
10
54.471335
20
-79.590822
11
54.313382
21
-78.971702
0
LINE
8
Layer 1
10
54.313382
20
-78.971702
11
54.102731
21
-78.640964
0
LINE
8
Layer 1
10
54.102731
20
-78.640964
11
53.809088
21
-78.550413
0
LINE
8
Layer 1
10
53.809088
20
-78.550413
11
53.421429
21
-78.701375
0
LINE
8
Layer 1
10
53.421429
20
-78.701375
11
52.928729
21
-79.095174
0
LINE
8
Layer 1
10
52.928729
20
-79.095174
11
52.035254
21
-79.576968
0
LINE
8
Layer 1
10
52.035254
20
-79.576968
11
50.706229
21
-79.924202
0
LINE
8
Layer 1
10
50.706229
20
-79.924202
11
49.172186
21
-80.040207
0
LINE
8
Layer 1
10
49.172186
20
-80.040207
11
47.936923
21
-79.589063
0
LINE
8
Layer 1
10
47.936923
20
-79.589063
11
46.989128
21
-78.925064
0
LINE
8
Layer 1
10
46.989128
20
-78.925064
11
46.331784
21
-78.177952
0
LINE
8
Layer 1
10
46.331784
20
-78.177952
11
45.890767
21
-77.617338
0
LINE
8
Layer 1
10
45.890767
20
-77.617338
11
45.361646
21
-77.445938
0
LINE
8
Layer 1
10
45.361646
20
-77.445938
11
45.361646
21
-77.445952
0
LINE
8
Layer 1
10
135.655118
20
-81.352966
11
135.339880
21
-81.451065
0
LINE
8
Layer 1
10
135.339880
20
-81.451065
11
135.108312
21
-81.741021
0
LINE
8
Layer 1
10
135.108312
20
-81.741021
11
135.108312
21
-82.287827
0
LINE
8
Layer 1
10
135.108312
20
-82.287827
11
135.365122
21
-82.369423
0
LINE
8
Layer 1
10
135.365122
20
-82.369423
11
135.677361
21
-82.265429
0
LINE
8
Layer 1
10
135.677361
20
-82.265429
11
135.940996
21
-82.035933
0
LINE
8
Layer 1
10
135.940996
20
-82.035933
11
136.051993
21
-81.741021
0
LINE
8
Layer 1
10
136.051993
20
-81.741021
11
135.932283
21
-81.450728
0
LINE
8
Layer 1
10
135.932283
20
-81.450728
11
135.655118
21
-81.352966
0
LINE
8
Layer 1
10
135.655118
20
-81.352966
11
135.655118
21
-81.352966
0
LINE
8
Layer 1
10
40.034701
20
-81.670466
11
39.461497
21
-81.777508
0
LINE
8
Layer 1
10
39.461497
20
-81.777508
11
38.658868
21
-82.120257
0
LINE
8
Layer 1
10
38.658868
20
-82.120257
11
37.385241
21
-82.447129
0
LINE
8
Layer 1
10
37.385241
20
-82.447129
11
35.456116
21
-82.611571
0
LINE
8
Layer 1
10
35.456116
20
-82.611571
11
33.351248
21
-82.596501
0
LINE
8
Layer 1
10
33.351248
20
-82.596501
11
31.550396
21
-82.384841
0
LINE
8
Layer 1
10
31.550396
20
-82.384841
11
30.837694
21
-82.310965
0
LINE
8
Layer 1
10
30.837694
20
-82.310965
11
30.406836
21
-82.426886
0
LINE
8
Layer 1
10
30.406836
20
-82.426886
11
30.239029
21
-82.692040
0
LINE
8
Layer 1
10
30.239029
20
-82.692040
11
30.315485
21
-83.065867
0
LINE
8
Layer 1
10
30.315485
20
-83.065867
11
31.126016
21
-83.977287
0
LINE
8
Layer 1
10
31.126016
20
-83.977287
11
32.688104
21
-84.836646
0
LINE
8
Layer 1
10
32.688104
20
-84.836646
11
33.945455
21
-85.143277
0
LINE
8
Layer 1
10
33.945455
20
-85.143277
11
35.461700
21
-85.280585
0
LINE
8
Layer 1
10
35.461700
20
-85.280585
11
36.880991
21
-85.237816
0
LINE
8
Layer 1
10
36.880991
20
-85.237816
11
37.847479
21
-85.004216
0
LINE
8
Layer 1
10
37.847479
20
-85.004216
11
38.139482
21
-84.889268
0
LINE
8
Layer 1
10
38.139482
20
-84.889268
11
38.358453
21
-84.935911
0
LINE
8
Layer 1
10
38.358453
20
-84.935911
11
38.773521
21
-85.648035
0
LINE
8
Layer 1
10
38.773521
20
-85.648035
11
39.525113
21
-86.721757
0
LINE
8
Layer 1
10
39.525113
20
-86.721757
11
40.878893
21
-88.207110
0
LINE
8
Layer 1
10
40.878893
20
-88.207110
11
42.375021
21
-89.634418
0
LINE
8
Layer 1
10
42.375021
20
-89.634418
11
43.553659
21
-90.534007
0
LINE
8
Layer 1
10
43.553659
20
-90.534007
11
44.685956
21
-90.790387
0
LINE
8
Layer 1
10
44.685956
20
-90.790387
11
46.516993
21
-90.913244
0
LINE
8
Layer 1
10
46.516993
20
-90.913244
11
48.583894
21
-90.817789
0
LINE
8
Layer 1
10
48.583894
20
-90.817789
11
49.903659
21
-90.375257
0
LINE
8
Layer 1
10
49.903659
20
-90.375257
11
51.095219
21
-89.590586
0
LINE
8
Layer 1
10
51.095219
20
-89.590586
11
52.415092
21
-88.523641
0
LINE
8
Layer 1
10
52.415092
20
-88.523641
11
53.484665
21
-87.504970
0
LINE
8
Layer 1
10
53.484665
20
-87.504970
11
53.925326
21
-86.865119
0
LINE
8
Layer 1
10
53.925326
20
-86.865119
11
54.132583
21
-86.444813
0
LINE
8
Layer 1
10
54.132583
20
-86.444813
11
54.630882
21
-85.912619
0
LINE
8
Layer 1
10
54.630882
20
-85.912619
11
55.129180
21
-85.325492
0
LINE
8
Layer 1
10
55.129180
20
-85.325492
11
55.336437
21
-84.774910
0
LINE
8
Layer 1
10
55.336437
20
-84.774910
11
55.382635
21
-84.503818
0
LINE
8
Layer 1
10
55.382635
20
-84.503818
11
55.573550
21
-84.362028
0
LINE
8
Layer 1
10
55.573550
20
-84.362028
11
56.703451
21
-84.378035
0
LINE
8
Layer 1
10
56.703451
20
-84.378035
11
57.946551
21
-84.362219
0
LINE
8
Layer 1
10
57.946551
20
-84.362219
11
58.311638
21
-84.145928
0
LINE
8
Layer 1
10
58.311638
20
-84.145928
11
58.679007
21
-83.734216
0
LINE
8
Layer 1
10
58.679007
20
-83.734216
11
59.187406
21
-82.975402
0
LINE
8
Layer 1
10
59.187406
20
-82.975402
11
59.203963
21
-82.510711
0
LINE
8
Layer 1
10
59.203963
20
-82.510711
11
58.669205
21
-82.256487
0
LINE
8
Layer 1
10
58.669205
20
-82.256487
11
57.523659
21
-82.129077
0
LINE
8
Layer 1
10
57.523659
20
-82.129077
11
55.265882
21
-81.793938
0
LINE
8
Layer 1
10
55.265882
20
-81.793938
11
54.827022
21
-81.766185
0
LINE
8
Layer 1
10
54.827022
20
-81.766185
11
54.516229
21
-82.261369
0
LINE
8
Layer 1
10
54.516229
20
-82.261369
11
54.187786
21
-82.808796
0
LINE
8
Layer 1
10
54.187786
20
-82.808796
11
53.775396
21
-83.143313
0
LINE
8
Layer 1
10
53.775396
20
-83.143313
11
46.375882
21
-83.319702
0
LINE
8
Layer 1
10
46.375882
20
-83.319702
11
40.461545
21
-83.246530
0
LINE
8
Layer 1
10
40.461545
20
-83.246530
11
39.788652
21
-83.091036
0
LINE
8
Layer 1
10
39.788652
20
-83.091036
11
39.911229
21
-82.799355
0
LINE
8
Layer 1
10
39.911229
20
-82.799355
11
40.403717
21
-81.968844
0
LINE
8
Layer 1
10
40.403717
20
-81.968844
11
40.317800
21
-81.748864
0
LINE
8
Layer 1
10
40.317800
20
-81.748864
11
40.034701
21
-81.670466
0
LINE
8
Layer 1
10
40.034701
20
-81.670466
11
40.034701
21
-81.670466
0
LINE
8
Layer 1
10
133.265048
20
-81.670466
11
132.885812
21
-81.855674
0
LINE
8
Layer 1
10
132.885812
20
-81.855674
11
132.725395
21
-82.201408
0
LINE
8
Layer 1
10
132.725395
20
-82.201408
11
132.762340
21
-82.614146
0
LINE
8
Layer 1
10
132.762340
20
-82.614146
11
133.037124
21
-82.920821
0
LINE
8
Layer 1
10
133.037124
20
-82.920821
11
133.430741
21
-82.972721
0
LINE
8
Layer 1
10
133.430741
20
-82.972721
11
133.805453
21
-82.792417
0
LINE
8
Layer 1
10
133.805453
20
-82.792417
11
134.023521
21
-82.402480
0
LINE
8
Layer 1
10
134.023521
20
-82.402480
11
133.997541
21
-82.097442
0
LINE
8
Layer 1
10
133.997541
20
-82.097442
11
133.827854
21
-81.856113
0
LINE
8
Layer 1
10
133.827854
20
-81.856113
11
133.265048
21
-81.670466
0
LINE
8
Layer 1
10
133.265048
20
-81.670466
11
133.265048
21
-81.670466
0
LINE
8
Layer 1
10
105.836576
20
-81.696910
11
105.633729
21
-81.855660
0
LINE
8
Layer 1
10
105.633729
20
-81.855660
11
105.230318
21
-82.093279
0
LINE
8
Layer 1
10
105.230318
20
-82.093279
11
104.416646
21
-82.190799
0
LINE
8
Layer 1
10
104.416646
20
-82.190799
11
103.521670
21
-82.297736
0
LINE
8
Layer 1
10
103.521670
20
-82.297736
11
103.357560
21
-82.469853
0
LINE
8
Layer 1
10
103.357560
20
-82.469853
11
103.314215
21
-82.755243
0
LINE
8
Layer 1
10
103.314215
20
-82.755243
11
103.548626
21
-83.273511
0
LINE
8
Layer 1
10
103.548626
20
-83.273511
11
104.231437
21
-83.707743
0
LINE
8
Layer 1
10
104.231437
20
-83.707743
11
105.252288
21
-83.967906
0
LINE
8
Layer 1
10
105.252288
20
-83.967906
11
106.418659
21
-84.042882
0
LINE
8
Layer 1
10
106.418659
20
-84.042882
11
107.496091
21
-83.874584
0
LINE
8
Layer 1
10
107.496091
20
-83.874584
11
107.691971
21
-83.644752
0
LINE
8
Layer 1
10
107.691971
20
-83.644752
11
107.776854
21
-83.249132
0
LINE
8
Layer 1
10
107.776854
20
-83.249132
11
107.778682
21
-82.857565
0
LINE
8
Layer 1
10
107.778682
20
-82.857565
11
107.646709
21
-82.558913
0
LINE
8
Layer 1
10
107.646709
20
-82.558913
11
106.806715
21
-82.014410
0
LINE
8
Layer 1
10
106.806715
20
-82.014410
11
105.836576
21
-81.696910
0
LINE
8
Layer 1
10
105.836576
20
-81.696910
11
105.836576
21
-81.696910
0
LINE
8
Layer 1
10
131.412965
20
-82.190799
11
131.036972
21
-82.286667
0
LINE
8
Layer 1
10
131.036972
20
-82.286667
11
130.818412
21
-82.519207
0
LINE
8
Layer 1
10
130.818412
20
-82.519207
11
130.795704
21
-82.805825
0
LINE
8
Layer 1
10
130.795704
20
-82.805825
11
131.007271
21
-83.063924
0
LINE
8
Layer 1
10
131.007271
20
-83.063924
11
131.639485
21
-83.282832
0
LINE
8
Layer 1
10
131.639485
20
-83.282832
11
131.776825
21
-83.115773
0
LINE
8
Layer 1
10
131.776825
20
-83.115773
11
131.818659
21
-82.755243
0
LINE
8
Layer 1
10
131.818659
20
-82.755243
11
131.699689
21
-82.356604
0
LINE
8
Layer 1
10
131.699689
20
-82.356604
11
131.412965
21
-82.190799
0
LINE
8
Layer 1
10
131.412965
20
-82.190799
11
131.412965
21
-82.190799
0
LINE
8
Layer 1
10
88.585743
20
-83.778299
11
88.990939
21
-83.830221
0
LINE
8
Layer 1
10
88.990939
20
-83.830221
11
89.538243
21
-84.078160
0
LINE
8
Layer 1
10
89.538243
20
-84.078160
11
91.188084
21
-84.835367
0
LINE
8
Layer 1
10
91.188084
20
-84.835367
11
92.598590
21
-85.136493
0
LINE
8
Layer 1
10
92.598590
20
-85.136493
11
94.424215
21
-85.568646
0
LINE
8
Layer 1
10
94.424215
20
-85.568646
11
97.511021
21
-86.115452
0
LINE
8
Layer 1
10
97.511021
20
-86.115452
11
99.374699
21
-86.414012
0
LINE
8
Layer 1
10
99.374699
20
-86.414012
11
100.315604
21
-86.706354
0
LINE
8
Layer 1
10
100.315604
20
-86.706354
11
100.822040
21
-86.906359
0
LINE
8
Layer 1
10
100.822040
20
-86.906359
11
101.638521
21
-86.988577
0
LINE
8
Layer 1
10
101.638521
20
-86.988577
11
103.631715
21
-87.191424
0
LINE
8
Layer 1
10
103.631715
20
-87.191424
11
104.285709
21
-87.399116
0
LINE
8
Layer 1
10
104.285709
20
-87.399116
11
103.173104
21
-87.605938
0
LINE
8
Layer 1
10
103.173104
20
-87.605938
11
99.992216
21
-88.187277
0
LINE
8
Layer 1
10
99.992216
20
-88.187277
11
97.669771
21
-88.752466
0
LINE
8
Layer 1
10
97.669771
20
-88.752466
11
96.797388
21
-88.988584
0
LINE
8
Layer 1
10
96.797388
20
-88.988584
11
95.838731
21
-89.080688
0
LINE
8
Layer 1
10
95.838731
20
-89.080688
11
94.948927
21
-89.026320
0
LINE
8
Layer 1
10
94.948927
20
-89.026320
11
94.283104
21
-88.823021
0
LINE
8
Layer 1
10
94.283104
20
-88.823021
11
92.448659
21
-88.249757
0
LINE
8
Layer 1
10
92.448659
20
-88.249757
11
90.693590
21
-87.667674
0
LINE
8
Layer 1
10
90.693590
20
-87.667674
11
89.705812
21
-87.270799
0
LINE
8
Layer 1
10
89.705812
20
-87.270799
11
87.894470
21
-86.363322
0
LINE
8
Layer 1
10
87.894470
20
-86.363322
11
86.853528
21
-85.684341
0
LINE
8
Layer 1
10
86.853528
20
-85.684341
11
86.389701
21
-85.259966
0
LINE
8
Layer 1
10
86.389701
20
-85.259966
11
87.492132
21
-84.351563
0
LINE
8
Layer 1
10
87.492132
20
-84.351563
11
88.585743
21
-83.778299
0
LINE
8
Layer 1
10
88.585743
20
-83.778299
11
88.585743
21
-83.778299
0
LINE
8
Layer 1
10
46.940326
20
-85.013021
11
51.485586
21
-85.076936
0
LINE
8
Layer 1
10
51.485586
20
-85.076936
11
53.202132
21
-85.224688
0
LINE
8
Layer 1
10
53.202132
20
-85.224688
11
52.267271
21
-86.353577
0
LINE
8
Layer 1
10
52.267271
20
-86.353577
11
51.623451
21
-87.270799
0
LINE
8
Layer 1
10
51.623451
20
-87.270799
11
48.889423
21
-87.217882
0
LINE
8
Layer 1
10
48.889423
20
-87.217882
11
44.653065
21
-87.041607
0
LINE
8
Layer 1
10
44.653065
20
-87.041607
11
43.568156
21
-86.890884
0
LINE
8
Layer 1
10
43.568156
20
-86.890884
11
43.068590
21
-86.688716
0
LINE
8
Layer 1
10
43.068590
20
-86.688716
11
42.624884
21
-86.501708
0
LINE
8
Layer 1
10
42.624884
20
-86.501708
11
41.930882
21
-86.424132
0
LINE
8
Layer 1
10
41.930882
20
-86.424132
11
41.300733
21
-86.348443
0
LINE
8
Layer 1
10
41.300733
20
-86.348443
11
40.810225
21
-86.135569
0
LINE
8
Layer 1
10
40.810225
20
-86.135569
11
40.491989
21
-85.806804
0
LINE
8
Layer 1
10
40.491989
20
-85.806804
11
40.378659
21
-85.383438
0
LINE
8
Layer 1
10
40.378659
20
-85.383438
11
40.672951
21
-85.202466
0
LINE
8
Layer 1
10
40.672951
20
-85.202466
11
41.710243
21
-85.087958
0
LINE
8
Layer 1
10
41.710243
20
-85.087958
11
46.940326
21
-85.013021
0
LINE
8
Layer 1
10
46.940326
20
-85.013021
11
46.940326
21
-85.013021
0
LINE
8
Layer 1
10
89.150187
20
-89.290452
11
90.331993
21
-89.669688
0
LINE
8
Layer 1
10
90.331993
20
-89.669688
11
91.319771
21
-90.048924
0
LINE
8
Layer 1
10
91.319771
20
-90.048924
11
90.287896
21
-90.075368
0
LINE
8
Layer 1
10
90.287896
20
-90.075368
11
89.481435
21
-89.981014
0
LINE
8
Layer 1
10
89.481435
20
-89.981014
11
89.097271
21
-89.669674
0
LINE
8
Layer 1
10
89.097271
20
-89.669674
11
89.024251
21
-89.386119
0
LINE
8
Layer 1
10
89.024251
20
-89.386119
11
89.150187
21
-89.290438
0
LINE
8
Layer 1
10
89.150187
20
-89.290438
11
89.150187
21
-89.290452
0
LINE
8
Layer 1
10
50.424007
20
-91.371841
11
48.854146
21
-91.662882
0
LINE
8
Layer 1
10
48.854146
20
-91.662882
11
47.305555
21
-91.981722
0
LINE
8
Layer 1
10
47.305555
20
-91.981722
11
46.217132
21
-91.892188
0
LINE
8
Layer 1
10
46.217132
20
-91.892188
11
45.278789
21
-91.756190
0
LINE
8
Layer 1
10
45.278789
20
-91.756190
11
44.243204
21
-91.783825
0
LINE
8
Layer 1
10
44.243204
20
-91.783825
11
43.407448
21
-91.945017
0
LINE
8
Layer 1
10
43.407448
20
-91.945017
11
43.068590
21
-92.209688
0
LINE
8
Layer 1
10
43.068590
20
-92.209688
11
43.299850
21
-92.518278
0
LINE
8
Layer 1
10
43.299850
20
-92.518278
11
43.844701
21
-92.862327
0
LINE
8
Layer 1
10
43.844701
20
-92.862327
11
44.386784
21
-93.200731
0
LINE
8
Layer 1
10
44.386784
20
-93.200731
11
44.611993
21
-93.497327
0
LINE
8
Layer 1
10
44.611993
20
-93.497327
11
45.266703
21
-93.684650
0
LINE
8
Layer 1
10
45.266703
20
-93.684650
11
46.843312
21
-93.761910
0
LINE
8
Layer 1
10
46.843312
20
-93.761910
11
48.458638
21
-93.665644
0
LINE
8
Layer 1
10
48.458638
20
-93.665644
11
49.696112
21
-93.379524
0
LINE
8
Layer 1
10
49.696112
20
-93.379524
11
50.543471
21
-92.907565
0
LINE
8
Layer 1
10
50.543471
20
-92.907565
11
50.988451
21
-92.253785
0
LINE
8
Layer 1
10
50.988451
20
-92.253785
11
51.001337
21
-91.592396
0
LINE
8
Layer 1
10
51.001337
20
-91.592396
11
50.790559
21
-91.428016
0
LINE
8
Layer 1
10
50.790559
20
-91.428016
11
50.424007
21
-91.371841
0
LINE
8
Layer 1
10
50.424007
20
-91.371841
11
50.424007
21
-91.371841
0
LINE
8
Layer 1
10
74.651021
20
-94.890799
11
74.527548
21
-95.173021
0
LINE
8
Layer 1
10
74.527548
20
-95.173021
11
74.615835
21
-95.372341
0
LINE
8
Layer 1
10
74.615835
20
-95.372341
11
74.827409
21
-95.455243
0
LINE
8
Layer 1
10
74.827409
20
-95.455243
11
74.986764
21
-95.372341
0
LINE
8
Layer 1
10
74.986764
20
-95.372341
11
74.950882
21
-95.173021
0
LINE
8
Layer 1
10
74.950882
20
-95.173021
11
74.651021
21
-94.890799
0
LINE
8
Layer 1
10
74.651021
20
-94.890799
11
74.651021
21
-94.890799
0
LINE
8
Layer 1
10
99.759979
20
-98.321563
11
99.785880
21
-98.416892
0
LINE
8
Layer 1
10
99.785880
20
-98.416892
11
99.363104
21
-98.700799
0
LINE
8
Layer 1
10
99.363104
20
-98.700799
11
98.093104
21
-99.088854
0
LINE
8
Layer 1
10
98.093104
20
-99.088854
11
97.923628
21
-98.985416
0
LINE
8
Layer 1
10
97.923628
20
-98.985416
11
98.516437
21
-98.700799
0
LINE
8
Layer 1
10
98.516437
20
-98.700799
11
99.759979
21
-98.321563
0
LINE
8
Layer 1
10
99.759979
20
-98.321563
11
99.759979
21
-98.321563
0
LINE
8
Layer 1
10
27.290605
20
-102.510799
11
28.117639
21
-102.749217
0
LINE
8
Layer 1
10
28.117639
20
-102.749217
11
29.320705
21
-103.304597
0
LINE
8
Layer 1
10
29.320705
20
-103.304597
11
30.432558
21
-103.937122
0
LINE
8
Layer 1
10
30.432558
20
-103.937122
11
30.985951
21
-104.406979
0
LINE
8
Layer 1
10
30.985951
20
-104.406979
11
31.163697
21
-104.662359
0
LINE
8
Layer 1
10
31.163697
20
-104.662359
11
31.400465
21
-104.768577
0
LINE
8
Layer 1
10
31.400465
20
-104.768577
11
32.520534
21
-105.474132
0
LINE
8
Layer 1
10
32.520534
20
-105.474132
11
33.268467
21
-105.972431
0
LINE
8
Layer 1
10
33.268467
20
-105.972431
11
33.887548
21
-106.179688
0
LINE
8
Layer 1
10
33.887548
20
-106.179688
11
34.312866
21
-106.262591
0
LINE
8
Layer 1
10
34.312866
20
-106.262591
11
34.593104
21
-106.461910
0
LINE
8
Layer 1
10
34.593104
20
-106.461910
11
34.885169
21
-106.661229
0
LINE
8
Layer 1
10
34.885169
20
-106.661229
11
35.342757
21
-106.744132
0
LINE
8
Layer 1
10
35.342757
20
-106.744132
11
36.806784
21
-107.141007
0
LINE
8
Layer 1
10
36.806784
20
-107.141007
11
38.305276
21
-107.533527
0
LINE
8
Layer 1
10
38.305276
20
-107.533527
11
40.554137
21
-107.876909
0
LINE
8
Layer 1
10
40.554137
20
-107.876909
11
42.814479
21
-108.081646
0
LINE
8
Layer 1
10
42.814479
20
-108.081646
11
44.347409
21
-108.058229
0
LINE
8
Layer 1
10
44.347409
20
-108.058229
11
46.270048
21
-107.758368
0
LINE
8
Layer 1
10
46.270048
20
-107.758368
11
47.180439
21
-107.501942
0
LINE
8
Layer 1
10
47.180439
20
-107.501942
11
48.025118
21
-107.052813
0
LINE
8
Layer 1
10
48.025118
20
-107.052813
11
49.012896
21
-106.461910
0
LINE
8
Layer 1
10
49.012896
20
-106.461910
11
50.127382
21
-105.505005
0
LINE
8
Layer 1
10
50.127382
20
-105.505005
11
51.173659
21
-104.133577
0
LINE
8
Layer 1
10
51.173659
20
-104.133577
11
51.408457
21
-103.810122
0
LINE
8
Layer 1
10
51.408457
20
-103.810122
11
51.745692
21
-103.656674
0
LINE
8
Layer 1
10
51.745692
20
-103.656674
11
52.096773
21
-103.688760
0
LINE
8
Layer 1
10
52.096773
20
-103.688760
11
52.373104
21
-103.921910
0
LINE
8
Layer 1
10
52.373104
20
-103.921910
11
52.942470
21
-104.121229
0
LINE
8
Layer 1
10
52.942470
20
-104.121229
11
54.066437
21
-104.204132
0
LINE
8
Layer 1
10
54.066437
20
-104.204132
11
55.190404
21
-104.287035
0
LINE
8
Layer 1
10
55.190404
20
-104.287035
11
55.759771
21
-104.486354
0
LINE
8
Layer 1
10
55.759771
20
-104.486354
11
56.173708
21
-104.685674
0
LINE
8
Layer 1
10
56.173708
20
-104.685674
11
56.923937
21
-104.768577
0
LINE
8
Layer 1
10
56.923937
20
-104.768577
11
58.352693
21
-105.036682
0
LINE
8
Layer 1
10
58.352693
20
-105.036682
11
59.534493
21
-105.826910
0
LINE
8
Layer 1
10
59.534493
20
-105.826910
11
61.086715
21
-106.955799
0
LINE
8
Layer 1
10
61.086715
20
-106.955799
11
62.735951
21
-108.313993
0
LINE
8
Layer 1
10
62.735951
20
-108.313993
11
63.549510
21
-109.023810
0
LINE
8
Layer 1
10
63.549510
20
-109.023810
11
64.808521
21
-109.839757
0
LINE
8
Layer 1
10
64.808521
20
-109.839757
11
66.387201
21
-110.730521
0
LINE
8
Layer 1
10
66.387201
20
-110.730521
11
65.417062
21
-111.488993
0
LINE
8
Layer 1
10
65.417062
20
-111.488993
11
64.450717
21
-112.397181
0
LINE
8
Layer 1
10
64.450717
20
-112.397181
11
63.795581
21
-113.394759
0
LINE
8
Layer 1
10
63.795581
20
-113.394759
11
63.430838
21
-114.528655
0
LINE
8
Layer 1
10
63.430838
20
-114.528655
11
63.335673
21
-115.845799
0
LINE
8
Layer 1
10
63.335673
20
-115.845799
11
63.238659
21
-117.468577
0
LINE
8
Layer 1
10
63.238659
20
-117.468577
11
62.060235
21
-115.807325
0
LINE
8
Layer 1
10
62.060235
20
-115.807325
11
60.980882
21
-113.993716
0
LINE
8
Layer 1
10
60.980882
20
-113.993716
11
60.568961
21
-113.424456
0
LINE
8
Layer 1
10
60.568961
20
-113.424456
11
59.645772
21
-112.519619
0
LINE
8
Layer 1
10
59.645772
20
-112.519619
11
58.680173
21
-111.705811
0
LINE
8
Layer 1
10
58.680173
20
-111.705811
11
58.141021
21
-111.409632
0
LINE
8
Layer 1
10
58.141021
20
-111.409632
11
57.373729
21
-112.600243
0
LINE
8
Layer 1
10
57.373729
20
-112.600243
11
56.593127
21
-113.600774
0
LINE
8
Layer 1
10
56.593127
20
-113.600774
11
55.054215
21
-114.575799
0
LINE
8
Layer 1
10
55.054215
20
-114.575799
11
53.451218
21
-115.464553
0
LINE
8
Layer 1
10
53.451218
20
-115.464553
11
52.601474
21
-116.133644
0
LINE
8
Layer 1
10
52.601474
20
-116.133644
11
52.307822
21
-116.817563
0
LINE
8
Layer 1
10
52.307822
20
-116.817563
11
52.373104
21
-117.750799
0
LINE
8
Layer 1
10
52.373104
20
-117.750799
11
52.611229
21
-120.273160
0
LINE
8
Layer 1
10
52.611229
20
-120.273160
11
52.499593
21
-121.405742
0
LINE
8
Layer 1
10
52.499593
20
-121.405742
11
52.237354
21
-121.729981
0
LINE
8
Layer 1
10
52.237354
20
-121.729981
11
51.764562
21
-122.045882
0
LINE
8
Layer 1
10
51.764562
20
-122.045882
11
50.588285
21
-122.465385
0
LINE
8
Layer 1
10
50.588285
20
-122.465385
11
49.004076
21
-122.742604
0
LINE
8
Layer 1
10
49.004076
20
-122.742604
11
47.638228
21
-122.936364
0
LINE
8
Layer 1
10
47.638228
20
-122.936364
11
46.984423
21
-123.157132
0
LINE
8
Layer 1
10
46.984423
20
-123.157132
11
45.561807
21
-123.344411
0
LINE
8
Layer 1
10
45.561807
20
-123.344411
11
42.623681
21
-123.394358
0
LINE
8
Layer 1
10
42.623681
20
-123.394358
11
39.685319
21
-123.314664
0
LINE
8
Layer 1
10
39.685319
20
-123.314664
11
38.261993
21
-123.113021
0
LINE
8
Layer 1
10
38.261993
20
-123.113021
11
37.740979
21
-122.913702
0
LINE
8
Layer 1
10
37.740979
20
-122.913702
11
36.736229
21
-122.830799
0
LINE
8
Layer 1
10
36.736229
20
-122.830799
11
35.386854
21
-122.830799
0
LINE
8
Layer 1
10
35.386854
20
-122.830799
11
35.519146
21
-121.208021
0
LINE
8
Layer 1
10
35.519146
20
-121.208021
11
35.690240
21
-119.958306
0
LINE
8
Layer 1
10
35.690240
20
-119.958306
11
35.924840
21
-119.232466
0
LINE
8
Layer 1
10
35.924840
20
-119.232466
11
36.490338
21
-118.983316
0
LINE
8
Layer 1
10
36.490338
20
-118.983316
11
37.450604
21
-118.879688
0
LINE
8
Layer 1
10
37.450604
20
-118.879688
11
38.469435
21
-118.801360
0
LINE
8
Layer 1
10
38.469435
20
-118.801360
11
39.179215
21
-118.615104
0
LINE
8
Layer 1
10
39.179215
20
-118.615104
11
40.184632
21
-118.191771
0
LINE
8
Layer 1
10
40.184632
20
-118.191771
11
40.527392
21
-117.939165
0
LINE
8
Layer 1
10
40.527392
20
-117.939165
11
40.599146
21
-117.539132
0
LINE
8
Layer 1
10
40.599146
20
-117.539132
11
40.336070
21
-117.175122
0
LINE
8
Layer 1
10
40.336070
20
-117.175122
11
39.664284
21
-117.133438
0
LINE
8
Layer 1
10
39.664284
20
-117.133438
11
37.606769
21
-117.209066
0
LINE
8
Layer 1
10
37.606769
20
-117.209066
11
34.593104
21
-117.027604
0
LINE
8
Layer 1
10
34.593104
20
-117.027604
11
32.524113
21
-116.708891
0
LINE
8
Layer 1
10
32.524113
20
-116.708891
11
31.868109
21
-116.393922
0
LINE
8
Layer 1
10
31.868109
20
-116.393922
11
31.179979
21
-115.881077
0
LINE
8
Layer 1
10
31.179979
20
-115.881077
11
30.251810
21
-115.208135
0
LINE
8
Layer 1
10
30.251810
20
-115.208135
11
29.654215
21
-114.928577
0
LINE
8
Layer 1
10
29.654215
20
-114.928577
11
28.883648
21
-114.493337
0
LINE
8
Layer 1
10
28.883648
20
-114.493337
11
27.537550
21
-113.446910
0
LINE
8
Layer 1
10
27.537550
20
-113.446910
11
24.538939
21
-111.197966
0
LINE
8
Layer 1
10
24.538939
20
-111.197966
11
22.819147
21
-110.069063
0
LINE
8
Layer 1
10
22.819147
20
-110.069063
11
22.165775
21
-109.889472
0
LINE
8
Layer 1
10
22.165775
20
-109.889472
11
20.984702
21
-110.245452
0
LINE
8
Layer 1
10
20.984702
20
-110.245452
11
18.788661
21
-110.915744
0
LINE
8
Layer 1
10
18.788661
20
-110.915744
11
17.368730
21
-111.436077
0
LINE
8
Layer 1
10
17.368730
20
-111.436077
11
16.499435
21
-111.751986
0
LINE
8
Layer 1
10
16.499435
20
-111.751986
11
15.207966
21
-111.991716
0
LINE
8
Layer 1
10
15.207966
20
-111.991716
11
13.763196
21
-112.041260
0
LINE
8
Layer 1
10
13.763196
20
-112.041260
11
12.809080
21
-111.638938
0
LINE
8
Layer 1
10
12.809080
20
-111.638938
11
11.248039
21
-110.765799
0
LINE
8
Layer 1
10
11.248039
20
-110.765799
11
10.626152
21
-110.315420
0
LINE
8
Layer 1
10
10.626152
20
-110.315420
11
10.082969
21
-109.625193
0
LINE
8
Layer 1
10
10.082969
20
-109.625193
11
9.738675
21
-108.887908
0
LINE
8
Layer 1
10
9.738675
20
-108.887908
11
9.713455
21
-108.296354
0
LINE
8
Layer 1
10
9.713455
20
-108.296354
11
10.090773
21
-107.891358
0
LINE
8
Layer 1
10
10.090773
20
-107.891358
11
10.926661
21
-107.453628
0
LINE
8
Layer 1
10
10.926661
20
-107.453628
11
13.990883
21
-106.470729
0
LINE
8
Layer 1
10
13.990883
20
-106.470729
11
16.813105
21
-105.624063
0
LINE
8
Layer 1
10
16.813105
20
-105.624063
11
18.178889
21
-105.225292
0
LINE
8
Layer 1
10
18.178889
20
-105.225292
11
20.340883
21
-104.892049
0
LINE
8
Layer 1
10
20.340883
20
-104.892049
11
22.457550
21
-104.354063
0
LINE
8
Layer 1
10
22.457550
20
-104.354063
11
24.080327
21
-103.771979
0
LINE
8
Layer 1
10
24.080327
20
-103.771979
11
25.015189
21
-103.322188
0
LINE
8
Layer 1
10
25.015189
20
-103.322188
11
25.323042
21
-103.146956
0
LINE
8
Layer 1
10
25.323042
20
-103.146956
11
25.844216
21
-103.075243
0
LINE
8
Layer 1
10
25.844216
20
-103.075243
11
26.370225
21
-102.992341
0
LINE
8
Layer 1
10
26.370225
20
-102.992341
11
26.690883
21
-102.793021
0
LINE
8
Layer 1
10
26.690883
20
-102.793021
11
27.290605
21
-102.510799
0
LINE
8
Layer 1
10
27.290605
20
-102.510799
11
27.290605
21
-102.510799
0
LINE
8
Layer 1
10
8.575747
20
-110.351285
11
8.655122
21
-110.351285
0
LINE
8
Layer 1
10
8.655122
20
-110.351285
11
8.813872
21
-110.474757
0
LINE
8
Layer 1
10
8.813872
20
-110.474757
11
9.043178
21
-111.012743
0
LINE
8
Layer 1
10
9.043178
20
-111.012743
11
9.417909
21
-111.554792
0
LINE
8
Layer 1
10
9.417909
20
-111.554792
11
10.262349
21
-112.399047
0
LINE
8
Layer 1
10
10.262349
20
-112.399047
11
11.176301
21
-113.176331
0
LINE
8
Layer 1
10
11.176301
20
-113.176331
11
11.759566
21
-113.517466
0
LINE
8
Layer 1
10
11.759566
20
-113.517466
11
12.020598
21
-113.591159
0
LINE
8
Layer 1
10
12.020598
20
-113.591159
11
12.139757
21
-113.771307
0
LINE
8
Layer 1
10
12.139757
20
-113.771307
11
12.104099
21
-113.996513
0
LINE
8
Layer 1
10
12.104099
20
-113.996513
11
11.900678
21
-114.205382
0
LINE
8
Layer 1
10
11.900678
20
-114.205382
11
11.664582
21
-114.974741
0
LINE
8
Layer 1
10
11.664582
20
-114.974741
11
11.450886
21
-116.604271
0
LINE
8
Layer 1
10
11.450886
20
-116.604271
11
11.390918
21
-118.802420
0
LINE
8
Layer 1
10
11.390918
20
-118.802420
11
11.511053
21
-119.602347
0
LINE
8
Layer 1
10
11.511053
20
-119.602347
11
11.748570
21
-120.235106
0
LINE
8
Layer 1
10
11.748570
20
-120.235106
11
12.116446
21
-120.724896
0
LINE
8
Layer 1
10
12.116446
20
-120.724896
11
12.627657
21
-121.095916
0
LINE
8
Layer 1
10
12.627657
20
-121.095916
11
14.131994
21
-121.578438
0
LINE
8
Layer 1
10
14.131994
20
-121.578438
11
15.215219
21
-121.841266
0
LINE
8
Layer 1
10
15.215219
20
-121.841266
11
15.808256
21
-122.221135
0
LINE
8
Layer 1
10
15.808256
20
-122.221135
11
16.057051
21
-122.903635
0
LINE
8
Layer 1
10
16.057051
20
-122.903635
11
16.107550
21
-124.074355
0
LINE
8
Layer 1
10
16.107550
20
-124.074355
11
15.991107
21
-125.644343
0
LINE
8
Layer 1
10
15.991107
20
-125.644343
11
15.780595
21
-126.024995
0
LINE
8
Layer 1
10
15.780595
20
-126.024995
11
15.410814
21
-126.323299
0
LINE
8
Layer 1
10
15.410814
20
-126.323299
11
14.423036
21
-126.781910
0
LINE
8
Layer 1
10
14.423036
20
-126.781910
11
14.172003
21
-126.569337
0
LINE
8
Layer 1
10
14.172003
20
-126.569337
11
14.150442
21
-126.050418
0
LINE
8
Layer 1
10
14.150442
20
-126.050418
11
14.333528
21
-125.403357
0
LINE
8
Layer 1
10
14.333528
20
-125.403357
11
14.696439
21
-124.806354
0
LINE
8
Layer 1
10
14.696439
20
-124.806354
11
15.011081
21
-124.264673
0
LINE
8
Layer 1
10
15.011081
20
-124.264673
11
14.981448
21
-123.815292
0
LINE
8
Layer 1
10
14.981448
20
-123.815292
11
14.632922
21
-123.508664
0
LINE
8
Layer 1
10
14.632922
20
-123.508664
11
13.990883
21
-123.395243
0
LINE
8
Layer 1
10
13.990883
20
-123.395243
11
13.390965
21
-123.513038
0
LINE
8
Layer 1
10
13.390965
20
-123.513038
11
12.992562
21
-123.951165
0
LINE
8
Layer 1
10
12.992562
20
-123.951165
11
12.733928
21
-124.836733
0
LINE
8
Layer 1
10
12.733928
20
-124.836733
11
12.553316
21
-126.296855
0
LINE
8
Layer 1
10
12.553316
20
-126.296855
11
12.206240
21
-128.367057
0
LINE
8
Layer 1
10
12.206240
20
-128.367057
11
11.397969
21
-130.098021
0
LINE
8
Layer 1
10
11.397969
20
-130.098021
11
10.499417
21
-131.347334
0
LINE
8
Layer 1
10
10.499417
20
-131.347334
11
9.686997
21
-132.073577
0
LINE
8
Layer 1
10
9.686997
20
-132.073577
11
9.107657
21
-132.327252
0
LINE
8
Layer 1
10
9.107657
20
-132.327252
11
8.700355
21
-132.382003
0
LINE
8
Layer 1
10
8.700355
20
-132.382003
11
7.605608
21
-131.782549
0
LINE
8
Layer 1
10
7.605608
20
-131.782549
11
6.907041
21
-131.141681
0
LINE
8
Layer 1
10
6.907041
20
-131.141681
11
6.582120
21
-130.418065
0
LINE
8
Layer 1
10
6.582120
20
-130.418065
11
6.632241
21
-129.627038
0
LINE
8
Layer 1
10
6.632241
20
-129.627038
11
7.058803
21
-128.783938
0
LINE
8
Layer 1
10
7.058803
20
-128.783938
11
7.587047
21
-127.785351
0
LINE
8
Layer 1
10
7.587047
20
-127.785351
11
7.541770
21
-127.258463
0
LINE
8
Layer 1
10
7.541770
20
-127.258463
11
7.340988
21
-127.204288
0
LINE
8
Layer 1
10
7.340988
20
-127.204288
11
7.041138
21
-127.306896
0
LINE
8
Layer 1
10
7.041138
20
-127.306896
11
6.203316
21
-128.034271
0
LINE
8
Layer 1
10
6.203316
20
-128.034271
11
5.483088
21
-128.719141
0
LINE
8
Layer 1
10
5.483088
20
-128.719141
11
4.851159
21
-128.987438
0
LINE
8
Layer 1
10
4.851159
20
-128.987438
11
4.242669
21
-128.845297
0
LINE
8
Layer 1
10
4.242669
20
-128.845297
11
3.592761
21
-128.298854
0
LINE
8
Layer 1
10
3.592761
20
-128.298854
11
3.014663
21
-127.239433
0
LINE
8
Layer 1
10
3.014663
20
-127.239433
11
2.726176
21
-125.848806
0
LINE
8
Layer 1
10
2.726176
20
-125.848806
11
2.762943
21
-124.508016
0
LINE
8
Layer 1
10
2.762943
20
-124.508016
11
2.914435
21
-123.975385
0
LINE
8
Layer 1
10
2.914435
20
-123.975385
11
3.160608
21
-123.598105
0
LINE
8
Layer 1
10
3.160608
20
-123.598105
11
3.533459
21
-123.101305
0
LINE
8
Layer 1
10
3.533459
20
-123.101305
11
3.689775
21
-122.619132
0
LINE
8
Layer 1
10
3.689775
20
-122.619132
11
3.944734
21
-122.021756
0
LINE
8
Layer 1
10
3.944734
20
-122.021756
11
4.562900
21
-121.243299
0
LINE
8
Layer 1
10
4.562900
20
-121.243299
11
5.249621
21
-120.329595
0
LINE
8
Layer 1
10
5.249621
20
-120.329595
11
5.726922
21
-119.046562
0
LINE
8
Layer 1
10
5.726922
20
-119.046562
11
6.083028
21
-117.040682
0
LINE
8
Layer 1
10
6.083028
20
-117.040682
11
6.406164
21
-113.958438
0
LINE
8
Layer 1
10
6.406164
20
-113.958438
11
6.712894
21
-112.163085
0
LINE
8
Layer 1
10
6.712894
20
-112.163085
11
7.036317
21
-111.621173
0
LINE
8
Layer 1
10
7.036317
20
-111.621173
11
7.579150
21
-111.056855
0
LINE
8
Layer 1
10
7.579150
20
-111.056855
11
8.575747
21
-110.351285
0
LINE
8
Layer 1
10
8.575747
20
-110.351285
11
8.575747
21
-110.351285
0
LINE
8
Layer 1
10
55.036576
20
-122.760243
11
56.050812
21
-123.571632
0
LINE
8
Layer 1
10
56.050812
20
-123.571632
11
58.343868
21
-125.582466
0
LINE
8
Layer 1
10
58.343868
20
-125.582466
11
59.834354
21
-126.781910
0
LINE
8
Layer 1
10
59.834354
20
-126.781910
11
61.600705
21
-128.468022
0
LINE
8
Layer 1
10
61.600705
20
-128.468022
11
64.367548
21
-131.570882
0
LINE
8
Layer 1
10
64.367548
20
-131.570882
11
66.378382
21
-133.934494
0
LINE
8
Layer 1
10
66.378382
20
-133.934494
11
68.001159
21
-136.165799
0
LINE
8
Layer 1
10
68.001159
20
-136.165799
11
68.592062
21
-137.224132
0
LINE
8
Layer 1
10
68.592062
20
-137.224132
11
67.957062
21
-137.991438
0
LINE
8
Layer 1
10
67.957062
20
-137.991438
11
65.514076
21
-140.672549
0
LINE
8
Layer 1
10
65.514076
20
-140.672549
11
64.282021
21
-141.879425
0
LINE
8
Layer 1
10
64.282021
20
-141.879425
11
63.380874
21
-142.461941
0
LINE
8
Layer 1
10
63.380874
20
-142.461941
11
62.624696
21
-142.487098
0
LINE
8
Layer 1
10
62.624696
20
-142.487098
11
61.827548
21
-142.021899
0
LINE
8
Layer 1
10
61.827548
20
-142.021899
11
61.199009
21
-141.631539
0
LINE
8
Layer 1
10
61.199009
20
-141.631539
11
60.681021
21
-141.466288
0
LINE
8
Layer 1
10
60.681021
20
-141.466288
11
59.920211
21
-141.058253
0
LINE
8
Layer 1
10
59.920211
20
-141.058253
11
58.705465
21
-140.090466
0
LINE
8
Layer 1
10
58.705465
20
-140.090466
11
56.606437
21
-138.379494
0
LINE
8
Layer 1
10
56.606437
20
-138.379494
11
56.239650
21
-138.117972
0
LINE
8
Layer 1
10
56.239650
20
-138.117972
11
56.747548
21
-138.247188
0
LINE
8
Layer 1
10
56.747548
20
-138.247188
11
58.489389
21
-138.404005
0
LINE
8
Layer 1
10
58.489389
20
-138.404005
11
61.686437
21
-138.476493
0
LINE
8
Layer 1
10
61.686437
20
-138.476493
11
65.145876
21
-138.412161
0
LINE
8
Layer 1
10
65.145876
20
-138.412161
11
65.761852
21
-138.286843
0
LINE
8
Layer 1
10
65.761852
20
-138.286843
11
65.919771
21
-138.070799
0
LINE
8
Layer 1
10
65.919771
20
-138.070799
11
65.789192
21
-137.853919
0
LINE
8
Layer 1
10
65.789192
20
-137.853919
11
65.324617
21
-137.695023
0
LINE
8
Layer 1
10
65.324617
20
-137.695023
11
62.956437
21
-137.462271
0
LINE
8
Layer 1
10
62.956437
20
-137.462271
11
58.581993
21
-136.994827
0
LINE
8
Layer 1
10
58.581993
20
-136.994827
11
56.112548
21
-136.509771
0
LINE
8
Layer 1
10
56.112548
20
-136.509771
11
55.365100
21
-136.290679
0
LINE
8
Layer 1
10
55.365100
20
-136.290679
11
55.054215
21
-136.051160
0
LINE
8
Layer 1
10
55.054215
20
-136.051160
11
54.867684
21
-135.792694
0
LINE
8
Layer 1
10
54.867684
20
-135.792694
11
54.419215
21
-135.530799
0
LINE
8
Layer 1
10
54.419215
20
-135.530799
11
54.191710
21
-135.417674
0
LINE
8
Layer 1
10
54.191710
20
-135.417674
11
54.213956
21
-135.365216
0
LINE
8
Layer 1
10
54.213956
20
-135.365216
11
55.054215
21
-135.433799
0
LINE
8
Layer 1
10
55.054215
20
-135.433799
11
56.135322
21
-135.664985
0
LINE
8
Layer 1
10
56.135322
20
-135.664985
11
56.950396
21
-135.989410
0
LINE
8
Layer 1
10
56.950396
20
-135.989410
11
57.656478
21
-136.323169
0
LINE
8
Layer 1
10
57.656478
20
-136.323169
11
58.218169
21
-136.377737
0
LINE
8
Layer 1
10
58.218169
20
-136.377737
11
58.589150
21
-136.160975
0
LINE
8
Layer 1
10
58.589150
20
-136.160975
11
58.723104
21
-135.680744
0
LINE
8
Layer 1
10
58.723104
20
-135.680744
11
58.555081
21
-135.091030
0
LINE
8
Layer 1
10
58.555081
20
-135.091030
11
57.946993
21
-134.789966
0
LINE
8
Layer 1
10
57.946993
20
-134.789966
11
56.606437
21
-134.243160
0
LINE
8
Layer 1
10
56.606437
20
-134.243160
11
55.731107
21
-133.932451
0
LINE
8
Layer 1
10
55.731107
20
-133.932451
11
54.419215
21
-133.687549
0
LINE
8
Layer 1
10
54.419215
20
-133.687549
11
53.273128
21
-133.473642
0
LINE
8
Layer 1
10
53.273128
20
-133.473642
11
52.796437
21
-133.237743
0
LINE
8
Layer 1
10
52.796437
20
-133.237743
11
52.603997
21
-133.062773
0
LINE
8
Layer 1
10
52.603997
20
-133.062773
11
52.143798
21
-132.990799
0
LINE
8
Layer 1
10
52.143798
20
-132.990799
11
51.596891
21
-132.899690
0
LINE
8
Layer 1
10
51.596891
20
-132.899690
11
51.191298
21
-132.682132
0
LINE
8
Layer 1
10
51.191298
20
-132.682132
11
49.767800
21
-132.476085
0
LINE
8
Layer 1
10
49.767800
20
-132.476085
11
46.120118
21
-132.470466
0
LINE
8
Layer 1
10
46.120118
20
-132.470466
11
41.771812
21
-132.667478
0
LINE
8
Layer 1
10
41.771812
20
-132.667478
11
40.785158
21
-132.940913
0
LINE
8
Layer 1
10
40.785158
20
-132.940913
11
39.814215
21
-133.449410
0
LINE
8
Layer 1
10
39.814215
20
-133.449410
11
37.362409
21
-134.525382
0
LINE
8
Layer 1
10
37.362409
20
-134.525382
11
36.629251
21
-134.782286
0
LINE
8
Layer 1
10
36.629251
20
-134.782286
11
36.127687
21
-135.125104
0
LINE
8
Layer 1
10
36.127687
20
-135.125104
11
35.686356
21
-135.411518
0
LINE
8
Layer 1
10
35.686356
20
-135.411518
11
35.095812
21
-135.530799
0
LINE
8
Layer 1
10
35.095812
20
-135.530799
11
33.649423
21
-135.910049
0
LINE
8
Layer 1
10
33.649423
20
-135.910049
11
31.031910
21
-137.154145
0
LINE
8
Layer 1
10
31.031910
20
-137.154145
11
29.795326
21
-137.515188
0
LINE
8
Layer 1
10
29.795326
20
-137.515188
11
29.189430
21
-137.680334
0
LINE
8
Layer 1
10
29.189430
20
-137.680334
11
28.525326
21
-138.070799
0
LINE
8
Layer 1
10
28.525326
20
-138.070799
11
27.813863
21
-138.461183
0
LINE
8
Layer 1
10
27.813863
20
-138.461183
11
27.096577
21
-138.626438
0
LINE
8
Layer 1
10
27.096577
20
-138.626438
11
26.499050
21
-138.719610
0
LINE
8
Layer 1
10
26.499050
20
-138.719610
11
26.073522
21
-138.935104
0
LINE
8
Layer 1
10
26.073522
20
-138.935104
11
25.060442
21
-139.197740
0
LINE
8
Layer 1
10
25.060442
20
-139.197740
11
23.048452
21
-139.402549
0
LINE
8
Layer 1
10
23.048452
20
-139.402549
11
21.071424
21
-139.425108
0
LINE
8
Layer 1
10
21.071424
20
-139.425108
11
19.603056
21
-139.193810
0
LINE
8
Layer 1
10
19.603056
20
-139.193810
11
18.505806
21
-138.667799
0
LINE
8
Layer 1
10
18.505806
20
-138.667799
11
17.642133
21
-137.806216
0
LINE
8
Layer 1
10
17.642133
20
-137.806216
11
17.208544
21
-136.797978
0
LINE
8
Layer 1
10
17.208544
20
-136.797978
11
17.107214
21
-135.473353
0
LINE
8
Layer 1
10
17.107214
20
-135.473353
11
17.330669
21
-134.005471
0
LINE
8
Layer 1
10
17.330669
20
-134.005471
11
17.871439
21
-132.567466
0
LINE
8
Layer 1
10
17.871439
20
-132.567466
11
19.143806
21
-130.897423
0
LINE
8
Layer 1
10
19.143806
20
-130.897423
11
21.144929
21
-129.098732
0
LINE
8
Layer 1
10
21.144929
20
-129.098732
11
23.431945
21
-127.519672
0
LINE
8
Layer 1
10
23.431945
20
-127.519672
11
25.561994
21
-126.508521
0
LINE
8
Layer 1
10
25.561994
20
-126.508521
11
27.008383
21
-125.891160
0
LINE
8
Layer 1
10
27.008383
20
-125.891160
11
28.278382
21
-125.511910
0
LINE
8
Layer 1
10
28.278382
20
-125.511910
11
30.862479
21
-124.956299
0
LINE
8
Layer 1
10
30.862479
20
-124.956299
11
32.425033
21
-124.664112
0
LINE
8
Layer 1
10
32.425033
20
-124.664112
11
34.043023
21
-124.538261
0
LINE
8
Layer 1
10
34.043023
20
-124.538261
11
35.358379
21
-124.588352
0
LINE
8
Layer 1
10
35.358379
20
-124.588352
11
36.013034
21
-124.823993
0
LINE
8
Layer 1
10
36.013034
20
-124.823993
11
36.250533
21
-124.998548
0
LINE
8
Layer 1
10
36.250533
20
-124.998548
11
36.559840
21
-124.991577
0
LINE
8
Layer 1
10
36.559840
20
-124.991577
11
36.904841
21
-124.982412
0
LINE
8
Layer 1
10
36.904841
20
-124.982412
11
37.230118
21
-125.159132
0
LINE
8
Layer 1
10
37.230118
20
-125.159132
11
38.610373
21
-125.345158
0
LINE
8
Layer 1
10
38.610373
20
-125.345158
11
41.409381
21
-125.418826
0
LINE
8
Layer 1
10
41.409381
20
-125.418826
11
44.334642
21
-125.373675
0
LINE
8
Layer 1
10
44.334642
20
-125.373675
11
46.093659
21
-125.203244
0
LINE
8
Layer 1
10
46.093659
20
-125.203244
11
46.401808
21
-125.143223
0
LINE
8
Layer 1
10
46.401808
20
-125.143223
11
46.570647
21
-125.319664
0
LINE
8
Layer 1
10
46.570647
20
-125.319664
11
46.711021
21
-127.020049
0
LINE
8
Layer 1
10
46.711021
20
-127.020049
11
46.622340
21
-128.103924
0
LINE
8
Layer 1
10
46.622340
20
-128.103924
11
46.252409
21
-128.898577
0
LINE
8
Layer 1
10
46.252409
20
-128.898577
11
45.740882
21
-129.859910
0
LINE
8
Layer 1
10
45.740882
20
-129.859910
11
45.940594
21
-130.110038
0
LINE
8
Layer 1
10
45.940594
20
-130.110038
11
46.435874
21
-130.142725
0
LINE
8
Layer 1
10
46.435874
20
-130.142725
11
47.070931
21
-129.976679
0
LINE
8
Layer 1
10
47.070931
20
-129.976679
11
47.689979
21
-129.630605
0
LINE
8
Layer 1
10
47.689979
20
-129.630605
11
48.051755
21
-129.292429
0
LINE
8
Layer 1
10
48.051755
20
-129.292429
11
48.249209
21
-128.871053
0
LINE
8
Layer 1
10
48.249209
20
-128.871053
11
48.324979
21
-127.108244
0
LINE
8
Layer 1
10
48.324979
20
-127.108244
11
48.368194
21
-125.794934
0
LINE
8
Layer 1
10
48.368194
20
-125.794934
11
48.609720
21
-125.007706
0
LINE
8
Layer 1
10
48.609720
20
-125.007706
11
49.127799
21
-124.624719
0
LINE
8
Layer 1
10
49.127799
20
-124.624719
11
50.000673
21
-124.524132
0
LINE
8
Layer 1
10
50.000673
20
-124.524132
11
51.091255
21
-124.264643
0
LINE
8
Layer 1
10
51.091255
20
-124.264643
11
52.831715
21
-123.642188
0
LINE
8
Layer 1
10
52.831715
20
-123.642188
11
55.036576
21
-122.760243
0
LINE
8
Layer 1
10
55.036576
20
-122.760243
11
55.036576
21
-122.760243
0
LINE
8
Layer 1
10
22.422272
20
-128.854494
11
22.316439
21
-128.898577
0
LINE
8
Layer 1
10
22.316439
20
-128.898577
11
22.034216
21
-129.198438
0
LINE
8
Layer 1
10
22.034216
20
-129.198438
11
22.316439
21
-129.321910
0
LINE
8
Layer 1
10
22.316439
20
-129.321910
11
22.515758
21
-129.233627
0
LINE
8
Layer 1
10
22.515758
20
-129.233627
11
22.598661
21
-129.022049
0
LINE
8
Layer 1
10
22.598661
20
-129.022049
11
22.422272
21
-128.854494
0
LINE
8
Layer 1
10
22.422272
20
-128.854494
11
22.422272
21
-128.854494
0
LINE
8
Layer 1
10
35.263382
20
-130.821216
11
33.571674
21
-130.977493
0
LINE
8
Layer 1
10
33.571674
20
-130.977493
11
31.532757
21
-131.465049
0
LINE
8
Layer 1
10
31.532757
20
-131.465049
11
29.204423
21
-132.170605
0
LINE
8
Layer 1
10
29.204423
20
-132.170605
11
27.294541
21
-132.380659
0
LINE
8
Layer 1
10
27.294541
20
-132.380659
11
24.366005
21
-132.426563
0
LINE
8
Layer 1
10
24.366005
20
-132.426563
11
21.565828
21
-132.320230
0
LINE
8
Layer 1
10
21.565828
20
-132.320230
11
20.041022
21
-132.073577
0
LINE
8
Layer 1
10
20.041022
20
-132.073577
11
19.530352
21
-131.868994
0
LINE
8
Layer 1
10
19.530352
20
-131.868994
11
19.203175
21
-132.144132
0
LINE
8
Layer 1
10
19.203175
20
-132.144132
11
19.161535
21
-132.617518
0
LINE
8
Layer 1
10
19.161535
20
-132.617518
11
19.705883
21
-133.220104
0
LINE
8
Layer 1
10
19.705883
20
-133.220104
11
21.046439
21
-134.119688
0
LINE
8
Layer 1
10
21.046439
20
-134.119688
11
21.693786
21
-134.252022
0
LINE
8
Layer 1
10
21.693786
20
-134.252022
11
22.457550
21
-134.225521
0
LINE
8
Layer 1
10
22.457550
20
-134.225521
11
26.973105
21
-133.713993
0
LINE
8
Layer 1
10
26.973105
20
-133.713993
11
32.617548
21
-132.884966
0
LINE
8
Layer 1
10
32.617548
20
-132.884966
11
35.192826
21
-132.426354
0
LINE
8
Layer 1
10
35.192826
20
-132.426354
11
35.592121
21
-132.337459
0
LINE
8
Layer 1
10
35.592121
20
-132.337459
11
35.891713
21
-132.080526
0
LINE
8
Layer 1
10
35.891713
20
-132.080526
11
36.079987
21
-131.670188
0
LINE
8
Layer 1
10
36.079987
20
-131.670188
11
36.145326
21
-131.121077
0
LINE
8
Layer 1
10
36.145326
20
-131.121077
11
35.907205
21
-130.901031
0
LINE
8
Layer 1
10
35.907205
20
-130.901031
11
35.263382
21
-130.821216
0
LINE
8
Layer 1
10
35.263382
20
-130.821216
11
35.263382
21
-130.821216
0
LINE
8
Layer 1
10
32.308868
20
-134.534216
11
31.559215
21
-134.613577
0
LINE
8
Layer 1
10
31.559215
20
-134.613577
11
24.362550
21
-134.816438
0
LINE
8
Layer 1
10
24.362550
20
-134.816438
11
19.723975
21
-134.882859
0
LINE
8
Layer 1
10
19.723975
20
-134.882859
11
18.687407
21
-134.982443
0
LINE
8
Layer 1
10
18.687407
20
-134.982443
11
18.365327
21
-135.133938
0
LINE
8
Layer 1
10
18.365327
20
-135.133938
11
18.494783
21
-135.498242
0
LINE
8
Layer 1
10
18.494783
20
-135.498242
11
18.857532
21
-135.848161
0
LINE
8
Layer 1
10
18.857532
20
-135.848161
11
20.129216
21
-136.395104
0
LINE
8
Layer 1
10
20.129216
20
-136.395104
11
22.103090
21
-136.538914
0
LINE
8
Layer 1
10
22.103090
20
-136.538914
11
25.561994
21
-136.562688
0
LINE
8
Layer 1
10
25.561994
20
-136.562688
11
29.584704
21
-136.406340
0
LINE
8
Layer 1
10
29.584704
20
-136.406340
11
30.566941
21
-136.194440
0
LINE
8
Layer 1
10
30.566941
20
-136.194440
11
31.418104
21
-135.821855
0
LINE
8
Layer 1
10
31.418104
20
-135.821855
11
32.269006
21
-135.320080
0
LINE
8
Layer 1
10
32.269006
20
-135.320080
11
32.702964
21
-134.915621
0
LINE
8
Layer 1
10
32.702964
20
-134.915621
11
32.717184
21
-134.642370
0
LINE
8
Layer 1
10
32.717184
20
-134.642370
11
32.308868
21
-134.534216
0
LINE
8
Layer 1
10
32.308868
20
-134.534216
11
32.308868
21
-134.534216
0
LINE
8
Layer 1
10
52.814076
20
-134.719410
11
53.131576
21
-134.772327
0
LINE
8
Layer 1
10
53.131576
20
-134.772327
11
53.251099
21
-134.884820
0
LINE
8
Layer 1
10
53.251099
20
-134.884820
11
52.955187
21
-134.939910
0
LINE
8
Layer 1
10
52.955187
20
-134.939910
11
52.623246
21
-134.909074
0
LINE
8
Layer 1
10
52.623246
20
-134.909074
11
52.584771
21
-134.798799
0
LINE
8
Layer 1
10
52.584771
20
-134.798799
11
52.814076
21
-134.719410
0
LINE
8
Layer 1
10
52.814076
20
-134.719410
11
52.814076
21
-134.719410
 0 
ENDSEC
 0 
EOF
