  0
SECTION
  2
HEADER
  9
$ACADVER
  1
AC1009
  9
$DWGCODEPAGE
  3
ansi_1252
  9
$INSBASE
 10
0.0
 20
0.0
 30
0.0
  9
$EXTMIN
 10
59.17812897954968
 20
47.07647286751833
 30
0.0
  9
$EXTMAX
 10
549.8817856616921
 20
529.3132861924813
 30
0.0
  9
$LIMMIN
 10
0.0
 20
0.0
  9
$LIMMAX
 10
420.0
 20
297.0
  9
$ORTHOMODE
 70
     0
  9
$REGENMODE
 70
     1
  9
$FILLMODE
 70
     1
  9
$QTEXTMODE
 70
     0
  9
$MIRRTEXT
 70
     0
  9
$DRAGMODE
 70
     2
  9
$LTSCALE
 40
1.0
  9
$OSMODE
 70
    37
  9
$ATTMODE
 70
     1
  9
$TEXTSIZE
 40
2.5
  9
$TRACEWID
 40
1.0
  9
$TEXTSTYLE
  7
STANDARD
  9
$CLAYER
  8
0
  9
$CELTYPE
  6
BYLAYER
  9
$CECOLOR
 62
   256
  9
$DIMSCALE
 40
1.0
  9
$DIMASZ
 40
2.5
  9
$DIMEXO
 40
0.625
  9
$DIMDLI
 40
3.75
  9
$DIMRND
 40
0.0
  9
$DIMDLE
 40
0.0
  9
$DIMEXE
 40
1.25
  9
$DIMTP
 40
0.0
  9
$DIMTM
 40
0.0
  9
$DIMTXT
 40
2.5
  9
$DIMCEN
 40
2.5
  9
$DIMTSZ
 40
0.0
  9
$DIMTOL
 70
     0
  9
$DIMLIM
 70
     0
  9
$DIMTIH
 70
     0
  9
$DIMTOH
 70
     0
  9
$DIMSE1
 70
     0
  9
$DIMSE2
 70
     0
  9
$DIMTAD
 70
     1
  9
$DIMZIN
 70
     8
  9
$DIMBLK
  1

  9
$DIMASO
 70
     1
  9
$DIMSHO
 70
     1
  9
$DIMPOST
  1

  9
$DIMAPOST
  1

  9
$DIMALT
 70
     0
  9
$DIMALTD
 70
     3
  9
$DIMALTF
 40
0.03937007874016
  9
$DIMLFAC
 40
1.0
  9
$DIMTOFL
 70
     1
  9
$DIMTVP
 40
0.0
  9
$DIMTIX
 70
     0
  9
$DIMSOXD
 70
     0
  9
$DIMSAH
 70
     0
  9
$DIMBLK1
  1

  9
$DIMBLK2
  1

  9
$DIMSTYLE
  2
ISO-25
  9
$DIMCLRD
 70
     0
  9
$DIMCLRE
 70
     0
  9
$DIMCLRT
 70
     0
  9
$DIMTFAC
 40
1.0
  9
$DIMGAP
 40
0.625
  9
$LUNITS
 70
     2
  9
$LUPREC
 70
     4
  9
$SKETCHINC
 40
1.0
  9
$FILLETRAD
 40
0.0
  9
$AUNITS
 70
     0
  9
$AUPREC
 70
     0
  9
$MENU
  1
.
  9
$ELEVATION
 40
0.0
  9
$PELEVATION
 40
0.0
  9
$THICKNESS
 40
0.0
  9
$LIMCHECK
 70
     0
  9
$CHAMFERA
 40
0.0
  9
$CHAMFERB
 40
0.0
  9
$SKPOLY
 70
     0
  9
$TDCREATE
 40
2453353.550459155
  9
$TDUPDATE
 40
9819683.882902222
  9
$TDINDWG
 40
2440852.080755556
  9
$TDUSRTIMER
 40
2440852.080755556
  9
$USRTIMER
 70
     1
  9
$ANGBASE
 50
0.0
  9
$ANGDIR
 70
     0
  9
$PDMODE
 70
     0
  9
$PDSIZE
 40
0.0
  9
$PLINEWID
 40
0.0
  9
$COORDS
 70
     1
  9
$SPLFRAME
 70
     0
  9
$SPLINETYPE
 70
     6
  9
$SPLINESEGS
 70
     8
  9
$ATTDIA
 70
     0
  9
$ATTREQ
 70
     1
  9
$HANDLING
 70
     1
  9
$HANDSEED
  5
17C
  9
$SURFTAB1
 70
     6
  9
$SURFTAB2
 70
     6
  9
$SURFTYPE
 70
     6
  9
$SURFU
 70
     6
  9
$SURFV
 70
     6
  9
$UCSNAME
  2

  9
$UCSORG
 10
0.0
 20
0.0
 30
0.0
  9
$UCSXDIR
 10
1.0
 20
0.0
 30
0.0
  9
$UCSYDIR
 10
0.0
 20
1.0
 30
0.0
  9
$PUCSNAME
  2

  9
$PUCSORG
 10
0.0
 20
0.0
 30
0.0
  9
$PUCSXDIR
 10
1.0
 20
0.0
 30
0.0
  9
$PUCSYDIR
 10
0.0
 20
1.0
 30
0.0
  9
$USERI1
 70
     0
  9
$USERI2
 70
     0
  9
$USERI3
 70
     0
  9
$USERI4
 70
     0
  9
$USERI5
 70
     0
  9
$USERR1
 40
0.0
  9
$USERR2
 40
0.0
  9
$USERR3
 40
0.0
  9
$USERR4
 40
0.0
  9
$USERR5
 40
0.0
  9
$WORLDVIEW
 70
     1
  9
$SHADEDGE
 70
     3
  9
$SHADEDIF
 70
    70
  9
$TILEMODE
 70
     1
  9
$MAXACTVP
 70
    64
  9
$PLIMCHECK
 70
     0
  9
$PEXTMIN
 10
0.0
 20
0.0
 30
0.0
  9
$PEXTMAX
 10
0.0
 20
0.0
 30
0.0
  9
$PLIMMIN
 10
0.0
 20
0.0
  9
$PLIMMAX
 10
420.0
 20
297.0
  9
$UNITMODE
 70
     0
  9
$VISRETAIN
 70
     1
  9
$PLINEGEN
 70
     0
  9
$PSLTSCALE
 70
     1
  0
ENDSEC
  0
SECTION
  2
TABLES
  0
TABLE
  2
VPORT
 70
     1
  0
VPORT
  2
*ACTIVE
 70
     0
 10
0.0
 20
0.0
 11
1.0
 21
1.0
 12
314.3463367900795
 22
296.3734914321688
 13
0.0
 23
0.0
 14
10.0
 24
10.0
 15
10.0
 25
10.0
 16
0.0
 26
0.0
 36
1.0
 17
0.0
 27
0.0
 37
0.0
 40
524.0883000772732
 41
1.664827586206897
 42
50.0
 43
0.0
 44
0.0
 50
0.0
 51
0.0
 71
    16
 72
  1000
 73
     1
 74
     1
 75
     0
 76
     0
 77
     0
 78
     0
  0
ENDTAB
  0
TABLE
  2
LTYPE
 70
     1
  0
LTYPE
  2
CONTINUOUS
 70
     0
  3
Solid line
 72
    65
 73
     0
 40
0.0
  0
ENDTAB
  0
TABLE
  2
LAYER
 70
     1
  0
LAYER
  2
0
 70
     0
 62
     7
  6
CONTINUOUS
  0
ENDTAB
  0
TABLE
  2
STYLE
 70
     1
  0
STYLE
  2
STANDARD
 70
     0
 40
0.0
 41
1.0
 50
0.0
 71
     0
 42
2.5
  3
txt
  4

  0
ENDTAB
  0
TABLE
  2
VIEW
 70
     0
  0
ENDTAB
  0
TABLE
  2
UCS
 70
     0
  0
ENDTAB
  0
TABLE
  2
APPID
 70
     1
  0
APPID
  2
ACAD
 70
     0
  0
ENDTAB
  0
TABLE
  2
DIMSTYLE
 70
     2
  0
DIMSTYLE
  2
STANDARD
 70
     0
  3

  4

  5

  6

  7

 40
1.0
 41
0.18
 42
0.0625
 43
0.38
 44
0.18
 45
0.0
 46
0.0
 47
0.0
 48
0.0
140
0.18
141
0.09
142
0.0
143
25.4
144
1.0
145
0.0
146
1.0
147
0.09
 71
     0
 72
     0
 73
     1
 74
     1
 75
     0
 76
     0
 77
     0
 78
     0
170
     0
171
     2
172
     0
173
     0
174
     0
175
     0
176
     0
177
     0
178
     0
  0
DIMSTYLE
  2
ISO-25
 70
     0
  3

  4

  5

  6

  7

 40
1.0
 41
2.5
 42
0.625
 43
3.75
 44
1.25
 45
0.0
 46
0.0
 47
0.0
 48
0.0
140
2.5
141
2.5
142
0.0
143
0.03937007874016
144
1.0
145
0.0
146
1.0
147
0.625
 71
     0
 72
     0
 73
     0
 74
     0
 75
     0
 76
     0
 77
     1
 78
     8
170
     0
171
     3
172
     1
173
     0
174
     0
175
     0
176
     0
177
     0
178
     0
  0
ENDTAB
  0
ENDSEC
  0
SECTION
  2
BLOCKS
  0
BLOCK
  8
0
  2
$MODEL_SPACE
 70
     0
 10
0.0
 20
0.0
 30
0.0
  3
$MODEL_SPACE
  1

  0
ENDBLK
  5
21
  8
0
  0
BLOCK
 67
     1
  8
0
  2
$PAPER_SPACE
 70
     0
 10
0.0
 20
0.0
 30
0.0
  3
$PAPER_SPACE
  1

  0
ENDBLK
  5
76
 67
     1
  8
0
  0
ENDSEC
  0
SECTION
  2
ENTITIES
  0
ARC
  5
8A
  8
0
 10
351.7452506597658
 20
167.8559114979209
 30
0.0
 40
35.60373251190417
 50
278.4856973853666
 51
8.101740706573112
  0
ARC
  5
8B
  8
0
 10
367.483817790802
 20
183.2761303333493
 30
0.0
 40
51.70833390473577
 50
258.3011344697567
 51
355.2192181950459
  0
ARC
  5
8C
  8
0
 10
414.3913939083885
 20
232.6997720236609
 30
0.0
 40
53.93152249455801
 50
274.9151339324772
 51
10.15760405815934
  0
ARC
  5
8D
  8
0
 10
433.2349692153691
 20
247.2060954117893
 30
0.0
 40
34.60506109049189
 50
260.6339986282039
 51
351.7005068988429
  0
ARC
  5
D6
  8
0
 10
433.582623828849
 20
343.3843166643562
 30
0.0
 40
34.60506109049191
 50
7.944005373768405
 51
99.0105136444073
  0
ARC
  5
D7
  8
0
 10
414.7497023025247
 20
357.9790207968592
 30
0.0
 40
54.004757753221
 50
349.5318102782663
 51
85.02370979380282
  0
ARC
  5
94
  8
0
 10
368.3634565904445
 20
408.2762432628738
 30
0.0
 40
51.19087010523942
 50
3.924919155727516
 51
101.6127434903767
  0
ARC
  5
95
  8
0
 10
353.112571152126
 20
424.1299148948672
 30
0.0
 40
34.64427783913408
 50
350.6247691891799
 51
81.7914741850846
  0
ARC
  5
9E
  8
0
 10
193.4290146853261
 20
233.0877879393045
 30
0.0
 40
53.08423240054326
 50
169.1925763796106
 51
265.1968279601085
  0
ARC
  5
9F
  8
0
 10
241.1840130095468
 20
184.3779240767169
 30
0.0
 40
52.36762907884034
 50
184.5869613799119
 51
281.1253735010251
  0
ARC
  5
A0
  8
0
 10
255.9905199702868
 20
166.9906389535154
 30
0.0
 40
34.31981754884843
 50
170.0858497864651
 51
262.1256855566814
  0
ARC
  5
A1
  8
0
 10
175.7392205789618
 20
248.0002554669587
 30
0.0
 40
34.80790026103254
 50
188.1901956271687
 51
279.8018908715936
  0
ARC
  5
A2
  8
0
 10
242.5243302520118
 20
405.8435895305735
 30
0.0
 40
53.91612645099978
 50
79.62301402006719
 51
174.8718275995239
  0
ARC
  5
A3
  8
0
 10
257.0519384222732
 20
424.7089719617369
 30
0.0
 40
34.50661995546737
 50
98.02284349376384
 51
189.3352029238994
  0
ARC
  5
A4
  8
0
 10
192.9638463286958
 20
359.0960320524172
 30
0.0
 40
51.73270642184261
 50
94.5899128980568
 51
191.4823210440796
  0
ARC
  5
A5
  8
0
 10
176.6297785343616
 20
343.903181750667
 30
0.0
 40
34.71011195247124
 50
81.35719687162157
 51
171.8934099616149
  0
ARC
  5
A7
  8
0
 10
24.43194061901708
 20
292.8344712414814
 30
0.0
 40
176.0239219479667
 50
333.2842926087018
 51
357.2623743291822
  0
ARC
  5
AC
  8
0
 10
590.3309095098895
 20
294.8467128008309
 30
0.0
 40
181.663861694653
 50
153.0758381121176
 51
176.222859926906
  0
ARC
  5
AD
  8
0
 10
304.0375236845354
 20
8.183548793193566
 30
0.0
 40
184.4031640386569
 50
63.26512237571957
 51
86.19940608679991
  0
ARC
  5
B0
  8
0
 10
303.6361182519534
 20
572.9316825987596
 30
0.0
 40
173.6732933977385
 50
242.3360799456089
 51
266.1801994427235
  0
LINE
  5
B3
  8
0
 10
409.0616524422147
 20
306.8139634436164
 30
0.0
 11
481.286661456671
 21
306.7823881526968
 31
0.0
  0
LINE
  5
B4
  8
0
 10
409.0616524422147
 20
282.8126564625938
 30
0.0
 11
480.9740316697665
 21
282.7914306335024
 31
0.0
  0
ARC
  5
B5
  8
0
 10
478.1314587736782
 20
294.8259883523218
 30
0.0
 40
12.36571066122645
 50
283.2897371451962
 51
75.21708747623647
  0
LINE
  5
B8
  8
0
 10
200.7936416277718
 20
308.3979933564568
 30
0.0
 11
128.3637429381585
 21
308.4338000170096
 31
0.0
  0
ARC
  5
B9
  8
0
 10
131.406916121354
 20
296.4483965138207
 30
0.0
 40
12.36571066122648
 50
104.246714761946
 51
256.1740650929864
  0
LINE
  5
BA
  8
0
 10
200.2549708935799
 20
284.4271456849183
 30
0.0
 11
128.4518449423481
 21
284.4409673766498
 31
0.0
  0
LINE
  5
BB
  8
0
 10
292.2870569744919
 20
192.3561589225889
 30
0.0
 11
292.3425680797483
 21
120.0069354156723
 31
0.0
  0
LINE
  5
BC
  8
0
 10
316.2605478837858
 20
192.1811699378495
 30
0.0
 11
316.3349735758156
 21
119.8388325194223
 31
0.0
  0
ARC
  5
BD
  8
0
 10
304.3597838166362
 20
122.9219527552894
 30
0.0
 40
12.36571066122661
 50
193.6348882683603
 51
345.5622385994005
  0
LINE
  5
BE
  8
0
 10
292.0662254741748
 20
399.6442034759804
 30
0.0
 11
292.1154442950181
 21
471.1917274884616
 31
0.0
  0
LINE
  5
BF
  8
0
 10
316.0670124761495
 20
399.2426963891394
 30
0.0
 11
316.1073108750948
 21
471.4243604079834
 31
0.0
  0
ARC
  5
C0
  8
0
 10
304.1404568755032
 20
468.3090425253859
 30
0.0
 40
12.36571066122648
 50
14.59186588510997
 51
166.5192162161503
  0
ARC
  5
C1
  8
0
 10
307.0772656814099
 20
3.042197275313731
 30
0.0
 40
189.8908274461411
 50
94.46717574246743
 51
116.5557071394308
  0
ARC
  5
C4
  8
0
 10
586.5014379815001
 20
290.860953882399
 30
0.0
 40
177.6222187216038
 50
182.5970366607934
 51
206.1450932611311
  0
ARC
  5
C7
  8
0
 10
11.19417660102909
 20
294.4266770408635
 30
0.0
 40
190.1135313911595
 50
4.214427814389336
 51
26.15171814249942
  0
ARC
  5
CC
  8
0
 10
306.2961219183192
 20
576.8469516959161
 30
0.0
 40
177.8728248085351
 50
273.1489505159718
 51
297.0887518857347
  0
POLYLINE
  5
10A
  8
0
 66
     1
 10
0.0
 20
0.0
 30
0.0
 70
     1
  0
VERTEX
  5
178
  8
0
 10
71.03290694383861
 20
529.0545020080236
 30
0.0
  0
VERTEX
  5
179
  8
0
 10
535.4296725174326
 20
529.2946902256343
 30
0.0
  0
VERTEX
  5
17A
  8
0
 10
535.7193591106179
 20
61.54985228607052
 30
0.0
  0
VERTEX
  5
17B
  8
0
 10
70.96471727274233
 20
61.71403811482659
 30
0.0
  0
SEQEND
  5
177
  8
0
  0
ENDSEC
  0
EOF
