  0
SECTION
  2
ENTITIES
  0
LINE
  8
APS_GEOMETRY
 10
4.308031
 11
4.30871
 20
11.909622
 21
13.063559
  0
ARC
  8
APS_GEOMETRY
 10
3.351658
 20
31.518495
 40
18.479735
 50
272.968636
 51
274.560202
  0
ARC
  8
APS_GEOMETRY
 10
3.496336
 20
29.704553
 40
16.660032
 50
274.560202
 51
276.19701
  0
ARC
  8
APS_GEOMETRY
 10
3.585544
 20
28.882985
 40
15.833636
 50
276.19701
 51
277.877122
  0
ARC
  8
APS_GEOMETRY
 10
3.791072
 20
27.39747
 40
14.333969
 50
277.877122
 51
279.597961
  0
ARC
  8
APS_GEOMETRY
 10
3.90414
 20
26.728825
 40
13.655833
 50
279.597961
 51
281.35624
  0
ARC
  8
APS_GEOMETRY
 10
4.14541
 20
25.527525
 40
12.430543
 50
281.35624
 51
283.147903
  0
ARC
  8
APS_GEOMETRY
 10
4.270782
 20
24.990803
 40
11.879373
 50
283.147903
 51
284.968052
  0
ARC
  8
APS_GEOMETRY
 10
4.526542
 20
24.034161
 40
10.889132
 50
284.968052
 51
286.810891
  0
ARC
  8
APS_GEOMETRY
 10
4.71815
 20
23.399961
 40
10.226619
 50
286.810891
 51
290.536567
  0
ARC
  8
APS_GEOMETRY
 10
5.206625
 20
22.096011
 40
8.834178
 50
290.536567
 51
294.257968
  0
ARC
  8
APS_GEOMETRY
 10
5.421984
 20
21.61811
 40
8.309994
 50
294.257968
 51
297.888381
  0
ARC
  8
APS_GEOMETRY
 10
5.747706
 20
21.002627
 40
7.613636
 50
297.888381
 51
301.315176
  0
ARC
  8
APS_GEOMETRY
 10
5.832242
 20
20.863672
 40
7.450986
 50
301.315176
 51
304.385786
  0
ARC
  8
APS_GEOMETRY
 10
5.483886
 20
21.372704
 40
8.067805
 50
304.385786
 51
306.874333
  0
ARC
  8
APS_GEOMETRY
 10
18.687008
 20
26.70745
 40
14.453148
 50
234.651038
 51
235.369953
  0
ARC
  8
APS_GEOMETRY
 10
16.349038
 20
23.322171
 40
10.338999
 50
235.369953
 51
236.360806
  0
ARC
  8
APS_GEOMETRY
 10
15.707277
 20
22.357675
 40
9.180505
 50
236.360806
 51
238.958178
  0
ARC
  8
APS_GEOMETRY
 10
15.242565
 20
21.585541
 40
8.279312
 50
238.958178
 51
242.127946
  0
ARC
  8
APS_GEOMETRY
 10
15.28738
 20
21.670281
 40
8.375173
 50
242.127946
 51
245.646689
  0
ARC
  8
APS_GEOMETRY
 10
15.580087
 20
22.316951
 40
9.085004
 50
245.646689
 51
249.346277
  0
ARC
  8
APS_GEOMETRY
 10
15.791089
 20
22.876717
 40
9.683218
 50
249.346277
 51
253.097454
  0
ARC
  8
APS_GEOMETRY
 10
16.278359
 20
24.480255
 40
11.359155
 50
253.097454
 51
256.802101
  0
ARC
  8
APS_GEOMETRY
 10
16.46689
 20
25.284197
 40
12.184907
 50
256.802101
 51
258.613685
  0
ARC
  8
APS_GEOMETRY
 10
16.713418
 20
26.508347
 40
13.433634
 50
258.613685
 51
260.388677
  0
ARC
  8
APS_GEOMETRY
 10
16.830745
 20
27.20119
 40
14.136341
 50
260.388677
 51
262.12166
  0
ARC
  8
APS_GEOMETRY
 10
17.046738
 20
28.762107
 40
15.712132
 50
262.12166
 51
263.808398
  0
ARC
  8
APS_GEOMETRY
 10
17.141568
 20
29.636221
 40
16.591374
 50
263.808398
 51
265.445708
  0
ARC
  8
APS_GEOMETRY
 10
17.296968
 20
31.587132
 40
18.548465
 50
265.445708
 51
267.031338
  0
LINE
  8
APS_GEOMETRY
 10
16.336348
 11
16.334666
 20
13.063559
 21
11.909622
  0
ARC
  8
APS_GEOMETRY
 10
16.720732
 20
10.759743
 40
1.212959
 50
108.559223
 51
178.079624
  0
LINE
  8
APS_GEOMETRY
 10
15.508454
 11
15.093208
 20
10.80039
 21
10.80039
  0
ARC
  8
APS_GEOMETRY
 10
16.708859
 20
10.761417
 40
1.616121
 50
119.553028
 51
178.618202
  0
LINE
  8
APS_GEOMETRY
 10
15.911742
 11
15.912953
 20
12.16728
 21
12.689888
  0
ARC
  8
APS_GEOMETRY
 10
17.007569
 20
28.224574
 40
15.573202
 50
262.94256
 51
265.969447
  0
ARC
  8
APS_GEOMETRY
 10
16.823959
 20
26.741482
 40
14.078788
 50
259.889856
 51
262.94256
  0
ARC
  8
APS_GEOMETRY
 10
16.706457
 20
26.082508
 40
13.40942
 50
256.823622
 51
259.889856
  0
ARC
  8
APS_GEOMETRY
 10
16.425043
 20
24.880464
 40
12.174874
 50
253.755032
 51
256.823622
  0
ARC
  8
APS_GEOMETRY
 10
16.264729
 20
24.330271
 40
11.601801
 50
250.693228
 51
253.755032
  0
ARC
  8
APS_GEOMETRY
 10
15.896887
 20
23.280277
 40
10.489239
 50
247.644198
 51
250.693228
  0
ARC
  8
APS_GEOMETRY
 10
15.688804
 20
22.774323
 40
9.942167
 50
244.60928
 51
247.644198
  0
ARC
  8
APS_GEOMETRY
 10
15.200815
 20
21.74619
 40
8.804102
 50
241.582942
 51
244.60928
  0
ARC
  8
APS_GEOMETRY
 10
14.916054
 20
21.219911
 40
8.205722
 50
238.549079
 51
241.582942
  0
ARC
  8
APS_GEOMETRY
 10
14.222333
 20
20.085682
 40
6.876164
 50
235.474089
 51
238.549079
  0
ARC
  8
APS_GEOMETRY
 10
7.215171
 20
18.656616
 40
5.255012
 50
302.687242
 51
306.284595
  0
ARC
  8
APS_GEOMETRY
 10
6.491124
 20
19.784988
 40
6.595709
 50
299.206141
 51
302.687242
  0
ARC
  8
APS_GEOMETRY
 10
6.146404
 20
20.401637
 40
7.302171
 50
295.826457
 51
299.206141
  0
ARC
  8
APS_GEOMETRY
 10
5.472805
 20
21.793401
 40
8.848373
 50
292.545194
 51
295.826457
  0
ARC
  8
APS_GEOMETRY
 10
5.14683
 20
22.578624
 40
9.69857
 50
289.364979
 51
292.545194
  0
ARC
  8
APS_GEOMETRY
 10
4.512731
 20
24.382765
 40
11.6109
 50
286.29072
 51
289.364979
  0
ARC
  8
APS_GEOMETRY
 10
4.210964
 20
25.415347
 40
12.686674
 50
283.327717
 51
286.29072
  0
ARC
  8
APS_GEOMETRY
 10
3.646342
 20
27.798715
 40
15.136009
 50
280.480601
 51
283.327717
  0
ARC
  8
APS_GEOMETRY
 10
3.456529
 20
28.824794
 40
16.179496
 50
279.10162
 51
280.480601
  0
ARC
  8
APS_GEOMETRY
 10
3.221291
 20
30.293169
 40
17.666595
 50
277.752777
 51
279.10162
  0
ARC
  8
APS_GEOMETRY
 10
3.114252
 20
31.079391
 40
18.46007
 50
276.434268
 51
277.752777
  0
ARC
  8
APS_GEOMETRY
 10
2.924323
 20
32.763549
 40
20.154904
 50
275.146199
 51
276.434268
  0
LINE
  8
APS_GEOMETRY
 10
4.732166
 11
4.733376
 20
12.689888
 21
12.16728
  0
ARC
  8
APS_GEOMETRY
 10
3.936256
 20
10.76145
 40
1.616093
 50
1.380651
 51
60.446319
  0
LINE
  8
APS_GEOMETRY
 10
5.55188
 11
5.136633
 20
10.80039
 21
10.80039
  0
ARC
  8
APS_GEOMETRY
 10
3.922141
 20
10.757259
 40
1.215258
 50
2.033921
 51
71.48591
  0
LINE
  8
APS_GEOMETRY
 10
4.99189
 11
5.463239
 20
5.685272
 21
5.685272
  0
ARC
  8
APS_GEOMETRY
 10
0.087616
 20
6.241786
 40
5.404353
 50
353.054822
 51
354.089479
  0
ARC
  8
APS_GEOMETRY
 10
2.953951
 20
5.892628
 40
2.51683
 50
351.039813
 51
353.054822
  0
ARC
  8
APS_GEOMETRY
 10
3.510961
 20
5.804803
 40
1.952939
 50
344.422216
 51
351.039813
  0
ARC
  8
APS_GEOMETRY
 10
4.20283
 20
5.611919
 40
1.234685
 50
334.33565
 51
344.422216
  0
ARC
  8
APS_GEOMETRY
 10
4.375138
 20
5.529125
 40
1.043519
 50
320.813781
 51
334.33565
  0
ARC
  8
APS_GEOMETRY
 10
4.445721
 20
5.471586
 40
0.952455
 50
304.989928
 51
320.813781
  0
ARC
  8
APS_GEOMETRY
 10
6.653775
 20
6.42865
 40
2.404226
 50
226.272019
 51
228.547703
  0
ARC
  8
APS_GEOMETRY
 10
10.909512
 20
11.246963
 40
8.832868
 50
228.547703
 51
229.781961
  0
ARC
  8
APS_GEOMETRY
 10
13.389695
 20
14.179989
 40
12.673954
 50
229.781961
 51
230.684034
  0
ARC
  8
APS_GEOMETRY
 10
17.734057
 20
19.484746
 40
19.530624
 50
230.684034
 51
231.458945
  0
ARC
  8
APS_GEOMETRY
 10
19.278528
 20
21.423559
 40
22.009412
 50
231.458945
 51
232.191734
  0
ARC
  8
APS_GEOMETRY
 10
21.083914
 20
23.750356
 40
24.954476
 50
232.191734
 51
232.927808
  0
ARC
  8
APS_GEOMETRY
 10
21.494315
 20
24.29355
 40
25.635276
 50
232.927808
 51
234.5253
  0
ARC
  8
APS_GEOMETRY
 10
19.502777
 20
21.498907
 40
22.203622
 50
234.5253
 51
236.453765
  0
ARC
  8
APS_GEOMETRY
 10
18.175928
 20
19.497768
 40
19.802563
 50
236.453765
 51
237.611804
  0
ARC
  8
APS_GEOMETRY
 10
16.341786
 20
16.606306
 40
16.378437
 50
237.611804
 51
238.948851
  0
ARC
  8
APS_GEOMETRY
 10
15.43752
 20
15.104394
 40
14.625316
 50
238.948851
 51
240.516612
  0
ARC
  8
APS_GEOMETRY
 10
13.766317
 20
12.148553
 40
11.229743
 50
240.516612
 51
242.385178
  0
ARC
  8
APS_GEOMETRY
 10
13.030735
 20
10.742401
 40
9.642814
 50
242.385178
 51
244.652282
  0
ARC
  8
APS_GEOMETRY
 10
11.816607
 20
8.17942
 40
6.806799
 50
244.652282
 51
247.457845
  0
ARC
  8
APS_GEOMETRY
 10
11.3462
 20
7.046116
 40
5.579746
 50
247.457845
 51
251.007083
  0
ARC
  8
APS_GEOMETRY
 10
10.690634
 20
5.141448
 40
3.565414
 50
251.007083
 51
255.606647
  0
ARC
  8
APS_GEOMETRY
 10
10.49233
 20
4.368735
 40
2.767662
 50
255.606647
 51
261.716307
  0
ARC
  8
APS_GEOMETRY
 10
10.325069
 20
3.219911
 40
1.606725
 50
261.716307
 51
270.0
  0
ARC
  8
APS_GEOMETRY
 10
10.325069
 20
3.220929
 40
1.607744
 50
270.0
 51
278.278773
  0
ARC
  8
APS_GEOMETRY
 10
10.157037
 20
4.375743
 40
2.774719
 50
278.278773
 51
284.37898
  0
ARC
  8
APS_GEOMETRY
 10
9.957863
 20
5.152657
 40
3.576757
 50
284.37898
 51
288.968527
  0
ARC
  8
APS_GEOMETRY
 10
9.299506
 20
7.068081
 40
5.602166
 50
288.968527
 51
292.508591
  0
ARC
  8
APS_GEOMETRY
 10
8.827193
 20
8.207863
 40
6.835934
 50
292.508591
 51
295.306195
  0
ARC
  8
APS_GEOMETRY
 10
7.608408
 20
10.7855
 40
9.687187
 50
295.306195
 51
297.566552
  0
ARC
  8
APS_GEOMETRY
 10
6.87023
 20
12.199516
 40
11.282289
 50
297.566552
 51
299.429464
  0
ARC
  8
APS_GEOMETRY
 10
5.193866
 20
15.171008
 40
14.694028
 50
299.429464
 51
300.992529
  0
ARC
  8
APS_GEOMETRY
 10
4.28736
 20
16.680133
 40
16.454486
 50
300.992529
 51
302.325719
  0
ARC
  8
APS_GEOMETRY
 10
2.450568
 20
19.582764
 40
19.889463
 50
302.325719
 51
303.480655
  0
ARC
  8
APS_GEOMETRY
 10
1.577483
 20
20.902821
 40
21.472128
 50
303.480655
 51
304.496668
  0
ARC
  8
APS_GEOMETRY
 10
0.107141
 20
23.042447
 40
24.068261
 50
304.496668
 51
305.40498
  0
ARC
  8
APS_GEOMETRY
 10
-0.705774
 20
24.186119
 40
25.471406
 50
305.40498
 51
307.001202
  0
ARC
  8
APS_GEOMETRY
 10
0.666602
 20
22.364995
 40
23.191075
 50
307.001202
 51
308.472867
  0
ARC
  8
APS_GEOMETRY
 10
2.984861
 20
19.44771
 40
19.464833
 50
308.472867
 51
309.251911
  0
ARC
  8
APS_GEOMETRY
 10
7.345919
 20
14.110404
 40
12.572398
 50
309.251911
 51
310.161809
  0
ARC
  8
APS_GEOMETRY
 10
9.820982
 20
11.177599
 40
8.734784
 50
310.161809
 51
311.411937
  0
ARC
  8
APS_GEOMETRY
 10
14.037507
 20
6.396899
 40
2.36029
 50
311.411937
 51
313.728048
  0
ARC
  8
APS_GEOMETRY
 10
16.215234
 20
5.471584
 40
0.952476
 50
219.185163
 51
235.007959
  0
ARC
  8
APS_GEOMETRY
 10
16.285897
 20
5.529184
 40
1.04364
 50
205.664759
 51
219.185163
  0
ARC
  8
APS_GEOMETRY
 10
16.458222
 20
5.611988
 40
1.234828
 50
195.579148
 51
205.664759
  0
ARC
  8
APS_GEOMETRY
 10
17.149934
 20
5.804847
 40
1.952922
 50
188.961556
 51
195.579148
  0
ARC
  8
APS_GEOMETRY
 10
17.706648
 20
5.892639
 40
2.516516
 50
186.946082
 51
188.961556
  0
ARC
  8
APS_GEOMETRY
 10
20.568111
 20
6.241249
 40
5.399136
 50
185.910521
 51
186.946082
  0
LINE
  8
APS_GEOMETRY
 10
15.197677
 11
15.669025
 20
5.685272
 21
5.685272
  0
ARC
  8
APS_GEOMETRY
 10
17.891414
 20
5.972044
 40
2.240815
 50
187.352684
 51
189.874423
  0
ARC
  8
APS_GEOMETRY
 10
17.01417
 20
5.819344
 40
1.35038
 50
189.874423
 51
193.75186
  0
ARC
  8
APS_GEOMETRY
 10
16.756037
 20
5.75617
 40
1.084629
 50
193.75186
 51
204.968847
  0
ARC
  8
APS_GEOMETRY
 10
16.606632
 20
5.6866
 40
0.91982
 50
204.968847
 51
219.228566
  0
ARC
  8
APS_GEOMETRY
 10
16.676223
 20
5.743415
 40
1.009658
 50
219.228566
 51
233.733659
  0
ARC
  8
APS_GEOMETRY
 10
17.065278
 20
6.273701
 40
1.667357
 50
233.733659
 51
246.125579
  0
ARC
  8
APS_GEOMETRY
 10
12.089768
 20
8.977958
 40
6.031565
 50
313.172072
 51
315.481816
  0
ARC
  8
APS_GEOMETRY
 10
9.319731
 20
11.93063
 40
10.080192
 50
311.395695
 51
313.172072
  0
ARC
  8
APS_GEOMETRY
 10
7.868768
 20
13.576674
 40
12.274447
 50
309.939329
 51
311.395695
  0
ARC
  8
APS_GEOMETRY
 10
5.145196
 20
16.829489
 40
16.516929
 50
308.680271
 51
309.939329
  0
ARC
  8
APS_GEOMETRY
 10
3.980209
 20
18.284657
 40
18.380986
 50
307.541242
 51
308.680271
  0
ARC
  8
APS_GEOMETRY
 10
2.254982
 20
20.529669
 40
21.212326
 50
306.469174
 51
307.541242
  0
ARC
  8
APS_GEOMETRY
 10
1.489668
 20
21.565097
 40
22.499888
 50
304.373331
 51
306.469174
  0
ARC
  8
APS_GEOMETRY
 10
2.143093
 20
20.60984
 40
21.342529
 50
302.132821
 51
304.373331
  0
ARC
  8
APS_GEOMETRY
 10
3.114083
 20
19.063917
 40
19.516961
 50
300.879006
 51
302.132821
  0
ARC
  8
APS_GEOMETRY
 10
4.607862
 20
16.565917
 40
16.606397
 50
299.48494
 51
300.879006
  0
ARC
  8
APS_GEOMETRY
 10
5.402505
 20
15.160529
 40
14.991909
 50
297.900242
 51
299.48494
  0
ARC
  8
APS_GEOMETRY
 10
6.940992
 20
12.254862
 40
11.704076
 50
296.058326
 51
297.900242
  0
ARC
  8
APS_GEOMETRY
 10
7.642993
 20
10.819258
 40
10.106026
 50
293.867574
 51
296.058326
  0
ARC
  8
APS_GEOMETRY
 10
8.827359
 20
8.142495
 40
7.178949
 50
291.197323
 51
293.867574
  0
ARC
  8
APS_GEOMETRY
 10
9.294313
 20
6.93845
 40
5.887527
 50
287.855015
 51
291.197323
  0
ARC
  8
APS_GEOMETRY
 10
9.952603
 20
4.894859
 40
3.740526
 50
283.548601
 51
287.855015
  0
ARC
  8
APS_GEOMETRY
 10
10.153577
 20
4.060861
 40
2.882656
 50
277.826906
 51
283.548601
  0
ARC
  8
APS_GEOMETRY
 10
10.325069
 20
2.813296
 40
1.623359
 50
270.0
 51
277.826906
  0
ARC
  8
APS_GEOMETRY
 10
10.325069
 20
2.812228
 40
1.62229
 50
262.168281
 51
270.0
  0
ARC
  8
APS_GEOMETRY
 10
10.495789
 20
4.053407
 40
2.875155
 50
256.437529
 51
262.168281
  0
ARC
  8
APS_GEOMETRY
 10
10.695903
 20
4.882957
 40
3.728501
 50
252.121683
 51
256.437529
  0
ARC
  8
APS_GEOMETRY
 10
11.351549
 20
6.915505
 40
5.86418
 50
248.770875
 51
252.121683
  0
ARC
  8
APS_GEOMETRY
 10
11.8168
 20
8.113187
 40
7.149054
 50
246.093389
 51
248.770875
  0
ARC
  8
APS_GEOMETRY
 10
12.997457
 20
10.77666
 40
10.062478
 50
243.896653
 51
246.093389
  0
ARC
  8
APS_GEOMETRY
 10
13.697735
 20
12.205894
 40
11.654049
 50
242.049897
 51
243.896653
  0
ARC
  8
APS_GEOMETRY
 10
15.233977
 20
15.101225
 40
14.931697
 50
240.461383
 51
242.049897
  0
ARC
  8
APS_GEOMETRY
 10
16.028531
 20
16.503389
 40
16.543336
 50
239.064428
 51
240.461383
  0
ARC
  8
APS_GEOMETRY
 10
17.525323
 20
19.000826
 40
19.454964
 50
237.808581
 51
239.064428
  0
ARC
  8
APS_GEOMETRY
 10
18.165758
 20
20.018158
 40
20.657096
 50
236.653826
 51
237.808581
  0
ARC
  8
APS_GEOMETRY
 10
19.050411
 20
21.362551
 40
22.266446
 50
235.566503
 51
236.653826
  0
ARC
  8
APS_GEOMETRY
 10
19.337952
 20
21.781968
 40
22.774963
 50
233.472718
 51
235.566503
  0
ARC
  8
APS_GEOMETRY
 10
17.313668
 20
19.049028
 40
19.37398
 50
231.268623
 51
233.472718
  0
ARC
  8
APS_GEOMETRY
 10
15.565181
 20
16.869007
 40
16.579396
 50
230.015899
 51
231.268623
  0
ARC
  8
APS_GEOMETRY
 10
12.845411
 20
13.625884
 40
12.346785
 50
228.568841
 51
230.015899
  0
ARC
  8
APS_GEOMETRY
 10
11.392581
 20
11.979778
 40
10.151249
 50
226.806357
 51
228.568841
  0
ARC
  8
APS_GEOMETRY
 10
8.612352
 20
9.018476
 40
6.089355
 50
224.518184
 51
226.806357
  0
ARC
  8
APS_GEOMETRY
 10
3.52658
 20
6.429812
 40
1.838059
 50
293.873329
 51
299.722302
  0
ARC
  8
APS_GEOMETRY
 10
3.768546
 20
6.005983
 40
1.350024
 50
299.722302
 51
306.265674
  0
ARC
  8
APS_GEOMETRY
 10
3.910426
 20
5.812594
 40
1.110171
 50
306.265674
 51
320.771785
  0
ARC
  8
APS_GEOMETRY
 10
4.066212
 20
5.68541
 40
0.909062
 50
320.771785
 51
335.032512
  0
ARC
  8
APS_GEOMETRY
 10
3.993368
 20
5.719328
 40
0.989415
 50
335.032512
 51
346.249614
  0
ARC
  8
APS_GEOMETRY
 10
3.173914
 20
5.919853
 40
1.833047
 50
346.249614
 51
352.647513
  0
LINE
  8
APS_GEOMETRY
 10
16.677717
 11
16.677717
 20
7.491975
 21
9.036679
  0
ARC
  8
APS_GEOMETRY
 10
16.818256
 20
9.058382
 40
0.142205
 50
81.98666
 51
188.778583
  0
ARC
  8
APS_GEOMETRY
 10
16.857905
 20
9.058382
 40
0.142206
 50
351.221529
 51
98.0136
  0
LINE
  8
APS_GEOMETRY
 10
16.998445
 11
16.998445
 20
9.036679
 21
7.491975
  0
ARC
  8
APS_GEOMETRY
 10
16.85792
 20
7.470257
 40
0.142193
 50
261.979331
 51
8.785541
  0
ARC
  8
APS_GEOMETRY
 10
16.818241
 20
7.470257
 40
0.142192
 50
171.214347
 51
278.020409
  0
LINE
  8
APS_GEOMETRY
 10
14.305177
 11
14.212815
 20
7.357122
 21
7.357122
  0
LINE
  8
APS_GEOMETRY
 10
14.212815
 11
14.212815
 20
7.357122
 21
9.157093
  0
LINE
  8
APS_GEOMETRY
 10
14.212815
 11
14.305177
 20
9.157093
 21
9.157093
  0
ARC
  8
APS_GEOMETRY
 10
14.305177
 20
8.834478
 40
0.322614
 50
79.227698
 51
90.0
  0
ARC
  8
APS_GEOMETRY
 10
14.34794
 20
9.059237
 40
0.093824
 50
56.111643
 51
79.227698
  0
ARC
  8
APS_GEOMETRY
 10
14.355369
 20
9.070298
 40
0.0805
 50
27.926116
 51
56.111643
  0
ARC
  8
APS_GEOMETRY
 10
14.249713
 20
9.014294
 40
0.20008
 50
9.390043
 51
27.926116
  0
ARC
  8
APS_GEOMETRY
 10
14.084702
 20
8.987007
 40
0.367332
 50
3.875357
 51
9.390043
  0
ARC
  8
APS_GEOMETRY
 10
13.705589
 20
8.961325
 40
0.747314
 50
0.0
 51
3.875357
  0
LINE
  8
APS_GEOMETRY
 10
14.452903
 11
14.452903
 20
8.961325
 21
7.55289
  0
ARC
  8
APS_GEOMETRY
 10
13.858672
 20
7.55289
 40
0.594231
 50
350.60993
 51
360.0
  0
ARC
  8
APS_GEOMETRY
 10
14.29827
 20
7.480193
 40
0.148662
 50
332.073924
 51
350.60993
  0
ARC
  8
APS_GEOMETRY
 10
14.350827
 20
7.452335
 40
0.089179
 50
303.88858
 51
332.073924
  0
ARC
  8
APS_GEOMETRY
 10
14.337794
 20
7.471739
 40
0.112554
 50
280.772506
 51
303.88858
  0
ARC
  8
APS_GEOMETRY
 10
14.322387
 20
7.552716
 40
0.194984
 50
274.062384
 51
280.772506
  0
ARC
  8
APS_GEOMETRY
 10
14.305177
 20
7.795031
 40
0.437909
 50
270.0
 51
274.062384
  0
LINE
  8
APS_GEOMETRY
 10
11.332018
 11
11.423228
 20
8.070685
 21
9.091896
  0
LINE
  8
APS_GEOMETRY
 10
11.423228
 11
11.525542
 20
9.091896
 21
8.070685
  0
LINE
  8
APS_GEOMETRY
 10
11.525542
 11
11.332018
 20
8.070685
 21
8.070685
  0
LINE
  8
APS_GEOMETRY
 10
10.20746
 11
10.115098
 20
7.357122
 21
7.357122
  0
LINE
  8
APS_GEOMETRY
 10
10.115098
 11
10.115098
 20
7.357122
 21
9.157093
  0
LINE
  8
APS_GEOMETRY
 10
10.115098
 11
10.20746
 20
9.157093
 21
9.157093
  0
ARC
  8
APS_GEOMETRY
 10
10.20746
 20
8.834478
 40
0.322614
 50
79.227698
 51
90.0
  0
ARC
  8
APS_GEOMETRY
 10
10.250223
 20
9.059237
 40
0.093824
 50
56.111643
 51
79.227698
  0
ARC
  8
APS_GEOMETRY
 10
10.257652
 20
9.070298
 40
0.0805
 50
27.926116
 51
56.111643
  0
ARC
  8
APS_GEOMETRY
 10
10.151997
 20
9.014294
 40
0.20008
 50
9.390043
 51
27.926116
  0
ARC
  8
APS_GEOMETRY
 10
9.986986
 20
8.987007
 40
0.367332
 50
3.875357
 51
9.390043
  0
ARC
  8
APS_GEOMETRY
 10
9.607872
 20
8.961325
 40
0.747314
 50
360.0
 51
3.875357
  0
LINE
  8
APS_GEOMETRY
 10
10.355186
 11
10.355186
 20
8.961325
 21
7.55289
  0
ARC
  8
APS_GEOMETRY
 10
9.760955
 20
7.55289
 40
0.594231
 50
350.60993
 51
360.0
  0
ARC
  8
APS_GEOMETRY
 10
10.200554
 20
7.480193
 40
0.148662
 50
332.073924
 51
350.60993
  0
ARC
  8
APS_GEOMETRY
 10
10.25311
 20
7.452335
 40
0.089179
 50
303.88858
 51
332.073924
  0
ARC
  8
APS_GEOMETRY
 10
10.240077
 20
7.471739
 40
0.112554
 50
280.772506
 51
303.88858
  0
ARC
  8
APS_GEOMETRY
 10
10.22467
 20
7.552716
 40
0.194984
 50
274.062384
 51
280.772506
  0
ARC
  8
APS_GEOMETRY
 10
10.20746
 20
7.795031
 40
0.437909
 50
270.0
 51
274.062384
  0
LINE
  8
APS_GEOMETRY
 10
3.694507
 11
3.785719
 20
8.070685
 21
9.091896
  0
LINE
  8
APS_GEOMETRY
 10
3.785719
 11
3.888031
 20
9.091896
 21
8.070685
  0
LINE
  8
APS_GEOMETRY
 10
3.888031
 11
3.694507
 20
8.070685
 21
8.070685
  0
LINE
  8
APS_GEOMETRY
 10
18.734252
 11
18.255315
 20
6.942142
 21
6.942142
  0
LINE
  8
APS_GEOMETRY
 10
18.255315
 11
17.943947
 20
6.942142
 21
8.439278
  0
LINE
  8
APS_GEOMETRY
 10
17.943947
 11
17.943947
 20
8.439278
 21
6.942142
  0
LINE
  8
APS_GEOMETRY
 10
17.943947
 11
17.550433
 20
6.942142
 21
6.942142
  0
LINE
  8
APS_GEOMETRY
 10
17.550433
 11
17.550433
 20
6.942142
 21
9.572073
  0
LINE
  8
APS_GEOMETRY
 10
17.550433
 11
18.080009
 20
9.572073
 21
9.572073
  0
LINE
  8
APS_GEOMETRY
 10
18.080009
 11
18.335925
 20
9.572073
 21
8.234918
  0
LINE
  8
APS_GEOMETRY
 10
18.335925
 11
18.335925
 20
8.234918
 21
9.572073
  0
LINE
  8
APS_GEOMETRY
 10
18.335925
 11
18.734252
 20
9.572073
 21
9.572073
  0
LINE
  8
APS_GEOMETRY
 10
18.734252
 11
18.734252
 20
9.572073
 21
6.942142
  0
LINE
  8
APS_GEOMETRY
 10
16.286181
 11
16.286181
 20
7.333677
 21
9.180537
  0
ARC
  8
APS_GEOMETRY
 10
16.748834
 20
9.180537
 40
0.462652
 50
156.74417
 51
180.0
  0
ARC
  8
APS_GEOMETRY
 10
16.651943
 20
9.222177
 40
0.357193
 50
132.637599
 51
156.74417
  0
ARC
  8
APS_GEOMETRY
 10
16.70442
 20
9.165183
 40
0.434667
 50
113.695744
 51
132.637599
  0
ARC
  8
APS_GEOMETRY
 10
16.808865
 20
8.927204
 40
0.694557
 50
100.259817
 51
113.695744
  0
ARC
  8
APS_GEOMETRY
 10
16.828554
 20
8.818427
 40
0.805101
 50
94.891491
 51
100.259817
  0
ARC
  8
APS_GEOMETRY
 10
16.83436
 20
8.75058
 40
0.873196
 50
90.0
 51
94.891491
  0
ARC
  8
APS_GEOMETRY
 10
16.83436
 20
8.740605
 40
0.883171
 50
79.834476
 51
90.0
  0
ARC
  8
APS_GEOMETRY
 10
16.875328
 20
8.969082
 40
0.65105
 50
66.62127
 51
79.834476
  0
ARC
  8
APS_GEOMETRY
 10
16.940474
 20
9.119779
 40
0.486875
 50
47.902704
 51
66.62127
  0
ARC
  8
APS_GEOMETRY
 10
17.025245
 20
9.213606
 40
0.360425
 50
23.710103
 51
47.902704
  0
ARC
  8
APS_GEOMETRY
 10
17.003939
 20
9.204248
 40
0.383695
 50
11.301516
 51
23.710103
  0
ARC
  8
APS_GEOMETRY
 10
16.885293
 20
9.180537
 40
0.504687
 50
0.0
 51
11.301516
  0
LINE
  8
APS_GEOMETRY
 10
17.38998
 11
17.38998
 20
9.180537
 21
7.333677
  0
ARC
  8
APS_GEOMETRY
 10
16.936903
 20
7.333677
 40
0.453077
 50
336.290651
 51
360.0
  0
ARC
  8
APS_GEOMETRY
 10
17.022475
 20
7.296097
 40
0.359617
 50
312.096632
 51
336.290651
  0
ARC
  8
APS_GEOMETRY
 10
16.965422
 20
7.359246
 40
0.444722
 50
293.376735
 51
312.096632
  0
ARC
  8
APS_GEOMETRY
 10
16.858179
 20
7.607345
 40
0.715007
 50
280.163671
 51
293.376735
  0
ARC
  8
APS_GEOMETRY
 10
16.839092
 20
7.713818
 40
0.823178
 50
274.864024
 51
280.163671
  0
ARC
  8
APS_GEOMETRY
 10
16.83436
 20
7.769415
 40
0.878976
 50
270.0
 51
274.864024
  0
ARC
  8
APS_GEOMETRY
 10
16.83436
 20
7.762845
 40
0.872406
 50
259.742052
 51
270.0
  0
ARC
  8
APS_GEOMETRY
 10
16.791468
 20
7.525834
 40
0.631545
 50
246.306272
 51
259.742052
  0
ARC
  8
APS_GEOMETRY
 10
16.728088
 20
7.381409
 40
0.473825
 50
227.363067
 51
246.306272
  0
ARC
  8
APS_GEOMETRY
 10
16.651252
 20
7.297958
 40
0.360387
 50
203.255087
 51
227.363067
  0
ARC
  8
APS_GEOMETRY
 10
16.677441
 20
7.309212
 40
0.388893
 50
191.052427
 51
203.255087
  0
ARC
  8
APS_GEOMETRY
 10
16.802689
 20
7.333677
 40
0.516508
 50
180.0
 51
191.052428
  0
LINE
  8
APS_GEOMETRY
 10
16.118671
 11
16.118671
 20
9.180537
 21
8.679367
  0
LINE
  8
APS_GEOMETRY
 10
16.118671
 11
15.727135
 20
8.679367
 21
8.679367
  0
LINE
  8
APS_GEOMETRY
 10
15.727135
 11
15.727135
 20
8.679367
 21
9.046276
  0
ARC
  8
APS_GEOMETRY
 10
15.58785
 20
9.068779
 40
0.141092
 50
350.822518
 51
97.078663
  0
ARC
  8
APS_GEOMETRY
 10
15.551739
 20
9.071016
 40
0.139046
 50
82.261333
 51
190.248901
  0
LINE
  8
APS_GEOMETRY
 10
15.414911
 11
15.414911
 20
9.046276
 21
8.754898
  0
ARC
  8
APS_GEOMETRY
 10
15.512665
 20
8.754898
 40
0.097754
 50
180.0
 51
210.309117
  0
ARC
  8
APS_GEOMETRY
 10
15.808053
 20
8.927571
 40
0.439908
 50
210.309117
 51
223.243514
  0
ARC
  8
APS_GEOMETRY
 10
16.066747
 20
9.170872
 40
0.79504
 50
223.243514
 51
226.63909
  0
ARC
  8
APS_GEOMETRY
 10
16.582854
 20
9.717386
 40
1.546734
 50
226.63909
 51
228.890864
  0
ARC
  8
APS_GEOMETRY
 10
16.981093
 20
10.173749
 40
2.152425
 50
228.890864
 51
230.328774
  0
ARC
  8
APS_GEOMETRY
 10
18.730843
 20
12.283488
 40
4.893341
 50
230.328774
 51
231.144144
  0
LINE
  8
APS_GEOMETRY
 10
15.660941
 11
15.764385
 20
8.472912
 21
8.39024
  0
ARC
  8
APS_GEOMETRY
 10
11.470849
 20
3.034409
 40
6.864356
 50
50.667856
 51
51.282376
  0
ARC
  8
APS_GEOMETRY
 10
13.820881
 20
5.902302
 40
3.156599
 50
49.573928
 51
50.667856
  0
ARC
  8
APS_GEOMETRY
 10
14.299475
 20
6.46413
 40
2.418559
 50
47.933283
 51
49.573928
  0
ARC
  8
APS_GEOMETRY
 10
14.937266
 20
7.170812
 40
1.466626
 50
45.628662
 51
47.933283
  0
ARC
  8
APS_GEOMETRY
 10
15.264157
 20
7.504957
 40
0.999175
 50
38.188824
 51
45.628662
  0
ARC
  8
APS_GEOMETRY
 10
15.766996
 20
7.900493
 40
0.359413
 50
24.40738
 51
38.188824
  0
ARC
  8
APS_GEOMETRY
 10
15.8703
 20
7.94737
 40
0.24597
 50
13.712799
 51
24.40738
  0
ARC
  8
APS_GEOMETRY
 10
15.952499
 20
7.967427
 40
0.16136
 50
360.0
 51
13.712799
  0
LINE
  8
APS_GEOMETRY
 10
16.113858
 11
16.113858
 20
7.967427
 21
7.333677
  0
ARC
  8
APS_GEOMETRY
 10
15.645247
 20
7.333677
 40
0.468611
 50
337.011126
 51
0.0
  0
ARC
  8
APS_GEOMETRY
 10
15.749846
 20
7.289302
 40
0.354989
 50
312.899604
 51
337.011126
  0
ARC
  8
APS_GEOMETRY
 10
15.699922
 20
7.343027
 40
0.428329
 50
293.781073
 51
312.899604
  0
ARC
  8
APS_GEOMETRY
 10
15.595103
 20
7.580896
 40
0.688269
 50
280.224964
 51
293.781073
  0
ARC
  8
APS_GEOMETRY
 10
15.574136
 20
7.697133
 40
0.806382
 50
274.849223
 51
280.224964
  0
ARC
  8
APS_GEOMETRY
 10
15.566772
 20
7.78394
 40
0.893501
 50
270.0
 51
274.849223
  0
ARC
  8
APS_GEOMETRY
 10
15.566772
 20
7.748932
 40
0.858492
 50
259.618372
 51
270.0
  0
ARC
  8
APS_GEOMETRY
 10
15.521434
 20
7.501458
 40
0.606899
 50
245.884892
 51
259.618372
  0
ARC
  8
APS_GEOMETRY
 10
15.460345
 20
7.364989
 40
0.457382
 50
226.647652
 51
245.884892
  0
ARC
  8
APS_GEOMETRY
 10
15.393893
 20
7.294601
 40
0.360581
 50
202.662607
 51
226.647652
  0
ARC
  8
APS_GEOMETRY
 10
15.426595
 20
7.308255
 40
0.396019
 50
190.730246
 51
202.662607
  0
ARC
  8
APS_GEOMETRY
 10
15.560749
 20
7.333677
 40
0.53256
 50
180.0
 51
190.730246
  0
LINE
  8
APS_GEOMETRY
 10
15.028189
 11
15.028189
 20
7.333677
 21
7.905774
  0
LINE
  8
APS_GEOMETRY
 10
15.028189
 11
15.419724
 20
7.905774
 21
7.905774
  0
LINE
  8
APS_GEOMETRY
 10
15.419724
 11
15.419724
 20
7.905774
 21
7.439061
  0
ARC
  8
APS_GEOMETRY
 10
15.552895
 20
7.411414
 40
0.136011
 50
168.271399
 51
277.420987
  0
ARC
  8
APS_GEOMETRY
 10
15.586691
 20
7.413588
 40
0.138003
 50
263.24669
 51
10.637164
  0
LINE
  8
APS_GEOMETRY
 10
15.722323
 11
15.722323
 20
7.439061
 21
7.716088
  0
ARC
  8
APS_GEOMETRY
 10
15.447336
 20
7.716088
 40
0.274987
 50
360.0
 51
38.001776
  0
ARC
  8
APS_GEOMETRY
 10
14.88352
 20
7.275559
 40
0.990497
 50
38.001776
 51
53.241033
  0
ARC
  8
APS_GEOMETRY
 10
13.898634
 20
5.957067
 40
2.636225
 50
53.241033
 51
54.245358
  0
ARC
  8
APS_GEOMETRY
 10
-8.698431
 20
-25.426874
 40
41.308943
 50
54.245358
 51
54.3584
  0
ARC
  8
APS_GEOMETRY
 10
18.594751
 20
12.63742
 40
5.529164
 50
233.606184
 51
234.3584
  0
ARC
  8
APS_GEOMETRY
 10
16.479465
 20
9.767667
 40
1.964067
 50
231.967462
 51
233.606184
  0
ARC
  8
APS_GEOMETRY
 10
16.048547
 20
9.216763
 40
1.264649
 50
225.733886
 51
231.967462
  0
ARC
  8
APS_GEOMETRY
 10
15.561656
 20
8.717236
 40
0.567088
 50
214.808502
 51
225.733886
  0
ARC
  8
APS_GEOMETRY
 10
15.444478
 20
8.63577
 40
0.424374
 50
198.819757
 51
214.808502
  0
ARC
  8
APS_GEOMETRY
 10
15.387078
 20
8.616207
 40
0.363732
 50
180.0
 51
198.819757
  0
LINE
  8
APS_GEOMETRY
 10
15.023346
 11
15.023346
 20
8.616207
 21
9.180537
  0
ARC
  8
APS_GEOMETRY
 10
15.49241
 20
9.180537
 40
0.469064
 50
157.037003
 51
180.0
  0
ARC
  8
APS_GEOMETRY
 10
15.388016
 20
9.22477
 40
0.355686
 50
132.989573
 51
157.037003
  0
ARC
  8
APS_GEOMETRY
 10
15.437526
 20
9.171659
 40
0.428295
 50
113.902733
 51
132.989573
  0
ARC
  8
APS_GEOMETRY
 10
15.540187
 20
8.940019
 40
0.681664
 50
100.320724
 51
113.902733
  0
ARC
  8
APS_GEOMETRY
 10
15.560269
 20
8.829743
 40
0.793755
 50
94.908211
 51
100.320724
  0
ARC
  8
APS_GEOMETRY
 10
15.566772
 20
8.754019
 40
0.869757
 50
90.0
 51
94.908211
  0
ARC
  8
APS_GEOMETRY
 10
15.566772
 20
8.731328
 40
0.892448
 50
79.833734
 51
90.0
  0
ARC
  8
APS_GEOMETRY
 10
15.612081
 20
8.983997
 40
0.635748
 50
66.424494
 51
79.833734
  0
ARC
  8
APS_GEOMETRY
 10
15.676412
 20
9.131417
 40
0.474903
 50
47.454879
 51
66.424494
  0
ARC
  8
APS_GEOMETRY
 10
15.754401
 20
9.216393
 40
0.359564
 50
23.285975
 51
47.454879
  0
ARC
  8
APS_GEOMETRY
 10
15.72815
 20
9.205095
 40
0.388143
 50
11.060944
 51
23.285975
  0
ARC
  8
APS_GEOMETRY
 10
15.602526
 20
9.180537
 40
0.516144
 50
360.0
 51
11.060944
  0
LINE
  8
APS_GEOMETRY
 10
14.379025
 11
13.821279
 20
6.942142
 21
6.942142
  0
LINE
  8
APS_GEOMETRY
 10
13.821279
 11
13.821279
 20
6.942142
 21
9.572073
  0
LINE
  8
APS_GEOMETRY
 10
13.821279
 11
14.294075
 20
9.572073
 21
9.572073
  0
ARC
  8
APS_GEOMETRY
 10
14.294075
 20
8.153463
 40
1.41861
 50
85.246602
 51
90.0
  0
ARC
  8
APS_GEOMETRY
 10
14.348504
 20
8.808025
 40
0.761788
 50
78.51039
 51
85.246602
  0
ARC
  8
APS_GEOMETRY
 10
14.386356
 20
8.994244
 40
0.571761
 50
69.337909
 51
78.51039
  0
ARC
  8
APS_GEOMETRY
 10
14.457617
 20
9.183209
 40
0.369806
 50
57.676531
 51
69.337909
  0
ARC
  8
APS_GEOMETRY
 10
14.488399
 20
9.231858
 40
0.312237
 50
31.335395
 51
57.676531
  0
ARC
  8
APS_GEOMETRY
 10
14.286863
 20
9.109151
 40
0.54819
 50
11.295582
 51
31.335395
  0
ARC
  8
APS_GEOMETRY
 10
13.945416
 20
9.040951
 40
0.896381
 50
4.759762
 51
11.295582
  0
ARC
  8
APS_GEOMETRY
 10
13.18204
 20
8.977388
 40
1.662398
 50
0.0
 51
4.759762
  0
LINE
  8
APS_GEOMETRY
 10
14.844439
 11
14.844439
 20
8.977388
 21
7.418628
  0
ARC
  8
APS_GEOMETRY
 10
14.394933
 20
7.392145
 40
0.450285
 50
267.975373
 51
3.371697
  0
LINE
  8
APS_GEOMETRY
 10
13.588661
 11
13.197126
 20
6.942142
 21
6.942142
  0
LINE
  8
APS_GEOMETRY
 10
13.197126
 11
13.197126
 20
6.942142
 21
9.572073
  0
LINE
  8
APS_GEOMETRY
 10
13.197126
 11
13.588661
 20
9.572073
 21
9.572073
  0
LINE
  8
APS_GEOMETRY
 10
13.588661
 11
13.588661
 20
9.572073
 21
6.942142
  0
LINE
  8
APS_GEOMETRY
 10
12.718956
 11
12.280827
 20
6.942142
 21
6.942142
  0
LINE
  8
APS_GEOMETRY
 10
12.280827
 11
11.913179
 20
6.942142
 21
9.572073
  0
LINE
  8
APS_GEOMETRY
 10
11.913179
 11
12.312362
 20
9.572073
 21
9.572073
  0
LINE
  8
APS_GEOMETRY
 10
12.312362
 11
12.50252
 20
9.572073
 21
7.990606
  0
LINE
  8
APS_GEOMETRY
 10
12.50252
 11
12.692234
 20
7.990606
 21
9.572073
  0
LINE
  8
APS_GEOMETRY
 10
12.692234
 11
13.086604
 20
9.572073
 21
9.572073
  0
LINE
  8
APS_GEOMETRY
 10
13.086604
 11
12.718956
 20
9.572073
 21
6.942142
  0
LINE
  8
APS_GEOMETRY
 10
11.641171
 11
11.572106
 20
6.942142
 21
7.626177
  0
LINE
  8
APS_GEOMETRY
 10
11.572106
 11
11.285453
 20
7.626177
 21
7.626177
  0
LINE
  8
APS_GEOMETRY
 10
11.285453
 11
11.205315
 20
7.626177
 21
6.942142
  0
LINE
  8
APS_GEOMETRY
 10
11.205315
 11
10.850719
 20
6.942142
 21
6.942142
  0
LINE
  8
APS_GEOMETRY
 10
10.850719
 11
11.149892
 20
6.942142
 21
9.572073
  0
LINE
  8
APS_GEOMETRY
 10
11.149892
 11
11.737195
 20
9.572073
 21
9.572073
  0
LINE
  8
APS_GEOMETRY
 10
11.737195
 11
12.036398
 20
9.572073
 21
6.942142
  0
LINE
  8
APS_GEOMETRY
 10
12.036398
 11
11.641171
 20
6.942142
 21
6.942142
  0
LINE
  8
APS_GEOMETRY
 10
10.281339
 11
9.723563
 20
6.942142
 21
6.942142
  0
LINE
  8
APS_GEOMETRY
 10
9.723563
 11
9.723563
 20
6.942142
 21
9.572073
  0
LINE
  8
APS_GEOMETRY
 10
9.723563
 11
10.196388
 20
9.572073
 21
9.572073
  0
ARC
  8
APS_GEOMETRY
 10
10.196388
 20
8.153634
 40
1.418438
 50
85.246361
 51
90.0
  0
ARC
  8
APS_GEOMETRY
 10
10.250808
 20
8.808056
 40
0.761759
 50
78.510067
 51
85.246361
  0
ARC
  8
APS_GEOMETRY
 10
10.288654
 20
8.994245
 40
0.571762
 50
69.337797
 51
78.510067
  0
ARC
  8
APS_GEOMETRY
 10
10.359907
 20
9.183188
 40
0.369829
 50
57.676992
 51
69.337797
  0
ARC
  8
APS_GEOMETRY
 10
10.390689
 20
9.231836
 40
0.312261
 50
31.337121
 51
57.676992
  0
ARC
  8
APS_GEOMETRY
 10
10.189184
 20
9.109141
 40
0.548181
 50
11.29692
 51
31.337121
  0
ARC
  8
APS_GEOMETRY
 10
9.847804
 20
9.040945
 40
0.896306
 50
4.760472
 51
11.29692
  0
ARC
  8
APS_GEOMETRY
 10
9.084614
 20
8.977388
 40
1.662138
 50
360.0
 51
4.760472
  0
LINE
  8
APS_GEOMETRY
 10
10.746752
 11
10.746752
 20
8.977388
 21
7.418628
  0
ARC
  8
APS_GEOMETRY
 10
10.297229
 20
7.392163
 40
0.450301
 50
267.977685
 51
3.369384
  0
LINE
  8
APS_GEOMETRY
 10
9.512854
 11
8.796221
 20
8.101217
 21
8.101217
  0
LINE
  8
APS_GEOMETRY
 10
8.796221
 11
8.796221
 20
8.101217
 21
8.433077
  0
LINE
  8
APS_GEOMETRY
 10
8.796221
 11
9.512854
 20
8.433077
 21
8.433077
  0
LINE
  8
APS_GEOMETRY
 10
9.512854
 11
9.512854
 20
8.433077
 21
8.101217
  0
LINE
  8
APS_GEOMETRY
 10
8.514793
 11
8.123257
 20
6.942142
 21
6.942142
  0
LINE
  8
APS_GEOMETRY
 10
8.123257
 11
8.123257
 20
6.942142
 21
7.924672
  0
LINE
  8
APS_GEOMETRY
 10
8.123257
 11
7.720649
 20
7.924672
 21
9.572073
  0
LINE
  8
APS_GEOMETRY
 10
7.720649
 11
8.123257
 20
9.572073
 21
9.572073
  0
LINE
  8
APS_GEOMETRY
 10
8.123257
 11
8.334321
 20
9.572073
 21
8.653234
  0
LINE
  8
APS_GEOMETRY
 10
8.334321
 11
8.551732
 20
8.653234
 21
9.572073
  0
LINE
  8
APS_GEOMETRY
 10
8.551732
 11
8.917401
 20
9.572073
 21
9.572073
  0
LINE
  8
APS_GEOMETRY
 10
8.917401
 11
8.514793
 20
9.572073
 21
7.943156
  0
LINE
  8
APS_GEOMETRY
 10
8.514793
 11
8.514793
 20
7.943156
 21
6.942142
  0
LINE
  8
APS_GEOMETRY
 10
7.606614
 11
6.790029
 20
6.942142
 21
6.942142
  0
LINE
  8
APS_GEOMETRY
 10
6.790029
 11
6.790029
 20
6.942142
 21
9.572073
  0
LINE
  8
APS_GEOMETRY
 10
6.790029
 11
7.599232
 20
9.572073
 21
9.572073
  0
LINE
  8
APS_GEOMETRY
 10
7.599232
 11
7.599232
 20
9.572073
 21
9.161227
  0
LINE
  8
APS_GEOMETRY
 10
7.599232
 11
7.181565
 20
9.161227
 21
9.161227
  0
LINE
  8
APS_GEOMETRY
 10
7.181565
 11
7.181565
 20
9.161227
 21
8.518913
  0
LINE
  8
APS_GEOMETRY
 10
7.181565
 11
7.580777
 20
8.518913
 21
8.518913
  0
LINE
  8
APS_GEOMETRY
 10
7.580777
 11
7.580777
 20
8.518913
 21
8.103283
  0
LINE
  8
APS_GEOMETRY
 10
7.580777
 11
7.181565
 20
8.103283
 21
8.103283
  0
LINE
  8
APS_GEOMETRY
 10
7.181565
 11
7.181565
 20
8.103283
 21
7.357801
  0
LINE
  8
APS_GEOMETRY
 10
7.181565
 11
7.606614
 20
7.357801
 21
7.357801
  0
LINE
  8
APS_GEOMETRY
 10
7.606614
 11
7.606614
 20
7.357801
 21
6.942142
  0
LINE
  8
APS_GEOMETRY
 10
6.658809
 11
5.869626
 20
6.942142
 21
6.942142
  0
LINE
  8
APS_GEOMETRY
 10
5.869626
 11
5.869626
 20
6.942142
 21
9.572073
  0
LINE
  8
APS_GEOMETRY
 10
5.869626
 11
6.261161
 20
9.572073
 21
9.572073
  0
LINE
  8
APS_GEOMETRY
 10
6.261161
 11
6.261161
 20
9.572073
 21
7.357801
  0
LINE
  8
APS_GEOMETRY
 10
6.261161
 11
6.658809
 20
7.357801
 21
7.357801
  0
LINE
  8
APS_GEOMETRY
 10
6.658809
 11
6.658809
 20
7.357801
 21
6.942142
  0
LINE
  8
APS_GEOMETRY
 10
4.003631
 11
3.934596
 20
6.942142
 21
7.626177
  0
LINE
  8
APS_GEOMETRY
 10
3.934596
 11
3.647943
 20
7.626177
 21
7.626177
  0
LINE
  8
APS_GEOMETRY
 10
3.647943
 11
3.567805
 20
7.626177
 21
6.942142
  0
LINE
  8
APS_GEOMETRY
 10
3.567805
 11
3.213208
 20
6.942142
 21
6.942142
  0
LINE
  8
APS_GEOMETRY
 10
3.213208
 11
3.512381
 20
6.942142
 21
9.572073
  0
LINE
  8
APS_GEOMETRY
 10
3.512381
 11
4.099685
 20
9.572073
 21
9.572073
  0
LINE
  8
APS_GEOMETRY
 10
4.099685
 11
4.398888
 20
9.572073
 21
6.942142
  0
LINE
  8
APS_GEOMETRY
 10
4.398888
 11
4.003631
 20
6.942142
 21
6.942142
  0
LINE
  8
APS_GEOMETRY
 10
3.091821
 11
2.700285
 20
6.942142
 21
6.942142
  0
LINE
  8
APS_GEOMETRY
 10
2.700285
 11
2.700285
 20
6.942142
 21
8.071069
  0
LINE
  8
APS_GEOMETRY
 10
2.700285
 11
2.390984
 20
8.071069
 21
8.071069
  0
LINE
  8
APS_GEOMETRY
 10
2.390984
 11
2.390984
 20
8.071069
 21
6.942142
  0
LINE
  8
APS_GEOMETRY
 10
2.390984
 11
1.999449
 20
6.942142
 21
6.942142
  0
LINE
  8
APS_GEOMETRY
 10
1.999449
 11
1.999449
 20
6.942142
 21
9.572073
  0
LINE
  8
APS_GEOMETRY
 10
1.999449
 11
2.390984
 20
9.572073
 21
9.572073
  0
LINE
  8
APS_GEOMETRY
 10
2.390984
 11
2.390984
 20
9.572073
 21
8.52039
  0
LINE
  8
APS_GEOMETRY
 10
2.390984
 11
2.700285
 20
8.52039
 21
8.52039
  0
LINE
  8
APS_GEOMETRY
 10
2.700285
 11
2.700285
 20
8.52039
 21
9.572073
  0
LINE
  8
APS_GEOMETRY
 10
2.700285
 11
3.091821
 20
9.572073
 21
9.572073
  0
LINE
  8
APS_GEOMETRY
 10
3.091821
 11
3.091821
 20
9.572073
 21
6.942142
  0
LINE
  8
APS_GEOMETRY
 10
1.432845
 11
19.218445
 20
9.924042
 21
9.924042
  0
LINE
  8
APS_GEOMETRY
 10
19.218445
 11
19.218445
 20
9.924042
 21
6.547743
  0
LINE
  8
APS_GEOMETRY
 10
19.218445
 11
1.432845
 20
6.547743
 21
6.547743
  0
LINE
  8
APS_GEOMETRY
 10
1.432845
 11
1.432845
 20
6.547743
 21
9.924042
  0
LINE
  8
APS_GEOMETRY
 10
19.641693
 11
1.0
 20
6.114898
 21
6.114898
  0
LINE
  8
APS_GEOMETRY
 10
1.0
 11
1.0
 20
6.114898
 21
10.308785
  0
LINE
  8
APS_GEOMETRY
 10
1.0
 11
19.641693
 20
10.308785
 21
10.308785
  0
LINE
  8
APS_GEOMETRY
 10
19.641693
 11
19.641693
 20
10.308785
 21
6.114898
  0
LINE
  8
APS_GEOMETRY
 10
5.642766
 11
5.64306
 20
7.985942
 21
6.942142
  0
LINE
  8
APS_GEOMETRY
 10
5.64306
 11
5.251496
 20
6.942142
 21
6.942142
  0
LINE
  8
APS_GEOMETRY
 10
5.251496
 11
5.251584
 20
6.942142
 21
7.821798
  0
ARC
  8
APS_GEOMETRY
 10
4.900412
 20
7.821798
 40
0.351172
 50
0.0
 51
14.977041
  0
ARC
  8
APS_GEOMETRY
 10
5.116697
 20
7.879658
 40
0.127281
 50
14.977041
 51
41.575859
  0
ARC
  8
APS_GEOMETRY
 10
5.113386
 20
7.876721
 40
0.131708
 50
41.575859
 51
67.872748
  0
ARC
  8
APS_GEOMETRY
 10
5.014949
 20
7.634632
 40
0.393045
 50
67.872748
 51
82.916097
  0
ARC
  8
APS_GEOMETRY
 10
4.97365
 20
7.302297
 40
0.727935
 50
82.916097
 51
87.144897
  0
ARC
  8
APS_GEOMETRY
 10
4.934547
 20
6.518235
 40
1.512972
 50
87.144897
 51
90.0
  0
LINE
  8
APS_GEOMETRY
 10
4.934547
 11
4.934547
 20
8.031207
 21
6.942142
  0
LINE
  8
APS_GEOMETRY
 10
4.934547
 11
4.543011
 20
6.942142
 21
6.942142
  0
LINE
  8
APS_GEOMETRY
 10
4.543011
 11
4.543011
 20
6.942142
 21
9.572073
  0
LINE
  8
APS_GEOMETRY
 10
4.543011
 11
5.18999
 20
9.572073
 21
9.572073
  0
ARC
  8
APS_GEOMETRY
 10
5.18999
 20
8.433091
 40
1.138982
 50
85.223095
 51
90.0
  0
ARC
  8
APS_GEOMETRY
 10
5.231012
 20
8.923987
 40
0.646375
 50
78.69895
 51
85.223095
  0
ARC
  8
APS_GEOMETRY
 10
5.275873
 20
9.148471
 40
0.417453
 50
59.11379
 51
78.69895
  0
ARC
  8
APS_GEOMETRY
 10
5.355062
 20
9.28086
 40
0.263187
 50
33.692798
 51
59.11379
  0
ARC
  8
APS_GEOMETRY
 10
5.299399
 20
9.243747
 40
0.330088
 50
12.718398
 51
33.692798
  0
ARC
  8
APS_GEOMETRY
 10
4.757421
 20
9.121424
 40
0.885699
 50
0.0
 51
12.718398
  0
LINE
  8
APS_GEOMETRY
 10
5.64312
 11
5.64312
 20
9.121424
 21
8.748372
  0
ARC
  8
APS_GEOMETRY
 10
5.115718
 20
8.686345
 40
0.531037
 50
311.400037
 51
6.707646
  0
ARC
  8
APS_GEOMETRY
 10
5.213424
 20
7.938203
 40
0.431987
 50
6.344641
 51
54.072266
  0
LINE
  8
APS_GEOMETRY
 10
5.070935
 11
4.934547
 20
8.43913
 21
8.43913
  0
LINE
  8
APS_GEOMETRY
 10
4.934547
 11
4.934547
 20
8.43913
 21
9.210006
  0
LINE
  8
APS_GEOMETRY
 10
4.934547
 11
5.089419
 20
9.210006
 21
9.210006
  0
ARC
  8
APS_GEOMETRY
 10
5.09187
 20
9.063763
 40
0.146263
 50
353.436011
 51
90.960469
  0
LINE
  8
APS_GEOMETRY
 10
5.237175
 11
5.237175
 20
9.047044
 21
8.652319
  0
ARC
  8
APS_GEOMETRY
 10
5.063631
 20
8.616235
 40
0.177255
 50
272.361597
 51
11.74581
  0
LINE
  8
APS_GEOMETRY
 10
1.307845
 11
19.343445
 20
10.049042
 21
10.049042
  0
LINE
  8
APS_GEOMETRY
 10
19.343445
 11
19.343445
 20
10.049042
 21
6.422743
  0
LINE
  8
APS_GEOMETRY
 10
19.343445
 11
1.307845
 20
6.422743
 21
6.422743
  0
LINE
  8
APS_GEOMETRY
 10
1.307845
 11
1.307845
 20
6.422743
 21
10.049042
  0
LINE
  8
APS_GEOMETRY
 10
3.364983
 11
3.364983
 20
10.810554
 21
15.812005
  0
LINE
  8
APS_GEOMETRY
 10
3.364983
 11
17.244442
 20
15.812005
 21
15.812005
  0
LINE
  8
APS_GEOMETRY
 10
17.244442
 11
17.244442
 20
15.812005
 21
10.810554
  0
LINE
  8
APS_GEOMETRY
 10
17.244442
 11
3.364983
 20
10.810554
 21
10.810554
  0
LINE
  8
APS_GEOMETRY
 10
2.915025
 11
17.798236
 20
5.68796
 21
5.68796
  0
LINE
  8
APS_GEOMETRY
 10
17.798236
 11
17.798236
 20
5.68796
 21
0.375
  0
LINE
  8
APS_GEOMETRY
 10
17.798236
 11
2.915025
 20
0.375
 21
0.375
  0
LINE
  8
APS_GEOMETRY
 10
2.915025
 11
2.915025
 20
0.375
 21
5.68796
  0
LINE
  8
DEFAULT
 10
6.853189
 11
6.482854
 20
10.80039
 21
11.59294
  0
LINE
  8
DEFAULT
 10
6.482854
 11
6.482854
 20
11.59294
 21
10.80039
  0
LINE
  8
DEFAULT
 10
6.482854
 11
6.030757
 20
10.80039
 21
10.80039
  0
LINE
  8
DEFAULT
 10
6.030757
 11
6.030757
 20
10.80039
 21
12.468283
  0
LINE
  8
DEFAULT
 10
6.030757
 11
6.482854
 20
12.468283
 21
12.550046
  0
LINE
  8
DEFAULT
 10
6.482854
 11
6.83875
 20
12.550046
 21
11.790124
  0
LINE
  8
DEFAULT
 10
6.83875
 11
7.233149
 20
11.790124
 21
12.708727
  0
LINE
  8
DEFAULT
 10
7.233149
 11
7.656368
 20
12.708727
 21
12.819367
  0
LINE
  8
DEFAULT
 10
7.656368
 11
7.656368
 20
12.819367
 21
10.80039
  0
LINE
  8
DEFAULT
 10
7.656368
 11
7.204272
 20
10.80039
 21
10.80039
  0
LINE
  8
DEFAULT
 10
7.204272
 11
7.204272
 20
10.80039
 21
11.621787
  0
LINE
  8
DEFAULT
 10
7.204272
 11
6.853189
 20
11.621787
 21
10.80039
  0
ARC
  8
APS_GEOMETRY
 10
8.57356
 20
12.423978
 40
0.200285
 50
116.685641
 51
163.576225
  0
LINE
  8
APS_GEOMETRY
 10
8.483613
 11
8.849133
 20
12.602929
 21
12.74723
  0
ARC
  8
APS_GEOMETRY
 10
8.895681
 20
12.659433
 40
0.099373
 50
358.772027
 51
117.931695
  0
LINE
  8
APS_GEOMETRY
 10
8.995032
 11
8.995032
 20
12.657304
 21
11.361904
  0
ARC
  8
APS_GEOMETRY
 10
8.866897
 20
11.391056
 40
0.131408
 50
265.946384
 51
347.183034
  0
LINE
  8
APS_GEOMETRY
 10
8.857608
 11
8.525748
 20
11.259976
 21
11.259976
  0
ARC
  8
APS_GEOMETRY
 10
8.504375
 20
11.382249
 40
0.124127
 50
172.028449
 51
279.915034
  0
LINE
  8
APS_GEOMETRY
 10
8.381447
 11
8.381447
 20
11.399463
 21
12.480606
  0
LINE
  8
APS_GEOMETRY
 10
14.163651
 11
13.629793
 20
11.790124
 21
11.790124
  0
LINE
  8
APS_GEOMETRY
 10
13.629793
 11
13.629793
 20
11.790124
 21
12.251847
  0
LINE
  8
APS_GEOMETRY
 10
13.629793
 11
14.168465
 20
12.251847
 21
12.141207
  0
ARC
  8
APS_GEOMETRY
 10
14.11492
 20
11.994214
 40
0.156441
 50
343.137478
 51
69.985179
  0
ARC
  8
APS_GEOMETRY
 10
13.753818
 20
11.948834
 40
0.510818
 50
354.004205
 51
360.0
  0
ARC
  8
APS_GEOMETRY
 10
14.068219
 20
11.915813
 40
0.194687
 50
342.616624
 51
354.004205
  0
ARC
  8
APS_GEOMETRY
 10
14.14041
 20
11.893212
 40
0.119041
 50
322.711598
 51
342.616624
  0
ARC
  8
APS_GEOMETRY
 10
14.176139
 20
11.866006
 40
0.074133
 50
294.930286
 51
322.711598
  0
ARC
  8
APS_GEOMETRY
 10
14.171997
 20
11.874917
 40
0.08396
 50
281.407059
 51
294.930286
  0
ARC
  8
APS_GEOMETRY
 10
14.163651
 20
11.916281
 40
0.126157
 50
270.0
 51
281.407059
  0
LINE
  8
APS_GEOMETRY
 10
12.340827
 11
12.340827
 20
12.381709
 21
11.400567
  0
ARC
  8
APS_GEOMETRY
 10
12.217909
 20
11.383346
 40
0.124118
 50
260.093079
 51
7.975013
  0
LINE
  8
APS_GEOMETRY
 10
12.196555
 11
11.864695
 20
11.261079
 21
11.261079
  0
ARC
  8
APS_GEOMETRY
 10
11.855384
 20
11.392165
 40
0.131417
 50
172.128346
 51
274.062576
  0
LINE
  8
APS_GEOMETRY
 10
11.725206
 11
11.725206
 20
11.410163
 21
12.641404
  0
ARC
  8
APS_GEOMETRY
 10
11.822952
 20
12.659416
 40
0.099392
 50
62.069456
 51
190.440945
  0
LINE
  8
APS_GEOMETRY
 10
11.869507
 11
12.235029
 20
12.74723
 21
12.602929
  0
ARC
  8
APS_GEOMETRY
 10
12.145075
 20
12.424
 40
0.200268
 50
347.808994
 51
63.309733
  0
LINE
  8
APS_GEOMETRY
 10
14.615305
 11
14.615305
 20
5.685272
 21
5.23917
  0
LINE
  8
APS_GEOMETRY
 10
14.615305
 11
13.52249
 20
5.23917
 21
5.23917
  0
ARC
  8
APS_GEOMETRY
 10
13.52249
 20
5.231582
 40
0.007588
 50
90.000003
 51
132.824469
  0
ARC
  8
APS_GEOMETRY
 10
13.536879
 20
5.216056
 40
0.028757
 50
132.824465
 51
153.670915
  0
ARC
  8
APS_GEOMETRY
 10
13.585379
 20
5.192055
 40
0.08287
 50
153.670915
 51
168.816646
  0
ARC
  8
APS_GEOMETRY
 10
13.974847
 20
5.115056
 40
0.479877
 50
168.816646
 51
174.715416
  0
ARC
  8
APS_GEOMETRY
 10
14.487254
 20
5.067661
 40
0.994471
 50
174.715416
 51
180.66523
  0
ARC
  8
APS_GEOMETRY
 10
14.623282
 20
5.06924
 40
1.130507
 50
180.66523
 51
186.100122
  0
ARC
  8
APS_GEOMETRY
 10
13.950076
 20
4.997294
 40
0.453468
 50
186.100122
 51
195.462666
  0
ARC
  8
APS_GEOMETRY
 10
13.52249
 20
4.879013
 40
0.009824
 50
195.462666
 51
270.0
  0
LINE
  8
APS_GEOMETRY
 10
13.52249
 11
14.503454
 20
4.86919
 21
4.86919
  0
ARC
  8
APS_GEOMETRY
 10
14.503454
 20
4.395633
 40
0.473557
 50
80.768458
 51
90.0
  0
ARC
  8
APS_GEOMETRY
 10
14.568328
 20
4.794782
 40
0.06917
 50
57.648283
 51
80.768458
  0
ARC
  8
APS_GEOMETRY
 10
14.586303
 20
4.82316
 40
0.035578
 50
19.81347
 51
57.648283
  0
ARC
  8
APS_GEOMETRY
 10
14.542844
 20
4.807502
 40
0.081772
 50
359.998651
 51
19.81347
  0
LINE
  8
APS_GEOMETRY
 10
14.624616
 11
14.623927
 20
4.8075
 21
4.774524
  0
LINE
  8
APS_GEOMETRY
 10
14.623927
 11
14.623927
 20
4.774524
 21
4.223776
  0
ARC
  8
APS_GEOMETRY
 10
14.31295
 20
4.326789
 40
0.327595
 50
305.557734
 51
341.672168
  0
ARC
  8
APS_GEOMETRY
 10
-45.893936
 20
101.142637
 40
114.336471
 50
301.027406
 51
301.886789
  0
LINE
  8
APS_GEOMETRY
 10
13.040571
 11
13.040571
 20
3.165331
 21
3.552584
  0
LINE
  8
APS_GEOMETRY
 10
13.040571
 11
13.072626
 20
3.552584
 21
3.572875
  0
ARC
  8
APS_GEOMETRY
 10
-18.874989
 20
53.978992
 40
59.67769
 50
302.3667
 51
302.627245
  0
ARC
  8
APS_GEOMETRY
 10
-11.477531
 20
42.424018
 40
45.957639
 50
302.627245
 51
303.090889
  0
ARC
  8
APS_GEOMETRY
 10
-5.077602
 20
32.603134
 40
34.235487
 50
303.090889
 51
303.269358
  0
ARC
  8
APS_GEOMETRY
 10
-0.038293
 20
24.922572
 40
25.049319
 50
303.269358
 51
303.491009
  0
ARC
  8
APS_GEOMETRY
 10
2.318276
 20
21.36097
 40
20.778672
 50
303.491009
 51
303.773662
  0
ARC
  8
APS_GEOMETRY
 10
6.515383
 20
15.085168
 40
13.228745
 50
303.773662
 51
304.146496
  0
ARC
  8
APS_GEOMETRY
 10
8.28963
 20
12.46919
 40
10.067845
 50
304.146496
 51
304.660809
  0
ARC
  8
APS_GEOMETRY
 10
11.112404
 20
8.386624
 40
5.104439
 50
304.660809
 51
305.415827
  0
ARC
  8
APS_GEOMETRY
 10
12.151454
 20
6.925394
 40
3.311447
 50
305.415827
 51
306.631548
  0
ARC
  8
APS_GEOMETRY
 10
13.519772
 20
5.085069
 40
1.018177
 50
306.631548
 51
308.911334
  0
ARC
  8
APS_GEOMETRY
 10
13.900342
 20
4.613614
 40
0.412286
 50
308.911334
 51
314.695019
  0
ARC
  8
APS_GEOMETRY
 10
14.181957
 20
4.328985
 40
0.011885
 50
314.695019
 51
350.547991
  0
ARC
  8
APS_GEOMETRY
 10
14.025185
 20
4.358049
 40
0.171327
 50
349.5702
 51
38.507999
  0
ARC
  8
APS_GEOMETRY
 10
13.711777
 20
19.763811
 40
15.305632
 50
268.324662
 51
271.675338
  0
ARC
  8
APS_GEOMETRY
 10
13.373715
 20
5.285038
 40
0.827582
 50
256.902963
 51
262.402752
  0
ARC
  8
APS_GEOMETRY
 10
13.232621
 20
4.678583
 40
0.20493
 50
244.666949
 51
256.902963
  0
ARC
  8
APS_GEOMETRY
 10
13.194017
 20
4.597036
 40
0.114707
 50
222.71221
 51
244.666949
  0
ARC
  8
APS_GEOMETRY
 10
13.175692
 20
4.58012
 40
0.089768
 50
197.323808
 51
222.71221
  0
ARC
  8
APS_GEOMETRY
 10
13.208233
 20
4.59027
 40
0.123855
 50
187.40143
 51
197.323808
  0
ARC
  8
APS_GEOMETRY
 10
13.301668
 20
4.602407
 40
0.218075
 50
180.0
 51
187.40143
  0
ARC
  8
APS_GEOMETRY
 10
38.876315
 20
5.011157
 40
25.795961
 50
179.092082
 51
180.907918
  0
ARC
  8
APS_GEOMETRY
 10
13.249629
 20
5.402425
 40
0.166954
 50
143.371467
 51
173.989398
  0
ARC
  8
APS_GEOMETRY
 10
13.385848
 20
5.301154
 40
0.336694
 50
124.390606
 51
143.371467
  0
ARC
  8
APS_GEOMETRY
 10
13.498376
 20
5.136755
 40
0.535916
 50
113.231365
 51
124.390606
  0
ARC
  8
APS_GEOMETRY
 10
13.619989
 20
4.853439
 40
0.84423
 50
105.549338
 51
113.231365
  0
ARC
  8
APS_GEOMETRY
 10
13.610123
 20
4.888894
 40
0.807429
 50
102.05227
 51
105.549338
  0
ARC
  8
APS_GEOMETRY
 10
13.558688
 20
5.129798
 40
0.561094
 50
98.116511
 51
102.05227
  0
ARC
  8
APS_GEOMETRY
 10
14.047387
 20
-43.919002
 40
49.607524
 50
89.344051
 51
90.655949
  0
LINE
  8
APS_GEOMETRY
 10
11.957146
 11
12.860719
 20
5.685272
 21
5.685272
  0
LINE
  8
APS_GEOMETRY
 10
12.860719
 11
12.860719
 20
5.685272
 21
5.194996
  0
LINE
  8
APS_GEOMETRY
 10
12.860719
 11
12.189527
 20
5.194996
 21
5.194996
  0
LINE
  8
APS_GEOMETRY
 10
12.189527
 11
12.189527
 20
5.194996
 21
4.497969
  0
LINE
  8
APS_GEOMETRY
 10
12.189527
 11
12.671388
 20
4.497969
 21
4.497969
  0
LINE
  8
APS_GEOMETRY
 10
12.671388
 11
12.671388
 20
4.497969
 21
4.102122
  0
LINE
  8
APS_GEOMETRY
 10
12.671388
 11
12.189527
 20
4.102122
 21
4.102122
  0
LINE
  8
APS_GEOMETRY
 10
12.189527
 11
12.189527
 20
4.102122
 21
3.146965
  0
LINE
  8
APS_GEOMETRY
 10
12.189527
 11
12.774675
 20
3.146965
 21
3.422309
  0
LINE
  8
APS_GEOMETRY
 10
12.774675
 11
12.774675
 20
3.422309
 21
3.000685
  0
LINE
  8
APS_GEOMETRY
 10
12.774675
 11
12.000197
 20
3.000685
 21
2.613431
  0
ARC
  8
APS_GEOMETRY
 10
11.923996
 20
2.734884
 40
0.143378
 50
194.297846
 51
302.104501
  0
LINE
  8
APS_GEOMETRY
 10
11.785059
 11
11.785059
 20
2.699475
 21
5.513392
  0
ARC
  8
APS_GEOMETRY
 10
11.956855
 20
5.513476
 40
0.171796
 50
89.903022
 51
180.028267
  0
LINE
  8
APS_GEOMETRY
 10
10.537756
 11
10.537756
 20
2.132811
 21
5.685272
  0
LINE
  8
APS_GEOMETRY
 10
10.537756
 11
11.054075
 20
5.685272
 21
5.685272
  0
LINE
  8
APS_GEOMETRY
 10
11.054075
 11
11.054075
 20
5.685272
 21
2.657723
  0
LINE
  8
APS_GEOMETRY
 10
11.054075
 11
11.561801
 20
2.657723
 21
2.864238
  0
LINE
  8
APS_GEOMETRY
 10
11.561801
 11
11.561801
 20
2.864238
 21
2.399593
  0
ARC
  8
APS_GEOMETRY
 10
34.412466
 20
-49.439694
 40
56.652136
 50
113.787799
 51
114.761619
  0
ARC
  8
APS_GEOMETRY
 10
10.647562
 20
2.109827
 40
0.112185
 50
168.177391
 51
288.988474
  0
LINE
  8
APS_GEOMETRY
 10
10.219626
 11
10.219626
 20
2.41669
 21
1.883156
  0
LINE
  8
APS_GEOMETRY
 10
10.219626
 11
10.193999
 20
1.883156
 21
1.894085
  0
ARC
  8
APS_GEOMETRY
 10
21.198245
 20
27.634258
 40
27.993749
 50
246.446674
 51
246.852686
  0
ARC
  8
APS_GEOMETRY
 10
19.338584
 20
23.368193
 40
23.33997
 50
245.750994
 51
246.446674
  0
ARC
  8
APS_GEOMETRY
 10
16.714285
 20
17.542194
 40
16.950196
 50
245.176753
 51
245.750994
  0
ARC
  8
APS_GEOMETRY
 10
13.273523
 20
10.10363
 40
8.7544
 50
244.284586
 51
245.176753
  0
ARC
  8
APS_GEOMETRY
 10
12.21196
 20
7.899383
 40
6.307847
 50
243.623738
 51
244.284586
  0
ARC
  8
APS_GEOMETRY
 10
11.013399
 20
5.482385
 40
3.609991
 50
242.710596
 51
243.623738
  0
ARC
  8
APS_GEOMETRY
 10
10.532802
 20
4.550822
 40
2.561762
 50
241.367494
 51
242.710596
  0
ARC
  8
APS_GEOMETRY
 10
9.815243
 20
3.2365
 40
1.064321
 50
239.200671
 51
241.367494
  0
ARC
  8
APS_GEOMETRY
 10
9.571808
 20
2.828124
 40
0.588893
 50
235.136762
 51
239.200671
  0
ARC
  8
APS_GEOMETRY
 10
9.29322
 20
2.42823
 40
0.101525
 50
224.989944
 51
235.136762
  0
ARC
  8
APS_GEOMETRY
 10
9.455462
 20
2.599394
 40
0.337338
 50
180.343952
 51
226.068477
  0
LINE
  8
APS_GEOMETRY
 10
9.11813
 11
9.11813
 20
2.597369
 21
5.299406
  0
ARC
  8
APS_GEOMETRY
 10
9.258813
 20
5.299406
 40
0.140682
 50
160.925876
 51
180.0
  0
ARC
  8
APS_GEOMETRY
 10
9.400816
 20
5.250305
 40
0.290935
 50
148.497481
 51
160.925877
  0
ARC
  8
APS_GEOMETRY
 10
9.510291
 20
5.183212
 40
0.419334
 50
140.247842
 51
148.497481
  0
ARC
  8
APS_GEOMETRY
 10
9.742629
 20
4.989964
 40
0.721535
 50
134.355531
 51
140.247842
  0
ARC
  8
APS_GEOMETRY
 10
9.913941
 20
4.814754
 40
0.966579
 50
125.712183
 51
134.355531
  0
ARC
  8
APS_GEOMETRY
 10
9.790612
 20
4.986307
 40
0.755297
 50
116.738295
 51
125.712183
  0
ARC
  8
APS_GEOMETRY
 10
9.626164
 20
5.312732
 40
0.389788
 50
108.910426
 51
116.738295
  0
ARC
  8
APS_GEOMETRY
 10
9.522598
 20
5.615045
 40
0.070227
 50
90.0
 51
108.910426
  0
LINE
  8
APS_GEOMETRY
 10
9.522598
 11
10.19379
 20
5.685272
 21
5.685272
  0
LINE
  8
APS_GEOMETRY
 10
10.19379
 11
10.19379
 20
5.685272
 21
5.196177
  0
ARC
  8
APS_GEOMETRY
 10
9.952844
 20
7.389191
 40
2.20621
 50
263.73009
 51
276.26991
  0
ARC
  8
APS_GEOMETRY
 10
9.703762
 20
5.147299
 40
0.049551
 50
80.547991
 51
115.417015
  0
ARC
  8
APS_GEOMETRY
 10
9.723494
 20
5.105774
 40
0.095525
 50
115.417015
 51
142.997949
  0
ARC
  8
APS_GEOMETRY
 10
9.783467
 20
5.060578
 40
0.170622
 50
142.997949
 51
160.772461
  0
ARC
  8
APS_GEOMETRY
 10
10.095877
 20
4.951617
 40
0.501488
 50
160.772461
 51
172.20115
  0
ARC
  8
APS_GEOMETRY
 10
10.326843
 20
4.919983
 40
0.734611
 50
172.20115
 51
176.440568
  0
ARC
  8
APS_GEOMETRY
 10
10.728546
 20
4.894996
 40
1.13709
 50
176.440568
 51
180.0
  0
LINE
  8
APS_GEOMETRY
 10
9.591456
 11
9.591456
 20
4.894996
 21
2.898579
  0
ARC
  8
APS_GEOMETRY
 10
9.872782
 20
2.87238
 40
0.282543
 50
174.679641
 51
209.080163
  0
ARC
  8
APS_GEOMETRY
 10
12.061444
 20
6.564674
 40
4.53851
 50
237.544167
 51
246.057473
  0
LINE
  8
APS_GEOMETRY
 10
7.938356
 11
7.456467
 20
4.342743
 21
5.685272
  0
LINE
  8
APS_GEOMETRY
 10
7.456467
 11
7.921142
 20
5.685272
 21
5.685272
  0
LINE
  8
APS_GEOMETRY
 10
7.921142
 11
8.170679
 20
5.685272
 21
4.910705
  0
LINE
  8
APS_GEOMETRY
 10
8.170679
 11
8.575118
 20
4.910705
 21
5.685272
  0
LINE
  8
APS_GEOMETRY
 10
8.575118
 11
9.013986
 20
5.685272
 21
5.685272
  0
LINE
  8
APS_GEOMETRY
 10
9.013986
 11
8.385788
 20
5.685272
 21
4.325528
  0
LINE
  8
APS_GEOMETRY
 10
8.385788
 11
8.385788
 20
4.325528
 21
2.699121
  0
ARC
  8
APS_GEOMETRY
 10
8.372473
 20
2.699121
 40
0.013315
 50
318.324886
 51
359.999999
  0
ARC
  8
APS_GEOMETRY
 10
8.3695
 20
2.701767
 40
0.017295
 50
283.344582
 51
318.324886
  0
ARC
  8
APS_GEOMETRY
 10
8.361233
 20
2.736618
 40
0.053113
 50
257.988602
 51
283.344582
  0
ARC
  8
APS_GEOMETRY
 10
8.43864
 20
3.100433
 40
0.425072
 50
249.642432
 51
257.988602
  0
ARC
  8
APS_GEOMETRY
 10
8.56459
 20
3.439874
 40
0.787127
 50
245.322038
 51
249.642432
  0
ARC
  8
APS_GEOMETRY
 10
8.86555
 20
4.094871
 40
1.507958
 50
242.330308
 51
245.322038
  0
ARC
  8
APS_GEOMETRY
 10
9.007638
 20
4.365857
 40
1.813936
 50
234.823923
 51
242.330308
  0
ARC
  8
APS_GEOMETRY
 10
7.996455
 20
2.931143
 40
0.058688
 50
188.12233
 51
234.823923
  0
ARC
  8
APS_GEOMETRY
 10
46.934027
 20
3.632797
 40
39.002133
 50
178.957002
 51
181.042998
  0
LINE
  8
APS_GEOMETRY
 10
7.482686
 11
7.482686
 20
3.671847
 21
3.189957
  0
ARC
  8
APS_GEOMETRY
 10
-129.200767
 20
-179.311018
 40
228.010904
 50
53.168756
 51
53.62935
  0
ARC
  8
APS_GEOMETRY
 10
6.332602
 20
4.626333
 40
0.47043
 50
192.595707
 51
226.901952
  0
ARC
  8
APS_GEOMETRY
 10
19.947823
 20
4.94971
 40
14.080774
 50
178.266452
 51
181.733548
  0
ARC
  8
APS_GEOMETRY
 10
6.023545
 20
5.375675
 40
0.150051
 50
170.923568
 51
180.0
  0
ARC
  8
APS_GEOMETRY
 10
6.272975
 20
5.335828
 40
0.402644
 50
165.357058
 51
170.923568
  0
ARC
  8
APS_GEOMETRY
 10
6.431283
 20
5.294465
 40
0.566266
 50
156.496165
 51
165.357058
  0
ARC
  8
APS_GEOMETRY
 10
6.345435
 20
5.3318
 40
0.472652
 50
145.634173
 51
156.496165
  0
ARC
  8
APS_GEOMETRY
 10
6.185392
 20
5.441243
 40
0.278766
 50
126.48763
 51
145.634173
  0
ARC
  8
APS_GEOMETRY
 10
6.080009
 20
5.583724
 40
0.101548
 50
90.0
 51
126.48763
  0
LINE
  8
APS_GEOMETRY
 10
6.080009
 11
7.190098
 20
5.685272
 21
5.685272
  0
LINE
  8
APS_GEOMETRY
 10
7.190098
 11
7.190098
 20
5.685272
 21
5.229367
  0
LINE
  8
APS_GEOMETRY
 10
7.190098
 11
6.5275
 20
5.229367
 21
5.229367
  0
ARC
  8
APS_GEOMETRY
 10
6.485795
 20
5.11479
 40
0.12193
 50
69.998985
 51
182.757739
  0
LINE
  8
APS_GEOMETRY
 10
6.364006
 11
6.364006
 20
5.108924
 21
4.601197
  0
ARC
  8
APS_GEOMETRY
 10
6.546908
 20
4.633651
 40
0.185759
 50
190.061726
 51
235.41128
  0
ARC
  8
APS_GEOMETRY
 10
-151.847105
 20
-200.351188
 40
258.865565
 50
52.012291
 51
52.304121
  0
LINE
  8
APS_GEOMETRY
 10
9.503228
 11
9.503228
 20
13.006925
 21
13.507122
  0
LINE
  8
APS_GEOMETRY
 10
9.503228
 11
10.325069
 20
13.507122
 21
13.954406
  0
LINE
  8
APS_GEOMETRY
 10
10.325069
 11
11.186535
 20
13.954406
 21
13.483086
  0
LINE
  8
APS_GEOMETRY
 10
11.186535
 11
11.186535
 20
13.483086
 21
12.98289
  0
LINE
  8
APS_GEOMETRY
 10
11.186535
 11
10.590168
 20
12.98289
 21
13.305124
  0
LINE
  8
APS_GEOMETRY
 10
10.590168
 11
10.590168
 20
13.305124
 21
10.80039
  0
LINE
  8
APS_GEOMETRY
 10
10.590168
 11
10.099596
 20
10.80039
 21
10.80039
  0
LINE
  8
APS_GEOMETRY
 10
10.099596
 11
10.099596
 20
10.80039
 21
13.334002
  0
LINE
  8
APS_GEOMETRY
 10
10.099596
 11
9.503228
 20
13.334002
 21
13.006925
  0
LINE
  8
APS_GEOMETRY
 10
9.445502
 11
9.445502
 20
13.030991
 21
11.261079
  0
ARC
  8
APS_GEOMETRY
 10
9.022126
 20
11.224381
 40
0.424963
 50
266.124696
 51
4.954004
  0
LINE
  8
APS_GEOMETRY
 10
8.993405
 11
8.40185
 20
10.80039
 21
10.80039
  0
ARC
  8
APS_GEOMETRY
 10
8.35391
 20
11.226205
 40
0.428506
 50
177.910761
 51
276.423567
  0
LINE
  8
APS_GEOMETRY
 10
7.925689
 11
7.925689
 20
11.241827
 21
12.453845
  0
ARC
  8
APS_GEOMETRY
 10
9.070566
 20
12.472938
 40
1.145037
 50
172.3815
 51
180.955427
  0
ARC
  8
APS_GEOMETRY
 10
8.514029
 20
12.547379
 40
0.583543
 50
160.281543
 51
172.3815
  0
ARC
  8
APS_GEOMETRY
 10
8.381707
 20
12.594805
 40
0.442979
 50
144.568331
 51
160.281543
  0
ARC
  8
APS_GEOMETRY
 10
8.317714
 20
12.640335
 40
0.364441
 50
127.274666
 51
144.568331
  0
ARC
  8
APS_GEOMETRY
 10
8.336743
 20
12.615334
 40
0.395861
 50
119.132136
 51
127.274666
  0
ARC
  8
APS_GEOMETRY
 10
8.37936
 20
12.538867
 40
0.483401
 50
111.798468
 51
119.132136
  0
LINE
  8
APS_GEOMETRY
 10
8.199852
 11
8.988593
 20
12.987703
 21
13.290685
  0
ARC
  8
APS_GEOMETRY
 10
9.140822
 20
12.8678
 40
0.449451
 50
90.989965
 51
109.797664
  0
ARC
  8
APS_GEOMETRY
 10
9.138984
 20
12.974159
 40
0.343076
 50
70.532421
 51
90.989964
  0
ARC
  8
APS_GEOMETRY
 10
9.151158
 20
13.008601
 40
0.306545
 50
48.271248
 51
70.532421
  0
ARC
  8
APS_GEOMETRY
 10
9.177056
 20
13.037638
 40
0.267637
 50
24.252798
 51
48.271248
  0
ARC
  8
APS_GEOMETRY
 10
9.174807
 20
13.036625
 40
0.270103
 50
11.987422
 51
24.252798
  0
ARC
  8
APS_GEOMETRY
 10
9.14827
 20
13.030991
 40
0.297232
 50
0.0
 51
11.987423
  0
LINE
  8
APS_GEOMETRY
 10
12.792923
 11
12.792923
 20
12.453845
 21
11.241827
  0
ARC
  8
APS_GEOMETRY
 10
12.364713
 20
11.226196
 40
0.428495
 50
263.578753
 51
2.090544
  0
LINE
  8
APS_GEOMETRY
 10
12.316792
 11
11.725206
 20
10.80039
 21
10.80039
  0
ARC
  8
APS_GEOMETRY
 10
11.6965
 20
11.224395
 40
0.424976
 50
175.048041
 51
273.873127
  0
LINE
  8
APS_GEOMETRY
 10
11.27311
 11
11.27311
 20
11.261079
 21
13.030991
  0
ARC
  8
APS_GEOMETRY
 10
11.558641
 20
13.030991
 40
0.285531
 50
155.74498
 51
180.0
  0
ARC
  8
APS_GEOMETRY
 10
11.544154
 20
13.037518
 40
0.269641
 50
131.726887
 51
155.74498
  0
ARC
  8
APS_GEOMETRY
 10
11.56001
 20
13.019739
 40
0.293463
 50
109.467248
 51
131.726887
  0
ARC
  8
APS_GEOMETRY
 10
11.583853
 20
12.952285
 40
0.365007
 50
89.009994
 51
109.467248
  0
ARC
  8
APS_GEOMETRY
 10
11.583188
 20
12.91378
 40
0.403518
 50
79.392965
 51
89.009994
  0
ARC
  8
APS_GEOMETRY
 10
11.571112
 20
12.8493
 40
0.469119
 50
70.200122
 51
79.392965
  0
LINE
  8
APS_GEOMETRY
 10
11.73002
 11
12.51879
 20
13.290685
 21
12.987703
  0
ARC
  8
APS_GEOMETRY
 10
12.352586
 20
12.572196
 40
0.447515
 50
52.721905
 51
68.198537
  0
ARC
  8
APS_GEOMETRY
 10
12.403153
 20
12.638627
 40
0.364028
 50
35.429046
 51
52.721905
  0
ARC
  8
APS_GEOMETRY
 10
12.370094
 20
12.615108
 40
0.404599
 50
19.717157
 51
35.429046
  0
ARC
  8
APS_GEOMETRY
 10
12.112908
 20
12.522935
 40
0.677804
 50
7.618073
 51
19.717157
  0
ARC
  8
APS_GEOMETRY
 10
11.901036
 20
12.494597
 40
0.891562
 50
2.941724
 51
7.618073
  0
ARC
  8
APS_GEOMETRY
 10
11.520896
 20
12.475063
 40
1.272204
 50
359.044366
 51
2.941724
  0
LINE
  8
APS_GEOMETRY
 10
14.716732
 11
14.264635
 20
10.80039
 21
10.80039
  0
LINE
  8
APS_GEOMETRY
 10
14.264635
 11
14.264635
 20
10.80039
 21
11.169692
  0
ARC
  8
APS_GEOMETRY
 10
14.065073
 20
11.135587
 40
0.202455
 50
9.697904
 51
90.689326
  0
LINE
  8
APS_GEOMETRY
 10
14.062638
 11
13.629793
 20
11.338028
 21
11.338028
  0
LINE
  8
APS_GEOMETRY
 10
13.629793
 11
13.629793
 20
11.338028
 21
10.80039
  0
LINE
  8
APS_GEOMETRY
 10
13.629793
 11
13.177697
 20
10.80039
 21
10.80039
  0
LINE
  8
APS_GEOMETRY
 10
13.177697
 11
13.177697
 20
10.80039
 21
12.785705
  0
LINE
  8
APS_GEOMETRY
 10
13.177697
 11
14.264635
 20
12.785705
 21
12.559642
  0
ARC
  8
APS_GEOMETRY
 10
14.04311
 20
11.546649
 40
1.036932
 50
71.259314
 51
77.664497
  0
ARC
  8
APS_GEOMETRY
 10
14.14389
 20
11.843697
 40
0.723253
 50
61.385165
 51
71.259314
  0
ARC
  8
APS_GEOMETRY
 10
14.230004
 20
12.001544
 40
0.543444
 50
46.138362
 51
61.385165
  0
ARC
  8
APS_GEOMETRY
 10
14.359075
 20
12.135849
 40
0.357172
 50
24.343725
 51
46.138362
  0
ARC
  8
APS_GEOMETRY
 10
14.368374
 20
12.140056
 40
0.346966
 50
11.98683
 51
24.343725
  0
ARC
  8
APS_GEOMETRY
 10
14.305929
 20
12.126798
 40
0.410804
 50
0.0
 51
11.98683
  0
LINE
  8
APS_GEOMETRY
 10
14.716732
 11
14.716732
 20
12.126798
 21
11.804563
  0
ARC
  8
APS_GEOMETRY
 10
14.447626
 20
11.764637
 40
0.272052
 50
293.940562
 51
8.43928
  0
ARC
  8
APS_GEOMETRY
 10
14.341179
 20
11.201695
 40
0.381841
 50
10.412321
 51
55.396954
  0
LINE
  8
APS_GEOMETRY
 10
14.716732
 11
14.716732
 20
11.270705
 21
10.80039
  0
LINE
  8
APS_GEOMETRY
 10
16.226919
 11
20.055315
 20
5.685272
 21
5.685272
  0
LINE
  8
APS_GEOMETRY
 10
20.055315
 11
20.055315
 20
5.685272
 21
10.80039
  0
LINE
  8
APS_GEOMETRY
 10
20.055315
 11
15.917589
 20
10.80039
 21
10.80039
  0
ARC
  8
APS_GEOMETRY
 10
16.758577
 20
10.751224
 40
0.842424
 50
89.944727
 51
176.654203
  0
LINE
  8
APS_GEOMETRY
 10
16.75939
 11
16.75939
 20
11.593648
 21
13.443579
  0
ARC
  8
APS_GEOMETRY
 10
17.389893
 20
31.460318
 40
18.027768
 50
266.19624
 51
267.995727
  0
ARC
  8
APS_GEOMETRY
 10
17.268995
 20
29.641917
 40
16.205352
 50
264.346833
 51
266.19624
  0
ARC
  8
APS_GEOMETRY
 10
17.18828
 20
28.82651
 40
15.38596
 50
262.450944
 51
264.346833
  0
ARC
  8
APS_GEOMETRY
 10
16.994877
 20
27.367129
 40
13.913819
 50
260.512947
 51
262.450944
  0
ARC
  8
APS_GEOMETRY
 10
16.886371
 20
26.717816
 40
13.255503
 50
258.538219
 51
260.512947
  0
ARC
  8
APS_GEOMETRY
 10
16.652644
 20
25.565079
 40
12.079309
 50
256.533216
 51
258.538219
  0
ARC
  8
APS_GEOMETRY
 10
16.531018
 20
25.05717
 40
11.557041
 50
254.505533
 51
256.533216
  0
ARC
  8
APS_GEOMETRY
 10
16.283733
 20
24.165157
 40
10.631386
 50
252.463956
 51
254.505533
  0
ARC
  8
APS_GEOMETRY
 10
16.100248
 20
23.584491
 40
10.022419
 50
248.380614
 51
252.463956
  0
ARC
  8
APS_GEOMETRY
 10
15.649463
 20
22.447062
 40
8.79892
 50
244.380181
 51
248.380614
  0
ARC
  8
APS_GEOMETRY
 10
15.327405
 20
21.775471
 40
8.054101
 50
237.162422
 51
244.380181
  0
ARC
  8
APS_GEOMETRY
 10
16.182717
 20
23.100747
 40
9.631413
 50
232.541862
 51
237.162422
  0
ARC
  8
APS_GEOMETRY
 10
2.397404
 20
25.802163
 40
13.034738
 50
306.705588
 51
307.459118
  0
ARC
  8
APS_GEOMETRY
 10
4.649487
 20
22.781377
 40
9.266844
 50
305.630257
 51
306.705588
  0
ARC
  8
APS_GEOMETRY
 10
5.324566
 20
21.839488
 40
8.108014
 50
299.379259
 51
305.630257
  0
ARC
  8
APS_GEOMETRY
 10
5.009399
 20
22.399293
 40
8.75044
 50
291.595312
 51
299.379259
  0
ARC
  8
APS_GEOMETRY
 10
4.662234
 20
23.276341
 40
9.693699
 50
287.519161
 51
291.595312
  0
ARC
  8
APS_GEOMETRY
 10
4.171242
 20
24.831755
 40
11.324768
 50
283.456537
 51
287.519161
  0
ARC
  8
APS_GEOMETRY
 10
3.989569
 20
25.591015
 40
12.10546
 50
281.454374
 51
283.456537
  0
ARC
  8
APS_GEOMETRY
 10
3.756547
 20
26.741041
 40
13.278857
 50
279.482071
 51
281.454374
  0
ARC
  8
APS_GEOMETRY
 10
3.648417
 20
27.388442
 40
13.935226
 50
277.546041
 51
279.482071
  0
ARC
  8
APS_GEOMETRY
 10
3.455757
 20
28.842806
 40
15.402295
 50
275.65164
 51
277.546041
  0
ARC
  8
APS_GEOMETRY
 10
3.375378
 20
29.655045
 40
16.218502
 50
273.803231
 51
275.65164
  0
ARC
  8
APS_GEOMETRY
 10
3.255012
 20
31.465688
 40
18.033141
 50
272.004258
 51
273.803231
  0
LINE
  8
APS_GEOMETRY
 10
3.885699
 11
3.885699
 20
13.443579
 21
11.593648
  0
ARC
  8
APS_GEOMETRY
 10
3.886496
 20
10.751176
 40
0.842472
 50
3.348845
 51
90.054206
  0
LINE
  8
APS_GEOMETRY
 10
4.727529
 11
0.567126
 20
10.80039
 21
10.80039
  0
LINE
  8
APS_GEOMETRY
 10
0.567126
 11
0.567126
 20
10.80039
 21
5.685272
  0
LINE
  8
APS_GEOMETRY
 10
0.567126
 11
4.433996
 20
5.685272
 21
5.685272
  0
ARC
  8
APS_GEOMETRY
 10
3.931567
 20
5.685272
 40
0.502429
 50
345.311033
 51
0.0
  0
ARC
  8
APS_GEOMETRY
 10
3.848301
 20
5.707099
 40
0.588508
 50
326.146086
 51
345.311033
  0
ARC
  8
APS_GEOMETRY
 10
3.799727
 20
5.739683
 40
0.646998
 50
315.822002
 51
326.146086
  0
ARC
  8
APS_GEOMETRY
 10
3.663324
 20
5.872227
 40
0.837192
 50
305.83827
 51
315.822002
  0
ARC
  8
APS_GEOMETRY
 10
3.570258
 20
6.001085
 40
0.996144
 50
296.727358
 51
305.83827
  0
ARC
  8
APS_GEOMETRY
 10
3.337429
 20
6.463464
 40
1.513835
 50
288.769553
 51
296.727358
  0
ARC
  8
APS_GEOMETRY
 10
3.210796
 20
6.836094
 40
1.907395
 50
282.008045
 51
288.769553
  0
ARC
  8
APS_GEOMETRY
 10
2.970082
 20
7.967784
 40
3.064402
 50
276.341409
 51
282.008045
  0
ARC
  8
APS_GEOMETRY
 10
9.420879
 20
11.573891
 40
9.033628
 50
227.419982
 51
228.412554
  0
ARC
  8
APS_GEOMETRY
 10
16.975593
 20
20.086726
 40
20.415282
 50
228.412554
 51
229.140601
  0
ARC
  8
APS_GEOMETRY
 10
19.99769
 20
23.58053
 40
25.034777
 50
229.140601
 51
229.790678
  0
ARC
  8
APS_GEOMETRY
 10
24.153274
 20
28.496377
 40
31.471735
 50
229.790678
 51
230.429123
  0
ARC
  8
APS_GEOMETRY
 10
25.759555
 20
30.440048
 40
33.993242
 50
230.429123
 51
231.792945
  0
ARC
  8
APS_GEOMETRY
 10
24.94891
 20
29.410164
 40
32.682591
 50
231.792945
 51
233.405668
  0
ARC
  8
APS_GEOMETRY
 10
23.510228
 20
27.472576
 40
30.269283
 50
233.405668
 51
234.353792
  0
ARC
  8
APS_GEOMETRY
 10
21.289684
 20
24.376232
 40
26.459013
 50
234.353792
 51
235.428009
  0
ARC
  8
APS_GEOMETRY
 10
20.093921
 20
22.64106
 40
24.351723
 50
235.428009
 51
236.659188
  0
ARC
  8
APS_GEOMETRY
 10
17.699518
 20
19.001583
 40
19.995238
 50
236.659188
 51
238.087108
  0
ARC
  8
APS_GEOMETRY
 10
16.55641
 20
17.166023
 40
17.832838
 50
238.087108
 51
239.76433
  0
ARC
  8
APS_GEOMETRY
 10
14.484058
 20
13.610459
 40
13.717418
 50
239.76433
 51
241.761846
  0
ARC
  8
APS_GEOMETRY
 10
13.584522
 20
11.935511
 40
11.816204
 50
241.761846
 51
244.177551
  0
ARC
  8
APS_GEOMETRY
 10
12.113386
 20
8.89536
 40
8.438814
 50
244.177551
 51
247.149058
  0
ARC
  8
APS_GEOMETRY
 10
11.547033
 20
7.551406
 40
6.980401
 50
247.149058
 51
250.872932
  0
ARC
  8
APS_GEOMETRY
 10
10.761545
 20
5.286512
 40
4.583166
 50
250.872932
 51
255.632095
  0
ARC
  8
APS_GEOMETRY
 10
10.524549
 20
4.361323
 40
3.628105
 50
255.632095
 51
261.82872
  0
ARC
  8
APS_GEOMETRY
 10
10.325069
 20
2.972096
 40
2.224629
 50
261.82872
 51
270.0
  0
ARC
  8
APS_GEOMETRY
 10
10.325069
 20
2.973144
 40
2.225678
 50
270.0
 51
278.167671
  0
ARC
  8
APS_GEOMETRY
 10
10.12484
 20
4.368211
 40
3.63504
 50
278.167671
 51
284.357118
  0
ARC
  8
APS_GEOMETRY
 10
9.887014
 20
5.29737
 40
4.594153
 50
284.357118
 51
289.108462
  0
ARC
  8
APS_GEOMETRY
 10
9.098899
 20
7.572222
 40
7.001657
 50
289.108462
 51
292.825045
  0
ARC
  8
APS_GEOMETRY
 10
8.53077
 20
8.922096
 40
8.466216
 50
292.825045
 51
295.79016
  0
ARC
  8
APS_GEOMETRY
 10
7.055333
 20
11.975522
 40
11.857428
 50
295.79016
 51
298.200419
  0
ARC
  8
APS_GEOMETRY
 10
6.153421
 20
13.657551
 40
13.766006
 50
298.200419
 51
300.193372
  0
ARC
  8
APS_GEOMETRY
 10
4.076412
 20
17.22716
 40
17.895906
 50
300.193372
 51
301.866825
  0
ARC
  8
APS_GEOMETRY
 10
2.931337
 20
19.069176
 40
20.064826
 50
301.866825
 51
303.291685
  0
ARC
  8
APS_GEOMETRY
 10
0.534888
 20
22.718575
 40
24.430727
 50
303.291685
 51
304.520451
  0
ARC
  8
APS_GEOMETRY
 10
-0.660415
 20
24.456422
 40
26.539959
 50
304.520451
 51
305.592866
  0
ARC
  8
APS_GEOMETRY
 10
-2.874855
 20
27.550334
 40
30.344698
 50
305.592866
 51
306.53979
  0
ARC
  8
APS_GEOMETRY
 10
-4.304856
 20
29.480064
 40
32.746522
 50
306.53979
 51
308.152095
  0
ARC
  8
APS_GEOMETRY
 10
-5.039135
 20
30.414774
 40
33.935155
 50
308.152095
 51
309.519162
  0
ARC
  8
APS_GEOMETRY
 10
-3.381899
 20
28.405756
 40
31.330816
 50
309.519162
 51
310.161597
  0
ARC
  8
APS_GEOMETRY
 10
0.849448
 20
23.39182
 40
24.770034
 50
310.161597
 51
310.818653
  0
ARC
  8
APS_GEOMETRY
 10
3.900728
 20
19.859203
 40
20.102092
 50
310.818653
 51
311.559588
  0
ARC
  8
APS_GEOMETRY
 10
11.41891
 20
11.379232
 40
8.769264
 50
311.559588
 51
312.580018
  0
ARC
  8
APS_GEOMETRY
 10
17.712042
 20
8.224076
 40
3.321476
 50
261.287795
 51
263.783295
  0
ARC
  8
APS_GEOMETRY
 10
17.610776
 20
7.56324
 40
2.652926
 50
258.563987
 51
261.287795
  0
ARC
  8
APS_GEOMETRY
 10
17.5265
 20
7.146628
 40
2.227876
 50
252.355807
 51
258.563987
  0
ARC
  8
APS_GEOMETRY
 10
17.285273
 20
6.388213
 40
1.432021
 50
245.03326
 51
252.355807
  0
ARC
  8
APS_GEOMETRY
 10
17.171706
 20
6.1443
 40
1.162965
 50
236.561974
 51
245.03326
  0
ARC
  8
APS_GEOMETRY
 10
16.978568
 20
5.851813
 40
0.812464
 50
227.08221
 51
236.561974
  0
ARC
  8
APS_GEOMETRY
 10
16.868593
 20
5.733539
 40
0.650961
 50
201.782472
 51
227.08221
  0
ARC
  8
APS_GEOMETRY
 10
16.747809
 20
5.685272
 40
0.52089
 50
180.0
 51
201.782472
  0
LINE
  8
Materials
 10
0.0
 11
0.0
 20
0.0
 21
16.187005
  0
LINE
  8
Materials
 10
0.0
 11
20.641693
 20
16.187005
 21
16.187005
  0
LINE
  8
Materials
 10
20.641693
 11
20.641693
 20
16.187005
 21
0.0
  0
LINE
  8
Materials
 10
20.641693
 11
0.0
 20
0.0
 21
0.0
  0
ENDSEC
  0
EOF
