999
"DXF R12 Output" (www.mydxf.blogspot.com)
 0 
SECTION
 2 
HEADER
 9 
$ACADVER
 1 
AC1009
 9 
$EXTMIN
 10 
 0 
 20 
 0 
 9 
$EXTMAX
 10 
 8.5 
 20 
 11 
 0 
ENDSEC
 0 
SECTION
 2 
ENTITIES
0
LINE
8
Layer 1
10
105.683403
20
161.277569
11
104.510417
21
161.154097
0
LINE
8
Layer 1
10
104.510417
20
161.154097
11
103.884236
21
159.222639
0
LINE
8
Layer 1
10
103.884236
20
159.222639
11
103.875417
21
158.384792
0
LINE
8
Layer 1
10
103.875417
20
158.384792
11
104.087083
21
157.423472
0
LINE
8
Layer 1
10
104.087083
20
157.423472
11
102.093889
21
156.779653
0
LINE
8
Layer 1
10
102.093889
20
156.779653
11
101.714653
21
157.688056
0
LINE
8
Layer 1
10
101.714653
20
157.688056
11
101.211944
21
158.349514
0
LINE
8
Layer 1
10
101.211944
20
158.349514
11
99.571528
21
159.548958
0
LINE
8
Layer 1
10
99.571528
20
159.548958
11
98.548472
21
158.958056
0
LINE
8
Layer 1
10
98.548472
20
158.958056
11
98.768958
21
156.947222
0
LINE
8
Layer 1
10
98.768958
20
156.947222
11
99.095278
21
156.171111
0
LINE
8
Layer 1
10
99.095278
20
156.171111
11
99.686181
21
155.386181
0
LINE
8
Layer 1
10
99.686181
20
155.386181
11
98.125139
21
153.983889
0
LINE
8
Layer 1
10
98.125139
20
153.983889
11
97.401944
21
154.654167
0
LINE
8
Layer 1
10
97.401944
20
154.654167
11
96.678750
21
155.059861
0
LINE
8
Layer 1
10
96.678750
20
155.059861
11
94.685556
21
155.492014
0
LINE
8
Layer 1
10
94.685556
20
155.492014
11
93.997639
21
154.530694
0
LINE
8
Layer 1
10
93.997639
20
154.530694
11
95.020694
21
152.775625
0
LINE
8
Layer 1
10
95.020694
20
152.775625
11
95.629236
21
152.211181
0
LINE
8
Layer 1
10
95.629236
20
152.211181
11
96.484722
21
151.726111
0
LINE
8
Layer 1
10
96.484722
20
151.726111
11
95.638056
21
149.812292
0
LINE
8
Layer 1
10
95.638056
20
149.812292
11
94.703194
21
150.129792
0
LINE
8
Layer 1
10
94.703194
20
150.129792
11
93.874167
21
150.209167
0
LINE
8
Layer 1
10
93.874167
20
150.209167
11
91.880972
21
149.794653
0
LINE
8
Layer 1
10
91.880972
20
149.794653
11
91.642847
21
148.639306
0
LINE
8
Layer 1
10
91.642847
20
148.639306
11
93.283264
21
147.448681
0
LINE
8
Layer 1
10
93.283264
20
147.448681
11
94.077014
21
147.175278
0
LINE
8
Layer 1
10
94.077014
20
147.175278
11
95.055972
21
147.087083
0
LINE
8
Layer 1
10
95.055972
20
147.087083
11
95.055972
21
144.996875
0
LINE
8
Layer 1
10
95.055972
20
144.996875
11
94.077014
21
144.908681
0
LINE
8
Layer 1
10
94.077014
20
144.908681
11
93.283264
21
144.635278
0
LINE
8
Layer 1
10
93.283264
20
144.635278
11
91.642847
21
143.444653
0
LINE
8
Layer 1
10
91.642847
20
143.444653
11
91.880972
21
142.289306
0
LINE
8
Layer 1
10
91.880972
20
142.289306
11
93.874167
21
141.874792
0
LINE
8
Layer 1
10
93.874167
20
141.874792
11
94.703194
21
141.945347
0
LINE
8
Layer 1
10
94.703194
20
141.945347
11
95.638056
21
142.271667
0
LINE
8
Layer 1
10
95.638056
20
142.271667
11
96.484722
21
140.349028
0
LINE
8
Layer 1
10
96.484722
20
140.349028
11
95.629236
21
139.872778
0
LINE
8
Layer 1
10
95.629236
20
139.872778
11
95.020694
21
139.299514
0
LINE
8
Layer 1
10
95.020694
20
139.299514
11
93.997639
21
137.544444
0
LINE
8
Layer 1
10
93.997639
20
137.544444
11
94.685556
21
136.591944
0
LINE
8
Layer 1
10
94.685556
20
136.591944
11
96.678750
21
137.024097
0
LINE
8
Layer 1
10
96.678750
20
137.024097
11
97.401944
21
137.429792
0
LINE
8
Layer 1
10
97.401944
20
137.429792
11
98.125139
21
138.100069
0
LINE
8
Layer 1
10
98.125139
20
138.100069
11
99.686181
21
136.697778
0
LINE
8
Layer 1
10
99.686181
20
136.697778
11
99.095278
21
135.912847
0
LINE
8
Layer 1
10
99.095278
20
135.912847
11
98.768958
21
135.136736
0
LINE
8
Layer 1
10
98.768958
20
135.136736
11
98.548472
21
133.117083
0
LINE
8
Layer 1
10
98.548472
20
133.117083
11
99.571528
21
132.535000
0
LINE
8
Layer 1
10
99.571528
20
132.535000
11
101.211944
21
133.734444
0
LINE
8
Layer 1
10
101.211944
20
133.734444
11
101.714653
21
134.395903
0
LINE
8
Layer 1
10
101.714653
20
134.395903
11
102.093889
21
135.304306
0
LINE
8
Layer 1
10
102.093889
20
135.304306
11
104.087083
21
134.651667
0
LINE
8
Layer 1
10
104.087083
20
134.651667
11
103.875417
21
133.699167
0
LINE
8
Layer 1
10
103.875417
20
133.699167
11
103.884236
21
132.861319
0
LINE
8
Layer 1
10
103.884236
20
132.861319
11
104.510417
21
130.929861
0
LINE
8
Layer 1
10
104.510417
20
130.929861
11
105.683403
21
130.806389
0
LINE
8
Layer 1
10
105.683403
20
130.806389
11
106.688819
21
132.570278
0
LINE
8
Layer 1
10
106.688819
20
132.570278
11
106.874028
21
133.381667
0
LINE
8
Layer 1
10
106.874028
20
133.381667
11
106.865208
21
134.360625
0
LINE
8
Layer 1
10
106.865208
20
134.360625
11
108.946597
21
134.581111
0
LINE
8
Layer 1
10
108.946597
20
134.581111
11
109.140625
21
133.619792
0
LINE
8
Layer 1
10
109.140625
20
133.619792
11
109.493403
21
132.861319
0
LINE
8
Layer 1
10
109.493403
20
132.861319
11
110.842778
21
131.344375
0
LINE
8
Layer 1
10
110.842778
20
131.344375
11
111.962847
21
131.705972
0
LINE
8
Layer 1
10
111.962847
20
131.705972
11
112.165694
21
133.734444
0
LINE
8
Layer 1
10
112.165694
20
133.734444
11
112.006944
21
134.554653
0
LINE
8
Layer 1
10
112.006944
20
134.554653
11
111.601250
21
135.445417
0
LINE
8
Layer 1
10
111.601250
20
135.445417
11
113.409236
21
136.494931
0
LINE
8
Layer 1
10
113.409236
20
136.494931
11
113.973681
21
135.683542
0
LINE
8
Layer 1
10
113.973681
20
135.683542
11
114.608681
21
135.136736
0
LINE
8
Layer 1
10
114.608681
20
135.136736
11
116.460764
21
134.307708
0
LINE
8
Layer 1
10
116.460764
20
134.307708
11
117.333889
21
135.092639
0
LINE
8
Layer 1
10
117.333889
20
135.092639
11
116.698889
21
137.024097
0
LINE
8
Layer 1
10
116.698889
20
137.024097
11
116.222639
21
137.712014
0
LINE
8
Layer 1
10
116.222639
20
137.712014
11
115.481806
21
138.355833
0
LINE
8
Layer 1
10
115.481806
20
138.355833
11
116.716528
21
140.049167
0
LINE
8
Layer 1
10
116.716528
20
140.049167
11
117.563194
21
139.546458
0
LINE
8
Layer 1
10
117.563194
20
139.546458
11
118.356944
21
139.299514
0
LINE
8
Layer 1
10
118.356944
20
139.299514
11
120.394236
21
139.299514
0
LINE
8
Layer 1
10
120.394236
20
139.299514
11
120.870486
21
140.375486
0
LINE
8
Layer 1
10
120.870486
20
140.375486
11
119.503472
21
141.874792
0
LINE
8
Layer 1
10
119.503472
20
141.874792
11
118.789097
21
142.306944
0
LINE
8
Layer 1
10
118.789097
20
142.306944
11
117.845417
21
142.597986
0
LINE
8
Layer 1
10
117.845417
20
142.597986
11
118.286389
21
144.644097
0
LINE
8
Layer 1
10
118.286389
20
144.644097
11
119.256528
21
144.529444
0
LINE
8
Layer 1
10
119.256528
20
144.529444
11
120.094375
21
144.635278
0
LINE
8
Layer 1
10
120.094375
20
144.635278
11
121.946458
21
145.455486
0
LINE
8
Layer 1
10
121.946458
20
145.455486
11
121.946458
21
146.628472
0
LINE
8
Layer 1
10
121.946458
20
146.628472
11
120.094375
21
147.448681
0
LINE
8
Layer 1
10
120.094375
20
147.448681
11
119.256528
21
147.554514
0
LINE
8
Layer 1
10
119.256528
20
147.554514
11
118.286389
21
147.431042
0
LINE
8
Layer 1
10
118.286389
20
147.431042
11
117.845417
21
149.485972
0
LINE
8
Layer 1
10
117.845417
20
149.485972
11
118.789097
21
149.777014
0
LINE
8
Layer 1
10
118.789097
20
149.777014
11
119.503472
21
150.209167
0
LINE
8
Layer 1
10
119.503472
20
150.209167
11
120.870486
21
151.708472
0
LINE
8
Layer 1
10
120.870486
20
151.708472
11
120.394236
21
152.784444
0
LINE
8
Layer 1
10
120.394236
20
152.784444
11
118.356944
21
152.775625
0
LINE
8
Layer 1
10
118.356944
20
152.775625
11
117.563194
21
152.537500
0
LINE
8
Layer 1
10
117.563194
20
152.537500
11
116.716528
21
152.034792
0
LINE
8
Layer 1
10
116.716528
20
152.034792
11
115.481806
21
153.728125
0
LINE
8
Layer 1
10
115.481806
20
153.728125
11
116.222639
21
154.371944
0
LINE
8
Layer 1
10
116.222639
20
154.371944
11
116.698889
21
155.059861
0
LINE
8
Layer 1
10
116.698889
20
155.059861
11
117.333889
21
156.991319
0
LINE
8
Layer 1
10
117.333889
20
156.991319
11
116.460764
21
157.776250
0
LINE
8
Layer 1
10
116.460764
20
157.776250
11
114.608681
21
156.947222
0
LINE
8
Layer 1
10
114.608681
20
156.947222
11
113.973681
21
156.391597
0
LINE
8
Layer 1
10
113.973681
20
156.391597
11
113.409236
21
155.589028
0
LINE
8
Layer 1
10
113.409236
20
155.589028
11
111.601250
21
156.638542
0
LINE
8
Layer 1
10
111.601250
20
156.638542
11
112.006944
21
157.529306
0
LINE
8
Layer 1
10
112.006944
20
157.529306
11
112.165694
21
158.349514
0
LINE
8
Layer 1
10
112.165694
20
158.349514
11
111.962847
21
160.369167
0
LINE
8
Layer 1
10
111.962847
20
160.369167
11
110.842778
21
160.739583
0
LINE
8
Layer 1
10
110.842778
20
160.739583
11
109.493403
21
159.222639
0
LINE
8
Layer 1
10
109.493403
20
159.222639
11
109.140625
21
158.464167
0
LINE
8
Layer 1
10
109.140625
20
158.464167
11
108.946597
21
157.502847
0
LINE
8
Layer 1
10
108.946597
20
157.502847
11
106.865208
21
157.714514
0
LINE
8
Layer 1
10
106.865208
20
157.714514
11
106.874028
21
158.702292
0
LINE
8
Layer 1
10
106.874028
20
158.702292
11
106.688819
21
159.513681
0
LINE
8
Layer 1
10
106.688819
20
159.513681
11
105.683403
21
161.277569
0
LINE
8
Layer 1
10
105.683403
20
161.277569
11
105.683403
21
161.277569
0
LINE
8
Layer 1
10
108.920139
20
154.389583
11
110.071207
21
154.046439
0
LINE
8
Layer 1
10
110.071207
20
154.046439
11
111.145981
21
153.553242
0
LINE
8
Layer 1
10
111.145981
20
153.553242
11
112.132821
21
152.922853
0
LINE
8
Layer 1
10
112.132821
20
152.922853
11
113.020091
21
152.168129
0
LINE
8
Layer 1
10
113.020091
20
152.168129
11
113.796151
21
151.301929
0
LINE
8
Layer 1
10
113.796151
20
151.301929
11
114.449364
21
150.337111
0
LINE
8
Layer 1
10
114.449364
20
150.337111
11
114.968091
21
149.286534
0
LINE
8
Layer 1
10
114.968091
20
149.286534
11
115.340694
21
148.163056
0
LINE
8
Layer 1
10
115.340694
20
148.163056
11
110.031389
21
148.163056
0
LINE
8
Layer 1
10
110.031389
20
148.163056
11
109.533199
21
148.779380
0
LINE
8
Layer 1
10
109.533199
20
148.779380
11
108.920139
21
149.283125
0
LINE
8
Layer 1
10
108.920139
20
149.283125
11
108.920139
21
154.389583
0
LINE
8
Layer 1
10
108.920139
20
154.389583
11
108.920139
21
154.389583
0
LINE
8
Layer 1
10
104.669167
20
154.257292
11
104.669167
21
149.291944
0
LINE
8
Layer 1
10
104.669167
20
149.291944
11
104.051444
21
148.786270
0
LINE
8
Layer 1
10
104.051444
20
148.786270
11
103.549097
21
148.163056
0
LINE
8
Layer 1
10
103.549097
20
148.163056
11
98.760139
21
148.163056
0
LINE
8
Layer 1
10
98.760139
20
148.163056
11
99.112754
21
149.237369
0
LINE
8
Layer 1
10
99.112754
20
149.237369
11
99.597303
21
150.242146
0
LINE
8
Layer 1
10
99.597303
20
150.242146
11
100.918911
21
152.003574
0
LINE
8
Layer 1
10
100.918911
20
152.003574
11
102.638390
21
153.368302
0
LINE
8
Layer 1
10
102.638390
20
153.368302
11
104.669167
21
154.257292
0
LINE
8
Layer 1
10
104.669167
20
154.257292
11
104.669167
21
154.257292
0
LINE
8
Layer 1
10
106.680000
20
148.251250
11
106.909306
21
148.251250
0
LINE
8
Layer 1
10
106.909306
20
148.251250
11
107.757798
21
148.034169
0
LINE
8
Layer 1
10
107.757798
20
148.034169
11
108.433269
21
147.524993
0
LINE
8
Layer 1
10
108.433269
20
147.524993
11
108.869310
21
146.799067
0
LINE
8
Layer 1
10
108.869310
20
146.799067
11
108.999514
21
145.931736
0
LINE
8
Layer 1
10
108.999514
20
145.931736
11
108.782532
21
145.081275
0
LINE
8
Layer 1
10
108.782532
20
145.081275
11
108.273555
21
144.402470
0
LINE
8
Layer 1
10
108.273555
20
144.402470
11
107.547679
21
143.963541
0
LINE
8
Layer 1
10
107.547679
20
143.963541
11
106.680000
21
143.832708
0
LINE
8
Layer 1
10
106.680000
20
143.832708
11
105.830917
21
144.049690
0
LINE
8
Layer 1
10
105.830917
20
144.049690
11
105.155144
21
144.558667
0
LINE
8
Layer 1
10
105.155144
20
144.558667
11
104.719247
21
145.284543
0
LINE
8
Layer 1
10
104.719247
20
145.284543
11
104.589792
21
146.152222
0
LINE
8
Layer 1
10
104.589792
20
146.152222
11
104.783409
21
146.953918
0
LINE
8
Layer 1
10
104.783409
20
146.953918
11
105.237206
21
147.608544
0
LINE
8
Layer 1
10
105.237206
20
147.608544
11
105.889848
21
148.059766
0
LINE
8
Layer 1
10
105.889848
20
148.059766
11
106.680000
21
148.251250
0
LINE
8
Layer 1
10
106.680000
20
148.251250
11
106.680000
21
148.251250
0
LINE
8
Layer 1
10
98.760139
20
143.920903
11
103.549097
21
143.920903
0
LINE
8
Layer 1
10
103.549097
20
143.920903
11
104.051450
21
143.304431
0
LINE
8
Layer 1
10
104.051450
20
143.304431
11
104.669167
21
142.800833
0
LINE
8
Layer 1
10
104.669167
20
142.800833
11
104.669167
21
137.835486
0
LINE
8
Layer 1
10
104.669167
20
137.835486
11
102.622170
21
138.732392
0
LINE
8
Layer 1
10
102.622170
20
138.732392
11
100.902115
21
140.102494
0
LINE
8
Layer 1
10
100.902115
20
140.102494
11
99.588329
21
141.860447
0
LINE
8
Layer 1
10
99.588329
20
141.860447
11
98.760139
21
143.920903
0
LINE
8
Layer 1
10
98.760139
20
143.920903
11
98.760139
21
143.920903
0
LINE
8
Layer 1
10
110.040208
20
143.920903
11
115.331875
21
143.920903
0
LINE
8
Layer 1
10
115.331875
20
143.920903
11
114.954816
21
142.786334
0
LINE
8
Layer 1
10
114.954816
20
142.786334
11
114.431092
21
141.730866
0
LINE
8
Layer 1
10
114.431092
20
141.730866
11
113.773404
21
140.766001
0
LINE
8
Layer 1
10
113.773404
20
140.766001
11
112.994457
21
139.903238
0
LINE
8
Layer 1
10
112.994457
20
139.903238
11
112.106954
21
139.154075
0
LINE
8
Layer 1
10
112.106954
20
139.154075
11
111.123598
21
138.530014
0
LINE
8
Layer 1
10
111.123598
20
138.530014
11
110.057092
21
138.042554
0
LINE
8
Layer 1
10
110.057092
20
138.042554
11
108.920139
21
137.703194
0
LINE
8
Layer 1
10
108.920139
20
137.703194
11
108.920139
21
142.792014
0
LINE
8
Layer 1
10
108.920139
20
142.792014
11
109.537895
21
143.297668
0
LINE
8
Layer 1
10
109.537895
20
143.297668
11
110.040208
21
143.920903
0
LINE
8
Layer 1
10
110.040208
20
143.920903
11
110.040208
21
143.920903
 0 
ENDSEC
 0 
EOF
